  0
SECTION
  2
HEADER
  9
$ACADVER
  1
AC1009
  9
$DWGCODEPAGE
  3
ansi_1250
  9
$INSBASE
 10
0.0
 20
0.0
 30
0.0
  9
$EXTMIN
 10
-300.0
 20
-400.0
 30
-19.00000000000024
  9
$EXTMAX
 10
300.0
 20
400.0000000000001
 30
2.000000000000014
  9
$LIMMIN
 10
0.0
 20
0.0
  9
$LIMMAX
 10
420.0
 20
297.0
  9
$ORTHOMODE
 70
     0
  9
$REGENMODE
 70
     1
  9
$FILLMODE
 70
     1
  9
$QTEXTMODE
 70
     0
  9
$MIRRTEXT
 70
     0
  9
$DRAGMODE
 70
     2
  9
$LTSCALE
 40
1.0
  9
$OSMODE
 70
   511
  9
$ATTMODE
 70
     1
  9
$TEXTSIZE
 40
2.5
  9
$TRACEWID
 40
1.0
  9
$TEXTSTYLE
  7
STANDARD
  9
$CLAYER
  8
0
  9
$CELTYPE
  6
BYLAYER
  9
$CECOLOR
 62
   256
  9
$DIMSCALE
 40
1.0
  9
$DIMASZ
 40
2.5
  9
$DIMEXO
 40
0.625
  9
$DIMDLI
 40
3.75
  9
$DIMRND
 40
0.0
  9
$DIMDLE
 40
0.0
  9
$DIMEXE
 40
1.25
  9
$DIMTP
 40
0.0
  9
$DIMTM
 40
0.0
  9
$DIMTXT
 40
2.5
  9
$DIMCEN
 40
-2.5
  9
$DIMTSZ
 40
0.0
  9
$DIMTOL
 70
     0
  9
$DIMLIM
 70
     0
  9
$DIMTIH
 70
     0
  9
$DIMTOH
 70
     0
  9
$DIMSE1
 70
     0
  9
$DIMSE2
 70
     0
  9
$DIMTAD
 70
     1
  9
$DIMZIN
 70
     8
  9
$DIMBLK
  1

  9
$DIMASO
 70
     1
  9
$DIMSHO
 70
     1
  9
$DIMPOST
  1

  9
$DIMAPOST
  1

  9
$DIMALT
 70
     0
  9
$DIMALTD
 70
     3
  9
$DIMALTF
 40
0.03937007874016
  9
$DIMLFAC
 40
1.0
  9
$DIMTOFL
 70
     1
  9
$DIMTVP
 40
0.0
  9
$DIMTIX
 70
     0
  9
$DIMSOXD
 70
     0
  9
$DIMSAH
 70
     0
  9
$DIMBLK1
  1

  9
$DIMBLK2
  1

  9
$DIMSTYLE
  2
ISO-25
  9
$DIMCLRD
 70
     0
  9
$DIMCLRE
 70
     0
  9
$DIMCLRT
 70
     0
  9
$DIMTFAC
 40
1.0
  9
$DIMGAP
 40
0.625
  9
$LUNITS
 70
     2
  9
$LUPREC
 70
     3
  9
$SKETCHINC
 40
1.0
  9
$FILLETRAD
 40
10.0
  9
$AUNITS
 70
     0
  9
$AUPREC
 70
     0
  9
$MENU
  1
.
  9
$ELEVATION
 40
0.0
  9
$PELEVATION
 40
0.0
  9
$THICKNESS
 40
0.0
  9
$LIMCHECK
 70
     0
  9
$CHAMFERA
 40
10.0
  9
$CHAMFERB
 40
10.0
  9
$SKPOLY
 70
     0
  9
$TDCREATE
 40
2455022.720692848
  9
$TDUPDATE
 40
2460523.414595382
  9
$TDINDWG
 40
0.0032732176
  9
$TDUSRTIMER
 40
0.0032732176
  9
$USRTIMER
 70
     1
  9
$ANGBASE
 50
0.0
  9
$ANGDIR
 70
     0
  9
$PDMODE
 70
     0
  9
$PDSIZE
 40
0.0
  9
$PLINEWID
 40
0.0
  9
$COORDS
 70
     1
  9
$SPLFRAME
 70
     0
  9
$SPLINETYPE
 70
     6
  9
$SPLINESEGS
 70
     8
  9
$ATTDIA
 70
     0
  9
$ATTREQ
 70
     1
  9
$HANDLING
 70
     1
  9
$HANDSEED
  5
15C8
  9
$SURFTAB1
 70
     6
  9
$SURFTAB2
 70
     6
  9
$SURFTYPE
 70
     6
  9
$SURFU
 70
     6
  9
$SURFV
 70
     6
  9
$UCSNAME
  2

  9
$UCSORG
 10
0.0
 20
0.0
 30
0.0
  9
$UCSXDIR
 10
1.0
 20
0.0
 30
0.0
  9
$UCSYDIR
 10
0.0
 20
1.0
 30
0.0
  9
$PUCSNAME
  2

  9
$PUCSORG
 10
0.0
 20
0.0
 30
0.0
  9
$PUCSXDIR
 10
1.0
 20
0.0
 30
0.0
  9
$PUCSYDIR
 10
0.0
 20
1.0
 30
0.0
  9
$USERI1
 70
     0
  9
$USERI2
 70
     0
  9
$USERI3
 70
     0
  9
$USERI4
 70
     0
  9
$USERI5
 70
     0
  9
$USERR1
 40
0.0
  9
$USERR2
 40
0.0
  9
$USERR3
 40
0.0
  9
$USERR4
 40
0.0
  9
$USERR5
 40
0.0
  9
$WORLDVIEW
 70
     1
  9
$SHADEDGE
 70
     3
  9
$SHADEDIF
 70
    70
  9
$TILEMODE
 70
     1
  9
$MAXACTVP
 70
    64
  9
$PLIMCHECK
 70
     0
  9
$PEXTMIN
 10
1.000000000000000E+20
 20
1.000000000000000E+20
 30
1.000000000000000E+20
  9
$PEXTMAX
 10
-1.000000000000000E+20
 20
-1.000000000000000E+20
 30
-1.000000000000000E+20
  9
$PLIMMIN
 10
0.0
 20
0.0
  9
$PLIMMAX
 10
0.0
 20
0.0
  9
$UNITMODE
 70
     0
  9
$VISRETAIN
 70
     1
  9
$PLINEGEN
 70
     0
  9
$PSLTSCALE
 70
     1
  0
ENDSEC
  0
SECTION
  2
TABLES
  0
TABLE
  2
VPORT
 70
     1
  0
VPORT
  2
*ACTIVE
 70
     0
 10
0.0
 20
0.0
 11
1.0
 21
1.0
 12
-94.88447817080778
 22
-65.80428285635749
 13
0.0
 23
0.0
 14
10.0
 24
10.0
 15
10.0
 25
10.0
 16
0.5773502691896226
 26
0.5773502691896226
 36
0.5773502691896226
 17
-134.1869158878504
 27
-0.0000000000000178
 37
0.0000000000000071
 40
608.7961806713311
 41
1.89041095890411
 42
50.0
 43
0.0
 44
0.0
 50
0.0
 51
0.0
 71
    16
 72
  1000
 73
     1
 74
     3
 75
     0
 76
     0
 77
     0
 78
     0
  0
ENDTAB
  0
TABLE
  2
LTYPE
 70
     1
  0
LTYPE
  2
CONTINUOUS
 70
     0
  3
Solid line
 72
    65
 73
     0
 40
0.0
  0
ENDTAB
  0
TABLE
  2
LAYER
 70
     1
  0
LAYER
  2
0
 70
     0
 62
     7
  6
CONTINUOUS
  0
ENDTAB
  0
TABLE
  2
STYLE
 70
     2
  0
STYLE
  2
STANDARD
 70
     0
 40
0.0
 41
1.0
 50
0.0
 71
     0
 42
2.5
  3
arial.ttf
  4

  0
STYLE
  2
ANNOTATIVE
 70
     0
 40
0.0
 41
1.0
 50
0.0
 71
     0
 42
2.5
  3
arial.ttf
  4

  0
ENDTAB
  0
TABLE
  2
VIEW
 70
     0
  0
ENDTAB
  0
TABLE
  2
UCS
 70
     0
  0
ENDTAB
  0
TABLE
  2
APPID
 70
     2
  0
APPID
  2
ACAD
 70
     0
  0
APPID
  2
ACADANNOTATIVE
 70
     0
  0
ENDTAB
  0
TABLE
  2
DIMSTYLE
 70
     2
  0
DIMSTYLE
  2
ISO-25
 70
     0
  3

  4

  5

  6

  7

 40
1.0
 41
2.5
 42
0.625
 43
3.75
 44
1.25
 45
0.0
 46
0.0
 47
0.0
 48
0.0
140
2.5
141
-2.5
142
0.0
143
0.03937007874016
144
1.0
145
0.0
146
1.0
147
0.625
 71
     0
 72
     0
 73
     0
 74
     0
 75
     0
 76
     0
 77
     1
 78
     8
170
     0
171
     3
172
     1
173
     0
174
     0
175
     0
176
     0
177
     0
178
     0
  0
DIMSTYLE
  2
ANNOTATIVE
 70
     0
  3

  4

  5

  6

  7

 40
0.0
 41
2.5
 42
0.625
 43
3.75
 44
1.25
 45
0.0
 46
0.0
 47
0.0
 48
0.0
140
2.5
141
-2.5
142
0.0
143
0.03937007874016
144
1.0
145
0.0
146
1.0
147
0.625
 71
     0
 72
     0
 73
     0
 74
     0
 75
     0
 76
     0
 77
     1
 78
     8
170
     0
171
     3
172
     1
173
     0
174
     0
175
     0
176
     0
177
     0
178
     0
  0
ENDTAB
  0
ENDSEC
  0
SECTION
  2
BLOCKS
  0
BLOCK
  8
0
  2
$MODEL_SPACE
 70
     0
 10
0.0
 20
0.0
 30
0.0
  3
$MODEL_SPACE
  1

  0
ENDBLK
  5
21
  8
0
  0
BLOCK
 67
     1
  8
0
  2
$PAPER_SPACE
 70
     0
 10
0.0
 20
0.0
 30
0.0
  3
$PAPER_SPACE
  1

  0
ENDBLK
  5
1D
 67
     1
  8
0
  0
BLOCK
  8
0
  2
*X1
 70
     1
 10
0.0
 20
0.0
 30
0.0
  3
*X1
  1

  0
POLYLINE
  5
1082
  8
0
 66
     1
 10
0.0
 20
0.0
 30
0.0
 70
    64
 71
     4
 72
     2
  0
VERTEX
  5
1083
  8
0
 10
-300.0000000000001
 20
400.0
 30
0.0
 70
   192
  0
VERTEX
  5
1084
  8
0
 10
-300.0000000000001
 20
400.0
 30
2.0
 70
   192
  0
VERTEX
  5
1085
  8
0
 10
-300.0000000000001
 20
-400.0
 30
2.0
 70
   192
  0
VERTEX
  5
1086
  8
0
 10
-300.0000000000001
 20
-400.0
 30
0.0
 70
   192
  0
VERTEX
  5
1087
  8
0
 10
0.0
 20
0.0
 30
0.0
 70
   128
 71
     1
 72
     4
 73
    -3
  0
VERTEX
  5
1088
  8
0
 10
0.0
 20
0.0
 30
0.0
 70
   128
 71
    -1
 72
     3
 73
     2
  0
SEQEND
  5
156A
  8
0
  0
POLYLINE
  5
1089
  8
0
 66
     1
 10
0.0
 20
0.0
 30
0.0
 70
    64
 71
     4
 72
     2
  0
VERTEX
  5
108A
  8
0
 10
-300.0000000000001
 20
-400.0
 30
0.0
 70
   192
  0
VERTEX
  5
108B
  8
0
 10
-300.0000000000001
 20
-400.0
 30
2.0
 70
   192
  0
VERTEX
  5
108C
  8
0
 10
299.9999999999999
 20
-399.9999999999999
 30
2.0
 70
   192
  0
VERTEX
  5
108D
  8
0
 10
299.9999999999999
 20
-399.9999999999999
 30
0.0
 70
   192
  0
VERTEX
  5
108E
  8
0
 10
0.0
 20
0.0
 30
0.0
 70
   128
 71
     1
 72
     4
 73
    -3
  0
VERTEX
  5
108F
  8
0
 10
0.0
 20
0.0
 30
0.0
 70
   128
 71
    -1
 72
     3
 73
     2
  0
SEQEND
  5
156B
  8
0
  0
POLYLINE
  5
1090
  8
0
 66
     1
 10
0.0
 20
0.0
 30
0.0
 70
    64
 71
     4
 72
     2
  0
VERTEX
  5
1091
  8
0
 10
299.9999999999999
 20
-399.9999999999999
 30
0.0
 70
   192
  0
VERTEX
  5
1092
  8
0
 10
299.9999999999999
 20
-399.9999999999999
 30
2.0
 70
   192
  0
VERTEX
  5
1093
  8
0
 10
299.9999999999999
 20
400.0000000000001
 30
2.0
 70
   192
  0
VERTEX
  5
1094
  8
0
 10
299.9999999999999
 20
400.0000000000001
 30
0.0
 70
   192
  0
VERTEX
  5
1095
  8
0
 10
0.0
 20
0.0
 30
0.0
 70
   128
 71
     1
 72
     4
 73
    -3
  0
VERTEX
  5
1096
  8
0
 10
0.0
 20
0.0
 30
0.0
 70
   128
 71
    -1
 72
     3
 73
     2
  0
SEQEND
  5
156C
  8
0
  0
POLYLINE
  5
1097
  8
0
 66
     1
 10
0.0
 20
0.0
 30
0.0
 70
    64
 71
     4
 72
     2
  0
VERTEX
  5
1098
  8
0
 10
299.9999999999999
 20
400.0000000000001
 30
0.0
 70
   192
  0
VERTEX
  5
1099
  8
0
 10
299.9999999999999
 20
400.0000000000001
 30
2.0
 70
   192
  0
VERTEX
  5
109A
  8
0
 10
-300.0000000000001
 20
400.0
 30
2.0
 70
   192
  0
VERTEX
  5
109B
  8
0
 10
-300.0000000000001
 20
400.0
 30
0.0
 70
   192
  0
VERTEX
  5
109C
  8
0
 10
0.0
 20
0.0
 30
0.0
 70
   128
 71
     1
 72
     4
 73
    -3
  0
VERTEX
  5
109D
  8
0
 10
0.0
 20
0.0
 30
0.0
 70
   128
 71
    -1
 72
     3
 73
     2
  0
SEQEND
  5
156D
  8
0
  0
POLYLINE
  5
109E
  8
0
 66
     1
 10
0.0
 20
0.0
 30
0.0
 70
    64
 71
     4
 72
     2
  0
VERTEX
  5
109F
  8
0
 10
-300.0000000000001
 20
400.0
 30
2.0
 70
   192
  0
VERTEX
  5
10A0
  8
0
 10
-300.0000000000001
 20
-400.0
 30
2.0
 70
   192
  0
VERTEX
  5
10A1
  8
0
 10
299.9999999999999
 20
-399.9999999999999
 30
2.0
 70
   192
  0
VERTEX
  5
10A2
  8
0
 10
299.9999999999999
 20
400.0000000000001
 30
2.0
 70
   192
  0
VERTEX
  5
10A3
  8
0
 10
0.0
 20
0.0
 30
0.0
 70
   128
 71
     3
 72
     4
 73
    -1
  0
VERTEX
  5
10A4
  8
0
 10
0.0
 20
0.0
 30
0.0
 70
   128
 71
     2
 72
    -3
 73
     1
  0
SEQEND
  5
156E
  8
0
  0
POLYLINE
  5
10A5
  8
0
 66
     1
 10
0.0
 20
0.0
 30
0.0
 70
    64
 71
     4
 72
     2
  0
VERTEX
  5
10A6
  8
0
 10
-300.0000000000001
 20
-400.0
 30
0.0
 70
   192
  0
VERTEX
  5
10A7
  8
0
 10
299.9999999999999
 20
-399.9999999999999
 30
0.0
 70
   192
  0
VERTEX
  5
10A8
  8
0
 10
299.9999999999999
 20
400.0000000000001
 30
0.0
 70
   192
  0
VERTEX
  5
10A9
  8
0
 10
-300.0000000000001
 20
400.0
 30
0.0
 70
   192
  0
VERTEX
  5
10AA
  8
0
 10
0.0
 20
0.0
 30
0.0
 70
   128
 71
     1
 72
     4
 73
    -3
  0
VERTEX
  5
10AB
  8
0
 10
0.0
 20
0.0
 30
0.0
 70
   128
 71
    -1
 72
     3
 73
     2
  0
SEQEND
  5
156F
  8
0
  0
ENDBLK
  5
1569
  8
0
  0
BLOCK
  8
0
  2
*X2
 70
     1
 10
0.0
 20
0.0
 30
0.0
  3
*X2
  1

  0
POLYLINE
  5
10AD
  8
0
 66
     1
 10
0.0
 20
0.0
 30
0.0
 70
    64
 71
     8
 72
     6
  0
VERTEX
  5
10AE
  8
0
 10
-247.3749999999996
 20
386.2475952641913
 30
-14.0
 70
   192
  0
VERTEX
  5
10AF
  8
0
 10
-248.7475952641911
 20
384.8749999999998
 30
-14.0
 70
   192
  0
VERTEX
  5
10B0
  8
0
 10
-248.7475952641911
 20
384.8749999999998
 30
-19.0
 70
   192
  0
VERTEX
  5
10B1
  8
0
 10
-247.3749999999996
 20
386.2475952641913
 30
-19.0
 70
   192
  0
VERTEX
  5
10B2
  8
0
 10
-249.2499999999994
 20
383.0
 30
-14.0
 70
   192
  0
VERTEX
  5
10B3
  8
0
 10
-249.2499999999994
 20
383.0
 30
-19.0
 70
   192
  0
VERTEX
  5
10B4
  8
0
 10
-245.4999999999998
 20
386.7499999999996
 30
-14.0
 70
   192
  0
VERTEX
  5
10B5
  8
0
 10
-245.4999999999998
 20
386.7499999999996
 30
-19.0
 70
   192
  0
VERTEX
  5
10B6
  8
0
 10
0.0
 20
0.0
 30
0.0
 70
   128
 71
     1
 72
     2
 73
    -3
  0
VERTEX
  5
10B7
  8
0
 10
0.0
 20
0.0
 30
0.0
 70
   128
 71
     4
 72
    -1
 73
     3
  0
VERTEX
  5
10B8
  8
0
 10
0.0
 20
0.0
 30
0.0
 70
   128
 71
     2
 72
     5
 73
    -6
  0
VERTEX
  5
10B9
  8
0
 10
0.0
 20
0.0
 30
0.0
 70
   128
 71
     3
 72
    -2
 73
     6
  0
VERTEX
  5
10BA
  8
0
 10
0.0
 20
0.0
 30
0.0
 70
   128
 71
     7
 72
     1
 73
    -4
  0
VERTEX
  5
10BB
  8
0
 10
0.0
 20
0.0
 30
0.0
 70
   128
 71
     8
 72
    -7
 73
     4
  0
SEQEND
  5
1572
  8
0
  0
POLYLINE
  5
10BC
  8
0
 66
     1
 10
0.0
 20
0.0
 30
0.0
 70
    64
 71
    32
 72
    32
  0
VERTEX
  5
10BD
  8
0
 10
265.9999999999999
 20
366.0000000000001
 30
-19.0
 70
   192
  0
VERTEX
  5
10BE
  8
0
 10
-266.0000000000001
 20
366.0
 30
-19.0
 70
   192
  0
VERTEX
  5
10BF
  8
0
 10
-300.0
 20
400.0
 30
-19.0
 70
   192
  0
VERTEX
  5
10C0
  8
0
 10
299.9999999999999
 20
400.0000000000001
 30
-19.0
 70
   192
  0
VERTEX
  5
10C1
  8
0
 10
-245.4999999999998
 20
379.2500000000007
 30
-19.0
 70
   192
  0
VERTEX
  5
10C2
  8
0
 10
-241.7499999999979
 20
379.2500000000007
 30
-19.0
 70
   192
  0
VERTEX
  5
10C3
  8
0
 10
-241.7499999999979
 20
375.5000000000001
 30
-19.0
 70
   192
  0
VERTEX
  5
10C4
  8
0
 10
-241.0338137289049
 20
373.295805303904
 30
-19.0
 70
   192
  0
VERTEX
  5
10C5
  8
0
 10
-239.1588137289055
 20
371.9335380638944
 30
-19.0
 70
   192
  0
VERTEX
  5
10C6
  8
0
 10
-236.8411862710942
 20
371.9335380638944
 30
-19.0
 70
   192
  0
VERTEX
  5
10C7
  8
0
 10
-234.9661862710948
 20
373.295805303904
 30
-19.0
 70
   192
  0
VERTEX
  5
10C8
  8
0
 10
-234.2500000000011
 20
375.5000000000001
 30
-19.0
 70
   192
  0
VERTEX
  5
10C9
  8
0
 10
-234.2500000000003
 20
379.2500000000006
 30
-19.0
 70
   192
  0
VERTEX
  5
10CA
  8
0
 10
-230.4999999999998
 20
379.2500000000006
 30
-19.0
 70
   192
  0
VERTEX
  5
10CB
  8
0
 10
-227.8483495705505
 20
380.3483495705507
 30
-19.0
 70
   192
  0
VERTEX
  5
10CC
  8
0
 10
-226.7500000000002
 20
383.0
 30
-19.0
 70
   192
  0
VERTEX
  5
10CD
  8
0
 10
-227.8483495705505
 20
385.6516504294493
 30
-19.0
 70
   192
  0
VERTEX
  5
10CE
  8
0
 10
-230.4999999999998
 20
386.7499999999997
 30
-19.0
 70
   192
  0
VERTEX
  5
10CF
  8
0
 10
-234.2500000000007
 20
386.7499999999999
 30
-19.0
 70
   192
  0
VERTEX
  5
10D0
  8
0
 10
-234.2500000000003
 20
390.4999999999999
 30
-19.0
 70
   192
  0
VERTEX
  5
10D1
  8
0
 10
-234.9661862710947
 20
392.7041946960961
 30
-19.0
 70
   192
  0
VERTEX
  5
10D2
  8
0
 10
-236.8411862710941
 20
394.0664619361057
 30
-19.0
 70
   192
  0
VERTEX
  5
10D3
  8
0
 10
-239.1588137289055
 20
394.0664619361057
 30
-19.0
 70
   192
  0
VERTEX
  5
10D4
  8
0
 10
-241.0338137289049
 20
392.7041946960961
 30
-19.0
 70
   192
  0
VERTEX
  5
10D5
  8
0
 10
-241.7499999999986
 20
390.4999999999999
 30
-19.0
 70
   192
  0
VERTEX
  5
10D6
  8
0
 10
-241.7499999999978
 20
386.7499999999999
 30
-19.0
 70
   192
  0
VERTEX
  5
10D7
  8
0
 10
-245.4999999999998
 20
386.7499999999999
 30
-19.0
 70
   192
  0
VERTEX
  5
10D8
  8
0
 10
-247.3749999999996
 20
386.2475952641913
 30
-19.0
 70
   192
  0
VERTEX
  5
10D9
  8
0
 10
-248.7475952641911
 20
384.8749999999998
 30
-19.0
 70
   192
  0
VERTEX
  5
10DA
  8
0
 10
-249.2499999999994
 20
383.0
 30
-19.0
 70
   192
  0
VERTEX
  5
10DB
  8
0
 10
-248.7475952641911
 20
381.1250000000002
 30
-19.0
 70
   192
  0
VERTEX
  5
10DC
  8
0
 10
-247.3749999999996
 20
379.7524047358087
 30
-19.0
 70
   192
  0
VERTEX
  5
10DD
  8
0
 10
0.0
 20
0.0
 30
0.0
 70
   128
 71
    12
 72
    13
 73
   -14
  0
VERTEX
  5
10DE
  8
0
 10
0.0
 20
0.0
 30
0.0
 70
   128
 71
     5
 72
     6
 73
    -7
  0
VERTEX
  5
10DF
  8
0
 10
0.0
 20
0.0
 30
0.0
 70
   128
 71
    -2
 72
    -5
 73
    -7
  0
VERTEX
  5
10E0
  8
0
 10
0.0
 20
0.0
 30
0.0
 70
   128
 71
     7
 72
    -8
 73
    -2
  0
VERTEX
  5
10E1
  8
0
 10
0.0
 20
0.0
 30
0.0
 70
   128
 71
     8
 72
    -9
 73
    -2
  0
VERTEX
  5
10E2
  8
0
 10
0.0
 20
0.0
 30
0.0
 70
   128
 71
     9
 72
   -10
 73
    -2
  0
VERTEX
  5
10E3
  8
0
 10
0.0
 20
0.0
 30
0.0
 70
   128
 71
     1
 72
    -2
 73
   -10
  0
VERTEX
  5
10E4
  8
0
 10
0.0
 20
0.0
 30
0.0
 70
   128
 71
    10
 72
   -11
 73
    -1
  0
VERTEX
  5
10E5
  8
0
 10
0.0
 20
0.0
 30
0.0
 70
   128
 71
    14
 72
   -15
 73
    -1
  0
VERTEX
  5
10E6
  8
0
 10
0.0
 20
0.0
 30
0.0
 70
   128
 71
   -12
 72
   -14
 73
    -1
  0
VERTEX
  5
10E7
  8
0
 10
0.0
 20
0.0
 30
0.0
 70
   128
 71
    11
 72
   -12
 73
    -1
  0
VERTEX
  5
10E8
  8
0
 10
0.0
 20
0.0
 30
0.0
 70
   128
 71
    15
 72
   -16
 73
    -1
  0
VERTEX
  5
10E9
  8
0
 10
0.0
 20
0.0
 30
0.0
 70
   128
 71
    16
 72
   -17
 73
    -1
  0
VERTEX
  5
10EA
  8
0
 10
0.0
 20
0.0
 30
0.0
 70
   128
 71
   -20
 72
     4
 73
    -1
  0
VERTEX
  5
10EB
  8
0
 10
0.0
 20
0.0
 30
0.0
 70
   128
 71
   -17
 72
   -20
 73
    -1
  0
VERTEX
  5
10EC
  8
0
 10
0.0
 20
0.0
 30
0.0
 70
   128
 71
    17
 72
   -18
 73
   -20
  0
VERTEX
  5
10ED
  8
0
 10
0.0
 20
0.0
 30
0.0
 70
   128
 71
    18
 72
    19
 73
   -20
  0
VERTEX
  5
10EE
  8
0
 10
0.0
 20
0.0
 30
0.0
 70
   128
 71
    20
 72
   -21
 73
    -4
  0
VERTEX
  5
10EF
  8
0
 10
0.0
 20
0.0
 30
0.0
 70
   128
 71
    21
 72
   -22
 73
    -4
  0
VERTEX
  5
10F0
  8
0
 10
0.0
 20
0.0
 30
0.0
 70
   128
 71
    22
 72
   -23
 73
    -4
  0
VERTEX
  5
10F1
  8
0
 10
0.0
 20
0.0
 30
0.0
 70
   128
 71
   -23
 72
     3
 73
    -4
  0
VERTEX
  5
10F2
  8
0
 10
0.0
 20
0.0
 30
0.0
 70
   128
 71
    23
 72
   -24
 73
    -3
  0
VERTEX
  5
10F3
  8
0
 10
0.0
 20
0.0
 30
0.0
 70
   128
 71
    24
 72
   -25
 73
    -3
  0
VERTEX
  5
10F4
  8
0
 10
0.0
 20
0.0
 30
0.0
 70
   128
 71
    26
 72
   -27
 73
    -3
  0
VERTEX
  5
10F5
  8
0
 10
0.0
 20
0.0
 30
0.0
 70
   128
 71
    25
 72
   -26
 73
    -3
  0
VERTEX
  5
10F6
  8
0
 10
0.0
 20
0.0
 30
0.0
 70
   128
 71
    27
 72
   -28
 73
    -3
  0
VERTEX
  5
10F7
  8
0
 10
0.0
 20
0.0
 30
0.0
 70
   128
 71
    28
 72
   -29
 73
    -3
  0
VERTEX
  5
10F8
  8
0
 10
0.0
 20
0.0
 30
0.0
 70
   128
 71
   -30
 72
     2
 73
    -3
  0
VERTEX
  5
10F9
  8
0
 10
0.0
 20
0.0
 30
0.0
 70
   128
 71
    29
 72
   -30
 73
    -3
  0
VERTEX
  5
10FA
  8
0
 10
0.0
 20
0.0
 30
0.0
 70
   128
 71
    30
 72
   -31
 73
    -2
  0
VERTEX
  5
10FB
  8
0
 10
0.0
 20
0.0
 30
0.0
 70
   128
 71
    31
 72
   -32
 73
    -2
  0
VERTEX
  5
10FC
  8
0
 10
0.0
 20
0.0
 30
0.0
 70
   128
 71
    32
 72
    -5
 73
    -2
  0
SEQEND
  5
1573
  8
0
  0
POLYLINE
  5
10FD
  8
0
 66
     1
 10
0.0
 20
0.0
 30
0.0
 70
    64
 71
     4
 72
     2
  0
VERTEX
  5
10FE
  8
0
 10
265.9999999999999
 20
366.0000000000001
 30
0.0
 70
   192
  0
VERTEX
  5
10FF
  8
0
 10
-266.0000000000001
 20
366.0
 30
0.0
 70
   192
  0
VERTEX
  5
1100
  8
0
 10
-266.0000000000001
 20
366.0000000000001
 30
-19.0
 70
   192
  0
VERTEX
  5
1101
  8
0
 10
265.9999999999999
 20
366.0000000000001
 30
-19.0
 70
   192
  0
VERTEX
  5
1102
  8
0
 10
0.0
 20
0.0
 30
0.0
 70
   128
 71
     3
 72
     4
 73
    -1
  0
VERTEX
  5
1103
  8
0
 10
0.0
 20
0.0
 30
0.0
 70
   128
 71
     2
 72
    -3
 73
     1
  0
SEQEND
  5
1574
  8
0
  0
POLYLINE
  5
1104
  8
0
 66
     1
 10
0.0
 20
0.0
 30
0.0
 70
    64
 71
     4
 72
     2
  0
VERTEX
  5
1105
  8
0
 10
-266.0000000000001
 20
366.0000000000001
 30
0.0
 70
   192
  0
VERTEX
  5
1106
  8
0
 10
-266.0000000000001
 20
366.0000000000001
 30
-19.0
 70
   192
  0
VERTEX
  5
1107
  8
0
 10
-300.0000000000001
 20
400.0
 30
-19.0
 70
   192
  0
VERTEX
  5
1108
  8
0
 10
-300.0
 20
400.0
 30
0.0
 70
   192
  0
VERTEX
  5
1109
  8
0
 10
0.0
 20
0.0
 30
0.0
 70
   128
 71
     1
 72
     4
 73
    -3
  0
VERTEX
  5
110A
  8
0
 10
0.0
 20
0.0
 30
0.0
 70
   128
 71
    -1
 72
     3
 73
     2
  0
SEQEND
  5
1575
  8
0
  0
POLYLINE
  5
110B
  8
0
 66
     1
 10
0.0
 20
0.0
 30
0.0
 70
    64
 71
     4
 72
     2
  0
VERTEX
  5
110C
  8
0
 10
-300.0000000000001
 20
400.0
 30
0.0
 70
   192
  0
VERTEX
  5
110D
  8
0
 10
-300.0000000000001
 20
400.0
 30
-19.0
 70
   192
  0
VERTEX
  5
110E
  8
0
 10
299.9999999999999
 20
400.0000000000001
 30
-19.0
 70
   192
  0
VERTEX
  5
110F
  8
0
 10
299.9999999999999
 20
400.0000000000001
 30
0.0
 70
   192
  0
VERTEX
  5
1110
  8
0
 10
0.0
 20
0.0
 30
0.0
 70
   128
 71
     1
 72
     4
 73
    -3
  0
VERTEX
  5
1111
  8
0
 10
0.0
 20
0.0
 30
0.0
 70
   128
 71
    -1
 72
     3
 73
     2
  0
SEQEND
  5
1576
  8
0
  0
POLYLINE
  5
1112
  8
0
 66
     1
 10
0.0
 20
0.0
 30
0.0
 70
    64
 71
     4
 72
     2
  0
VERTEX
  5
1113
  8
0
 10
299.9999999999999
 20
400.0000000000001
 30
0.0
 70
   192
  0
VERTEX
  5
1114
  8
0
 10
299.9999999999999
 20
400.0000000000001
 30
-19.0
 70
   192
  0
VERTEX
  5
1115
  8
0
 10
265.9999999999999
 20
366.0000000000002
 30
-19.0
 70
   192
  0
VERTEX
  5
1116
  8
0
 10
265.9999999999999
 20
366.0000000000002
 30
0.0
 70
   192
  0
VERTEX
  5
1117
  8
0
 10
0.0
 20
0.0
 30
0.0
 70
   128
 71
     1
 72
     4
 73
    -3
  0
VERTEX
  5
1118
  8
0
 10
0.0
 20
0.0
 30
0.0
 70
   128
 71
    -1
 72
     3
 73
     2
  0
SEQEND
  5
1577
  8
0
  0
POLYLINE
  5
1119
  8
0
 66
     1
 10
0.0
 20
0.0
 30
0.0
 70
    64
 71
     4
 72
     2
  0
VERTEX
  5
111A
  8
0
 10
-266.0000000000001
 20
366.0000000000001
 30
0.0
 70
   192
  0
VERTEX
  5
111B
  8
0
 10
-300.0000000000001
 20
400.0
 30
0.0
 70
   192
  0
VERTEX
  5
111C
  8
0
 10
299.9999999999999
 20
400.0000000000001
 30
0.0
 70
   192
  0
VERTEX
  5
111D
  8
0
 10
265.9999999999999
 20
366.0000000000001
 30
0.0
 70
   192
  0
VERTEX
  5
111E
  8
0
 10
0.0
 20
0.0
 30
0.0
 70
   128
 71
     1
 72
     4
 73
    -3
  0
VERTEX
  5
111F
  8
0
 10
0.0
 20
0.0
 30
0.0
 70
   128
 71
    -1
 72
     3
 73
     2
  0
SEQEND
  5
1578
  8
0
  0
POLYLINE
  5
1120
  8
0
 66
     1
 10
0.0
 20
0.0
 30
0.0
 70
    64
 71
     8
 72
     6
  0
VERTEX
  5
1121
  8
0
 10
-248.7475952641911
 20
381.1250000000002
 30
-14.0
 70
   192
  0
VERTEX
  5
1122
  8
0
 10
-247.3749999999996
 20
379.7524047358087
 30
-14.0
 70
   192
  0
VERTEX
  5
1123
  8
0
 10
-247.3749999999996
 20
379.7524047358087
 30
-19.0
 70
   192
  0
VERTEX
  5
1124
  8
0
 10
-248.7475952641911
 20
381.1250000000002
 30
-19.0
 70
   192
  0
VERTEX
  5
1125
  8
0
 10
-245.4999999999998
 20
379.2500000000004
 30
-14.0
 70
   192
  0
VERTEX
  5
1126
  8
0
 10
-245.4999999999998
 20
379.2500000000007
 30
-19.0
 70
   192
  0
VERTEX
  5
1127
  8
0
 10
-249.2499999999994
 20
383.0
 30
-14.0
 70
   192
  0
VERTEX
  5
1128
  8
0
 10
-249.2499999999994
 20
383.0
 30
-19.0
 70
   192
  0
VERTEX
  5
1129
  8
0
 10
0.0
 20
0.0
 30
0.0
 70
   128
 71
     1
 72
     2
 73
    -3
  0
VERTEX
  5
112A
  8
0
 10
0.0
 20
0.0
 30
0.0
 70
   128
 71
     4
 72
    -1
 73
     3
  0
VERTEX
  5
112B
  8
0
 10
0.0
 20
0.0
 30
0.0
 70
   128
 71
     2
 72
     5
 73
    -6
  0
VERTEX
  5
112C
  8
0
 10
0.0
 20
0.0
 30
0.0
 70
   128
 71
     3
 72
    -2
 73
     6
  0
VERTEX
  5
112D
  8
0
 10
0.0
 20
0.0
 30
0.0
 70
   128
 71
     7
 72
     1
 73
    -4
  0
VERTEX
  5
112E
  8
0
 10
0.0
 20
0.0
 30
0.0
 70
   128
 71
     8
 72
    -7
 73
     4
  0
SEQEND
  5
1579
  8
0
  0
POLYLINE
  5
112F
  8
0
 66
     1
 10
0.0
 20
0.0
 30
0.0
 70
    64
 71
     4
 72
     2
  0
VERTEX
  5
1130
  8
0
 10
-241.7499999999979
 20
379.2500000000007
 30
-14.0
 70
   192
  0
VERTEX
  5
1131
  8
0
 10
-241.7499999999979
 20
379.2500000000007
 30
-19.0
 70
   192
  0
VERTEX
  5
1132
  8
0
 10
-245.4999999999998
 20
379.2500000000007
 30
-19.0
 70
   192
  0
VERTEX
  5
1133
  8
0
 10
-245.4999999999998
 20
379.2500000000007
 30
-14.0
 70
   192
  0
VERTEX
  5
1134
  8
0
 10
0.0
 20
0.0
 30
0.0
 70
   128
 71
     3
 72
     4
 73
    -1
  0
VERTEX
  5
1135
  8
0
 10
0.0
 20
0.0
 30
0.0
 70
   128
 71
     2
 72
    -3
 73
     1
  0
SEQEND
  5
157A
  8
0
  0
POLYLINE
  5
1136
  8
0
 66
     1
 10
0.0
 20
0.0
 30
0.0
 70
    64
 71
     4
 72
     2
  0
VERTEX
  5
1137
  8
0
 10
-241.7499999999978
 20
386.7499999999999
 30
-14.0
 70
   192
  0
VERTEX
  5
1138
  8
0
 10
-241.7499999999978
 20
386.7499999999999
 30
-19.0
 70
   192
  0
VERTEX
  5
1139
  8
0
 10
-245.4999999999998
 20
386.7499999999999
 30
-19.0
 70
   192
  0
VERTEX
  5
113A
  8
0
 10
-245.4999999999998
 20
386.7499999999999
 30
-14.0
 70
   192
  0
VERTEX
  5
113B
  8
0
 10
0.0
 20
0.0
 30
0.0
 70
   128
 71
     1
 72
     4
 73
    -3
  0
VERTEX
  5
113C
  8
0
 10
0.0
 20
0.0
 30
0.0
 70
   128
 71
    -1
 72
     3
 73
     2
  0
SEQEND
  5
157B
  8
0
  0
POLYLINE
  5
113D
  8
0
 66
     1
 10
0.0
 20
0.0
 30
0.0
 70
    64
 71
     4
 72
     2
  0
VERTEX
  5
113E
  8
0
 10
-234.2500000000007
 20
379.2500000000006
 30
-14.0
 70
   192
  0
VERTEX
  5
113F
  8
0
 10
-230.4999999999998
 20
379.2500000000006
 30
-14.0
 70
   192
  0
VERTEX
  5
1140
  8
0
 10
-230.4999999999998
 20
379.2500000000006
 30
-19.0
 70
   192
  0
VERTEX
  5
1141
  8
0
 10
-234.2500000000007
 20
379.2500000000006
 30
-19.0
 70
   192
  0
VERTEX
  5
1142
  8
0
 10
0.0
 20
0.0
 30
0.0
 70
   128
 71
     3
 72
     4
 73
    -1
  0
VERTEX
  5
1143
  8
0
 10
0.0
 20
0.0
 30
0.0
 70
   128
 71
     2
 72
    -3
 73
     1
  0
SEQEND
  5
157C
  8
0
  0
POLYLINE
  5
1144
  8
0
 66
     1
 10
0.0
 20
0.0
 30
0.0
 70
    64
 71
    10
 72
     8
  0
VERTEX
  5
1145
  8
0
 10
-230.4999999999998
 20
386.7499999999997
 30
-14.0
 70
   192
  0
VERTEX
  5
1146
  8
0
 10
-230.4999999999998
 20
379.2500000000006
 30
-14.0
 70
   192
  0
VERTEX
  5
1147
  8
0
 10
-230.4999999999998
 20
379.2500000000003
 30
-19.0
 70
   192
  0
VERTEX
  5
1148
  8
0
 10
-230.4999999999998
 20
386.7499999999997
 30
-19.0
 70
   192
  0
VERTEX
  5
1149
  8
0
 10
-226.7500000000002
 20
383.0
 30
-19.0
 70
   192
  0
VERTEX
  5
114A
  8
0
 10
-226.7500000000002
 20
383.0
 30
-14.0
 70
   192
  0
VERTEX
  5
114B
  8
0
 10
-227.8483495705505
 20
385.6516504294493
 30
-19.0
 70
   192
  0
VERTEX
  5
114C
  8
0
 10
-227.8483495705505
 20
385.6516504294493
 30
-14.0
 70
   192
  0
VERTEX
  5
114D
  8
0
 10
-227.8483495705505
 20
380.3483495705507
 30
-19.0
 70
   192
  0
VERTEX
  5
114E
  8
0
 10
-227.8483495705505
 20
380.3483495705507
 30
-14.0
 70
   192
  0
VERTEX
  5
114F
  8
0
 10
0.0
 20
0.0
 30
0.0
 70
   128
 71
     4
 72
     7
 73
    -8
  0
VERTEX
  5
1150
  8
0
 10
0.0
 20
0.0
 30
0.0
 70
   128
 71
     1
 72
    -4
 73
     8
  0
VERTEX
  5
1151
  8
0
 10
0.0
 20
0.0
 30
0.0
 70
   128
 71
     7
 72
     5
 73
    -6
  0
VERTEX
  5
1152
  8
0
 10
0.0
 20
0.0
 30
0.0
 70
   128
 71
     8
 72
    -7
 73
     6
  0
VERTEX
  5
1153
  8
0
 10
0.0
 20
0.0
 30
0.0
 70
   128
 71
     5
 72
     9
 73
   -10
  0
VERTEX
  5
1154
  8
0
 10
0.0
 20
0.0
 30
0.0
 70
   128
 71
     6
 72
    -5
 73
    10
  0
VERTEX
  5
1155
  8
0
 10
0.0
 20
0.0
 30
0.0
 70
   128
 71
     9
 72
     3
 73
    -2
  0
VERTEX
  5
1156
  8
0
 10
0.0
 20
0.0
 30
0.0
 70
   128
 71
    10
 72
    -9
 73
     2
  0
SEQEND
  5
157D
  8
0
  0
POLYLINE
  5
1157
  8
0
 66
     1
 10
0.0
 20
0.0
 30
0.0
 70
    64
 71
     4
 72
     2
  0
VERTEX
  5
1158
  8
0
 10
-234.2500000000007
 20
386.7499999999999
 30
-14.0
 70
   192
  0
VERTEX
  5
1159
  8
0
 10
-230.4999999999998
 20
386.7499999999997
 30
-14.0
 70
   192
  0
VERTEX
  5
115A
  8
0
 10
-230.4999999999998
 20
386.7499999999999
 30
-19.0
 70
   192
  0
VERTEX
  5
115B
  8
0
 10
-234.2500000000003
 20
386.7499999999999
 30
-19.0
 70
   192
  0
VERTEX
  5
115C
  8
0
 10
0.0
 20
0.0
 30
0.0
 70
   128
 71
     1
 72
     4
 73
    -3
  0
VERTEX
  5
115D
  8
0
 10
0.0
 20
0.0
 30
0.0
 70
   128
 71
    -1
 72
     3
 73
     2
  0
SEQEND
  5
157E
  8
0
  0
POLYLINE
  5
115E
  8
0
 66
     1
 10
0.0
 20
0.0
 30
0.0
 70
    64
 71
    12
 72
    10
  0
VERTEX
  5
115F
  8
0
 10
-234.2500000000011
 20
375.5000000000001
 30
-14.0
 70
   192
  0
VERTEX
  5
1160
  8
0
 10
-234.2500000000011
 20
375.5000000000001
 30
-19.0
 70
   192
  0
VERTEX
  5
1161
  8
0
 10
-234.9661862710948
 20
373.295805303904
 30
-19.0
 70
   192
  0
VERTEX
  5
1162
  8
0
 10
-234.9661862710948
 20
373.295805303904
 30
-14.0
 70
   192
  0
VERTEX
  5
1163
  8
0
 10
-241.7499999999986
 20
375.5000000000001
 30
-19.0
 70
   192
  0
VERTEX
  5
1164
  8
0
 10
-241.7499999999979
 20
375.5000000000001
 30
-14.0
 70
   192
  0
VERTEX
  5
1165
  8
0
 10
-241.0338137289049
 20
373.295805303904
 30
-14.0
 70
   192
  0
VERTEX
  5
1166
  8
0
 10
-241.0338137289049
 20
373.295805303904
 30
-19.0
 70
   192
  0
VERTEX
  5
1167
  8
0
 10
-239.1588137289055
 20
371.9335380638944
 30
-14.0
 70
   192
  0
VERTEX
  5
1168
  8
0
 10
-236.8411862710942
 20
371.9335380638944
 30
-14.0
 70
   192
  0
VERTEX
  5
1169
  8
0
 10
-236.8411862710942
 20
371.9335380638944
 30
-19.0
 70
   192
  0
VERTEX
  5
116A
  8
0
 10
-239.1588137289055
 20
371.9335380638944
 30
-19.0
 70
   192
  0
VERTEX
  5
116B
  8
0
 10
0.0
 20
0.0
 30
0.0
 70
   128
 71
     1
 72
     2
 73
    -3
  0
VERTEX
  5
116C
  8
0
 10
0.0
 20
0.0
 30
0.0
 70
   128
 71
     4
 72
    -1
 73
     3
  0
VERTEX
  5
116D
  8
0
 10
0.0
 20
0.0
 30
0.0
 70
   128
 71
     5
 72
     6
 73
    -7
  0
VERTEX
  5
116E
  8
0
 10
0.0
 20
0.0
 30
0.0
 70
   128
 71
     8
 72
    -5
 73
     7
  0
VERTEX
  5
116F
  8
0
 10
0.0
 20
0.0
 30
0.0
 70
   128
 71
     9
 72
    10
 73
   -11
  0
VERTEX
  5
1170
  8
0
 10
0.0
 20
0.0
 30
0.0
 70
   128
 71
    12
 72
    -9
 73
    11
  0
VERTEX
  5
1171
  8
0
 10
0.0
 20
0.0
 30
0.0
 70
   128
 71
    10
 72
     4
 73
    -3
  0
VERTEX
  5
1172
  8
0
 10
0.0
 20
0.0
 30
0.0
 70
   128
 71
    11
 72
   -10
 73
     3
  0
VERTEX
  5
1173
  8
0
 10
0.0
 20
0.0
 30
0.0
 70
   128
 71
     7
 72
     9
 73
   -12
  0
VERTEX
  5
1174
  8
0
 10
0.0
 20
0.0
 30
0.0
 70
   128
 71
     8
 72
    -7
 73
    12
  0
SEQEND
  5
157F
  8
0
  0
POLYLINE
  5
1175
  8
0
 66
     1
 10
0.0
 20
0.0
 30
0.0
 70
    64
 71
     4
 72
     2
  0
VERTEX
  5
1176
  8
0
 10
-234.2500000000003
 20
379.2500000000006
 30
-14.0
 70
   192
  0
VERTEX
  5
1177
  8
0
 10
-234.2500000000011
 20
375.5000000000001
 30
-14.0
 70
   192
  0
VERTEX
  5
1178
  8
0
 10
-234.2500000000003
 20
375.5000000000001
 30
-19.0
 70
   192
  0
VERTEX
  5
1179
  8
0
 10
-234.2500000000003
 20
379.2500000000006
 30
-19.0
 70
   192
  0
VERTEX
  5
117A
  8
0
 10
0.0
 20
0.0
 30
0.0
 70
   128
 71
     1
 72
     4
 73
    -3
  0
VERTEX
  5
117B
  8
0
 10
0.0
 20
0.0
 30
0.0
 70
   128
 71
    -1
 72
     3
 73
     2
  0
SEQEND
  5
1580
  8
0
  0
POLYLINE
  5
117C
  8
0
 66
     1
 10
0.0
 20
0.0
 30
0.0
 70
    64
 71
     4
 72
     2
  0
VERTEX
  5
117D
  8
0
 10
-241.7499999999979
 20
379.2500000000007
 30
-14.0
 70
   192
  0
VERTEX
  5
117E
  8
0
 10
-241.7499999999979
 20
375.5000000000001
 30
-14.0
 70
   192
  0
VERTEX
  5
117F
  8
0
 10
-241.7499999999979
 20
375.5000000000001
 30
-19.0
 70
   192
  0
VERTEX
  5
1180
  8
0
 10
-241.7499999999979
 20
379.2500000000007
 30
-19.0
 70
   192
  0
VERTEX
  5
1181
  8
0
 10
0.0
 20
0.0
 30
0.0
 70
   128
 71
     3
 72
     4
 73
    -1
  0
VERTEX
  5
1182
  8
0
 10
0.0
 20
0.0
 30
0.0
 70
   128
 71
     2
 72
    -3
 73
     1
  0
SEQEND
  5
1581
  8
0
  0
POLYLINE
  5
1183
  8
0
 66
     1
 10
0.0
 20
0.0
 30
0.0
 70
    64
 71
    12
 72
    10
  0
VERTEX
  5
1184
  8
0
 10
-241.7499999999986
 20
390.4999999999999
 30
-14.0
 70
   192
  0
VERTEX
  5
1185
  8
0
 10
-241.7499999999986
 20
390.4999999999999
 30
-19.0
 70
   192
  0
VERTEX
  5
1186
  8
0
 10
-241.0338137289049
 20
392.7041946960961
 30
-19.0
 70
   192
  0
VERTEX
  5
1187
  8
0
 10
-241.0338137289049
 20
392.7041946960961
 30
-14.0
 70
   192
  0
VERTEX
  5
1188
  8
0
 10
-234.2500000000011
 20
390.4999999999999
 30
-19.0
 70
   192
  0
VERTEX
  5
1189
  8
0
 10
-234.2500000000003
 20
390.4999999999999
 30
-14.0
 70
   192
  0
VERTEX
  5
118A
  8
0
 10
-234.9661862710947
 20
392.7041946960961
 30
-14.0
 70
   192
  0
VERTEX
  5
118B
  8
0
 10
-234.9661862710947
 20
392.7041946960961
 30
-19.0
 70
   192
  0
VERTEX
  5
118C
  8
0
 10
-236.8411862710941
 20
394.0664619361057
 30
-14.0
 70
   192
  0
VERTEX
  5
118D
  8
0
 10
-239.1588137289055
 20
394.0664619361057
 30
-14.0
 70
   192
  0
VERTEX
  5
118E
  8
0
 10
-239.1588137289055
 20
394.0664619361057
 30
-19.0
 70
   192
  0
VERTEX
  5
118F
  8
0
 10
-236.8411862710941
 20
394.0664619361057
 30
-19.0
 70
   192
  0
VERTEX
  5
1190
  8
0
 10
0.0
 20
0.0
 30
0.0
 70
   128
 71
     1
 72
     2
 73
    -3
  0
VERTEX
  5
1191
  8
0
 10
0.0
 20
0.0
 30
0.0
 70
   128
 71
     4
 72
    -1
 73
     3
  0
VERTEX
  5
1192
  8
0
 10
0.0
 20
0.0
 30
0.0
 70
   128
 71
     5
 72
     6
 73
    -7
  0
VERTEX
  5
1193
  8
0
 10
0.0
 20
0.0
 30
0.0
 70
   128
 71
     8
 72
    -5
 73
     7
  0
VERTEX
  5
1194
  8
0
 10
0.0
 20
0.0
 30
0.0
 70
   128
 71
     9
 72
    10
 73
   -11
  0
VERTEX
  5
1195
  8
0
 10
0.0
 20
0.0
 30
0.0
 70
   128
 71
    12
 72
    -9
 73
    11
  0
VERTEX
  5
1196
  8
0
 10
0.0
 20
0.0
 30
0.0
 70
   128
 71
    10
 72
     4
 73
    -3
  0
VERTEX
  5
1197
  8
0
 10
0.0
 20
0.0
 30
0.0
 70
   128
 71
    11
 72
   -10
 73
     3
  0
VERTEX
  5
1198
  8
0
 10
0.0
 20
0.0
 30
0.0
 70
   128
 71
     7
 72
     9
 73
   -12
  0
VERTEX
  5
1199
  8
0
 10
0.0
 20
0.0
 30
0.0
 70
   128
 71
     8
 72
    -7
 73
    12
  0
SEQEND
  5
1582
  8
0
  0
POLYLINE
  5
119A
  8
0
 66
     1
 10
0.0
 20
0.0
 30
0.0
 70
    64
 71
     4
 72
     2
  0
VERTEX
  5
119B
  8
0
 10
-241.7499999999978
 20
386.7499999999999
 30
-14.0
 70
   192
  0
VERTEX
  5
119C
  8
0
 10
-241.7499999999978
 20
386.7499999999999
 30
-19.0
 70
   192
  0
VERTEX
  5
119D
  8
0
 10
-241.7499999999978
 20
390.4999999999999
 30
-19.0
 70
   192
  0
VERTEX
  5
119E
  8
0
 10
-241.7499999999978
 20
390.4999999999999
 30
-14.0
 70
   192
  0
VERTEX
  5
119F
  8
0
 10
0.0
 20
0.0
 30
0.0
 70
   128
 71
     3
 72
     4
 73
    -1
  0
VERTEX
  5
11A0
  8
0
 10
0.0
 20
0.0
 30
0.0
 70
   128
 71
     2
 72
    -3
 73
     1
  0
SEQEND
  5
1583
  8
0
  0
POLYLINE
  5
11A1
  8
0
 66
     1
 10
0.0
 20
0.0
 30
0.0
 70
    64
 71
     4
 72
     2
  0
VERTEX
  5
11A2
  8
0
 10
-234.2500000000003
 20
386.7499999999999
 30
-14.0
 70
   192
  0
VERTEX
  5
11A3
  8
0
 10
-234.2500000000003
 20
386.7499999999999
 30
-19.0
 70
   192
  0
VERTEX
  5
11A4
  8
0
 10
-234.2500000000003
 20
390.4999999999999
 30
-19.0
 70
   192
  0
VERTEX
  5
11A5
  8
0
 10
-234.2500000000003
 20
390.4999999999999
 30
-14.0
 70
   192
  0
VERTEX
  5
11A6
  8
0
 10
0.0
 20
0.0
 30
0.0
 70
   128
 71
     1
 72
     4
 73
    -3
  0
VERTEX
  5
11A7
  8
0
 10
0.0
 20
0.0
 30
0.0
 70
   128
 71
    -1
 72
     3
 73
     2
  0
SEQEND
  5
1584
  8
0
  0
POLYLINE
  5
11A8
  8
0
 66
     1
 10
0.0
 20
0.0
 30
0.0
 70
    64
 71
    28
 72
    26
  0
VERTEX
  5
11A9
  8
0
 10
-234.2500000000003
 20
386.7499999999999
 30
-14.0
 70
   192
  0
VERTEX
  5
11AA
  8
0
 10
-234.2500000000011
 20
390.4999999999999
 30
-14.0
 70
   192
  0
VERTEX
  5
11AB
  8
0
 10
-234.9661862710947
 20
392.7041946960961
 30
-14.0
 70
   192
  0
VERTEX
  5
11AC
  8
0
 10
-236.8411862710941
 20
394.0664619361057
 30
-14.0
 70
   192
  0
VERTEX
  5
11AD
  8
0
 10
-239.1588137289055
 20
394.0664619361057
 30
-14.0
 70
   192
  0
VERTEX
  5
11AE
  8
0
 10
-241.0338137289049
 20
392.7041946960961
 30
-14.0
 70
   192
  0
VERTEX
  5
11AF
  8
0
 10
-241.7499999999978
 20
390.4999999999999
 30
-14.0
 70
   192
  0
VERTEX
  5
11B0
  8
0
 10
-241.7499999999979
 20
386.7499999999999
 30
-14.0
 70
   192
  0
VERTEX
  5
11B1
  8
0
 10
-245.4999999999998
 20
386.7499999999996
 30
-14.0
 70
   192
  0
VERTEX
  5
11B2
  8
0
 10
-247.3749999999996
 20
386.2475952641913
 30
-14.0
 70
   192
  0
VERTEX
  5
11B3
  8
0
 10
-248.7475952641911
 20
384.8749999999998
 30
-14.0
 70
   192
  0
VERTEX
  5
11B4
  8
0
 10
-249.2499999999994
 20
383.0
 30
-14.0
 70
   192
  0
VERTEX
  5
11B5
  8
0
 10
-248.7475952641911
 20
381.1250000000002
 30
-14.0
 70
   192
  0
VERTEX
  5
11B6
  8
0
 10
-247.3749999999996
 20
379.7524047358087
 30
-14.0
 70
   192
  0
VERTEX
  5
11B7
  8
0
 10
-245.4999999999998
 20
379.2500000000007
 30
-14.0
 70
   192
  0
VERTEX
  5
11B8
  8
0
 10
-241.7499999999979
 20
379.2500000000007
 30
-14.0
 70
   192
  0
VERTEX
  5
11B9
  8
0
 10
-241.7499999999986
 20
375.5000000000001
 30
-14.0
 70
   192
  0
VERTEX
  5
11BA
  8
0
 10
-241.0338137289049
 20
373.295805303904
 30
-14.0
 70
   192
  0
VERTEX
  5
11BB
  8
0
 10
-239.1588137289055
 20
371.9335380638944
 30
-14.0
 70
   192
  0
VERTEX
  5
11BC
  8
0
 10
-236.8411862710942
 20
371.9335380638944
 30
-14.0
 70
   192
  0
VERTEX
  5
11BD
  8
0
 10
-234.9661862710948
 20
373.295805303904
 30
-14.0
 70
   192
  0
VERTEX
  5
11BE
  8
0
 10
-234.2500000000003
 20
375.5000000000001
 30
-14.0
 70
   192
  0
VERTEX
  5
11BF
  8
0
 10
-234.2500000000007
 20
379.2500000000006
 30
-14.0
 70
   192
  0
VERTEX
  5
11C0
  8
0
 10
-230.4999999999998
 20
379.2500000000003
 30
-14.0
 70
   192
  0
VERTEX
  5
11C1
  8
0
 10
-227.8483495705505
 20
380.3483495705507
 30
-14.0
 70
   192
  0
VERTEX
  5
11C2
  8
0
 10
-226.7500000000002
 20
383.0
 30
-14.0
 70
   192
  0
VERTEX
  5
11C3
  8
0
 10
-227.8483495705505
 20
385.6516504294493
 30
-14.0
 70
   192
  0
VERTEX
  5
11C4
  8
0
 10
-230.4999999999998
 20
386.7499999999999
 30
-14.0
 70
   192
  0
VERTEX
  5
11C5
  8
0
 10
0.0
 20
0.0
 30
0.0
 70
   128
 71
    23
 72
    22
 73
   -21
  0
VERTEX
  5
11C6
  8
0
 10
0.0
 20
0.0
 30
0.0
 70
   128
 71
   -23
 72
    21
 73
   -20
  0
VERTEX
  5
11C7
  8
0
 10
0.0
 20
0.0
 30
0.0
 70
   128
 71
   -23
 72
    20
 73
   -19
  0
VERTEX
  5
11C8
  8
0
 10
0.0
 20
0.0
 30
0.0
 70
   128
 71
   -23
 72
    19
 73
   -18
  0
VERTEX
  5
11C9
  8
0
 10
0.0
 20
0.0
 30
0.0
 70
   128
 71
   -23
 72
    18
 73
   -17
  0
VERTEX
  5
11CA
  8
0
 10
0.0
 20
0.0
 30
0.0
 70
   128
 71
   -23
 72
    17
 73
   -16
  0
VERTEX
  5
11CB
  8
0
 10
0.0
 20
0.0
 30
0.0
 70
   128
 71
   -23
 72
   -16
 73
    -1
  0
VERTEX
  5
11CC
  8
0
 10
0.0
 20
0.0
 30
0.0
 70
   128
 71
     1
 72
    28
 73
   -27
  0
VERTEX
  5
11CD
  8
0
 10
0.0
 20
0.0
 30
0.0
 70
   128
 71
    -1
 72
    27
 73
   -26
  0
VERTEX
  5
11CE
  8
0
 10
0.0
 20
0.0
 30
0.0
 70
   128
 71
    -1
 72
    26
 73
   -25
  0
VERTEX
  5
11CF
  8
0
 10
0.0
 20
0.0
 30
0.0
 70
   128
 71
    -1
 72
    25
 73
   -24
  0
VERTEX
  5
11D0
  8
0
 10
0.0
 20
0.0
 30
0.0
 70
   128
 71
    -1
 72
    24
 73
   -23
  0
VERTEX
  5
11D1
  8
0
 10
0.0
 20
0.0
 30
0.0
 70
   128
 71
     8
 72
     7
 73
    -6
  0
VERTEX
  5
11D2
  8
0
 10
0.0
 20
0.0
 30
0.0
 70
   128
 71
    -8
 72
     6
 73
    -5
  0
VERTEX
  5
11D3
  8
0
 10
0.0
 20
0.0
 30
0.0
 70
   128
 71
    -8
 72
     5
 73
    -4
  0
VERTEX
  5
11D4
  8
0
 10
0.0
 20
0.0
 30
0.0
 70
   128
 71
    -8
 72
     4
 73
    -3
  0
VERTEX
  5
11D5
  8
0
 10
0.0
 20
0.0
 30
0.0
 70
   128
 71
    -8
 72
     3
 73
    -2
  0
VERTEX
  5
11D6
  8
0
 10
0.0
 20
0.0
 30
0.0
 70
   128
 71
    -8
 72
     2
 73
    -1
  0
VERTEX
  5
11D7
  8
0
 10
0.0
 20
0.0
 30
0.0
 70
   128
 71
    -8
 72
    -1
 73
   -16
  0
VERTEX
  5
11D8
  8
0
 10
0.0
 20
0.0
 30
0.0
 70
   128
 71
    16
 72
    15
 73
   -14
  0
VERTEX
  5
11D9
  8
0
 10
0.0
 20
0.0
 30
0.0
 70
   128
 71
   -16
 72
    14
 73
   -13
  0
VERTEX
  5
11DA
  8
0
 10
0.0
 20
0.0
 30
0.0
 70
   128
 71
   -16
 72
    13
 73
   -12
  0
VERTEX
  5
11DB
  8
0
 10
0.0
 20
0.0
 30
0.0
 70
   128
 71
   -16
 72
    12
 73
   -11
  0
VERTEX
  5
11DC
  8
0
 10
0.0
 20
0.0
 30
0.0
 70
   128
 71
   -16
 72
    11
 73
   -10
  0
VERTEX
  5
11DD
  8
0
 10
0.0
 20
0.0
 30
0.0
 70
   128
 71
   -16
 72
    10
 73
    -9
  0
VERTEX
  5
11DE
  8
0
 10
0.0
 20
0.0
 30
0.0
 70
   128
 71
   -16
 72
     9
 73
    -8
  0
SEQEND
  5
1585
  8
0
  0
ENDBLK
  5
1571
  8
0
  0
BLOCK
  8
0
  2
*X3
 70
     1
 10
0.0
 20
0.0
 30
0.0
  3
*X3
  1

  0
POLYLINE
  5
11E0
  8
0
 66
     1
 10
0.0
 20
0.0
 30
0.0
 70
    64
 71
     8
 72
     6
  0
VERTEX
  5
11E1
  8
0
 10
-247.3749999999996
 20
-379.7524047358087
 30
-14.0
 70
   192
  0
VERTEX
  5
11E2
  8
0
 10
-248.7475952641911
 20
-381.1250000000002
 30
-14.0
 70
   192
  0
VERTEX
  5
11E3
  8
0
 10
-248.7475952641911
 20
-381.1250000000002
 30
-19.0
 70
   192
  0
VERTEX
  5
11E4
  8
0
 10
-247.3749999999996
 20
-379.7524047358087
 30
-19.0
 70
   192
  0
VERTEX
  5
11E5
  8
0
 10
-249.2499999999994
 20
-383.0
 30
-14.0
 70
   192
  0
VERTEX
  5
11E6
  8
0
 10
-249.2499999999994
 20
-383.0
 30
-19.0
 70
   192
  0
VERTEX
  5
11E7
  8
0
 10
-245.4999999999998
 20
-379.2500000000004
 30
-14.0
 70
   192
  0
VERTEX
  5
11E8
  8
0
 10
-245.4999999999998
 20
-379.2500000000004
 30
-19.0
 70
   192
  0
VERTEX
  5
11E9
  8
0
 10
0.0
 20
0.0
 30
0.0
 70
   128
 71
     1
 72
     2
 73
    -3
  0
VERTEX
  5
11EA
  8
0
 10
0.0
 20
0.0
 30
0.0
 70
   128
 71
     4
 72
    -1
 73
     3
  0
VERTEX
  5
11EB
  8
0
 10
0.0
 20
0.0
 30
0.0
 70
   128
 71
     2
 72
     5
 73
    -6
  0
VERTEX
  5
11EC
  8
0
 10
0.0
 20
0.0
 30
0.0
 70
   128
 71
     3
 72
    -2
 73
     6
  0
VERTEX
  5
11ED
  8
0
 10
0.0
 20
0.0
 30
0.0
 70
   128
 71
     7
 72
     1
 73
    -4
  0
VERTEX
  5
11EE
  8
0
 10
0.0
 20
0.0
 30
0.0
 70
   128
 71
     8
 72
    -7
 73
     4
  0
SEQEND
  5
1588
  8
0
  0
POLYLINE
  5
11EF
  8
0
 66
     1
 10
0.0
 20
0.0
 30
0.0
 70
    64
 71
    32
 72
    32
  0
VERTEX
  5
11F0
  8
0
 10
-266.0000000000001
 20
-366.0
 30
-19.0
 70
   192
  0
VERTEX
  5
11F1
  8
0
 10
265.9999999999999
 20
-365.9999999999999
 30
-19.0
 70
   192
  0
VERTEX
  5
11F2
  8
0
 10
299.9999999999999
 20
-399.9999999999999
 30
-19.0
 70
   192
  0
VERTEX
  5
11F3
  8
0
 10
-300.0000000000001
 20
-400.0
 30
-19.0
 70
   192
  0
VERTEX
  5
11F4
  8
0
 10
-230.4999999999998
 20
-379.2500000000006
 30
-19.0
 70
   192
  0
VERTEX
  5
11F5
  8
0
 10
-234.2500000000003
 20
-379.2500000000006
 30
-19.0
 70
   192
  0
VERTEX
  5
11F6
  8
0
 10
-234.2500000000003
 20
-375.5000000000001
 30
-19.0
 70
   192
  0
VERTEX
  5
11F7
  8
0
 10
-234.9661862710948
 20
-373.295805303904
 30
-19.0
 70
   192
  0
VERTEX
  5
11F8
  8
0
 10
-236.8411862710942
 20
-371.9335380638944
 30
-19.0
 70
   192
  0
VERTEX
  5
11F9
  8
0
 10
-239.1588137289055
 20
-371.9335380638944
 30
-19.0
 70
   192
  0
VERTEX
  5
11FA
  8
0
 10
-241.0338137289049
 20
-373.295805303904
 30
-19.0
 70
   192
  0
VERTEX
  5
11FB
  8
0
 10
-241.7499999999986
 20
-375.5000000000001
 30
-19.0
 70
   192
  0
VERTEX
  5
11FC
  8
0
 10
-241.7499999999979
 20
-379.2500000000007
 30
-19.0
 70
   192
  0
VERTEX
  5
11FD
  8
0
 10
-245.4999999999998
 20
-379.2500000000007
 30
-19.0
 70
   192
  0
VERTEX
  5
11FE
  8
0
 10
-247.3749999999996
 20
-379.7524047358087
 30
-19.0
 70
   192
  0
VERTEX
  5
11FF
  8
0
 10
-248.7475952641911
 20
-381.1250000000002
 30
-19.0
 70
   192
  0
VERTEX
  5
1200
  8
0
 10
-249.2499999999994
 20
-383.0
 30
-19.0
 70
   192
  0
VERTEX
  5
1201
  8
0
 10
-248.7475952641911
 20
-384.8749999999998
 30
-19.0
 70
   192
  0
VERTEX
  5
1202
  8
0
 10
-247.3749999999996
 20
-386.2475952641913
 30
-19.0
 70
   192
  0
VERTEX
  5
1203
  8
0
 10
-245.4999999999998
 20
-386.7499999999996
 30
-19.0
 70
   192
  0
VERTEX
  5
1204
  8
0
 10
-241.7499999999979
 20
-386.7499999999999
 30
-19.0
 70
   192
  0
VERTEX
  5
1205
  8
0
 10
-241.7499999999978
 20
-390.4999999999999
 30
-19.0
 70
   192
  0
VERTEX
  5
1206
  8
0
 10
-241.0338137289049
 20
-392.7041946960961
 30
-19.0
 70
   192
  0
VERTEX
  5
1207
  8
0
 10
-239.1588137289055
 20
-394.0664619361057
 30
-19.0
 70
   192
  0
VERTEX
  5
1208
  8
0
 10
-236.8411862710941
 20
-394.0664619361057
 30
-19.0
 70
   192
  0
VERTEX
  5
1209
  8
0
 10
-234.9661862710947
 20
-392.7041946960961
 30
-19.0
 70
   192
  0
VERTEX
  5
120A
  8
0
 10
-234.2500000000011
 20
-390.4999999999999
 30
-19.0
 70
   192
  0
VERTEX
  5
120B
  8
0
 10
-234.2500000000003
 20
-386.7499999999999
 30
-19.0
 70
   192
  0
VERTEX
  5
120C
  8
0
 10
-230.4999999999998
 20
-386.7499999999999
 30
-19.0
 70
   192
  0
VERTEX
  5
120D
  8
0
 10
-227.8483495705505
 20
-385.6516504294493
 30
-19.0
 70
   192
  0
VERTEX
  5
120E
  8
0
 10
-226.7500000000002
 20
-383.0
 30
-19.0
 70
   192
  0
VERTEX
  5
120F
  8
0
 10
-227.8483495705505
 20
-380.3483495705507
 30
-19.0
 70
   192
  0
VERTEX
  5
1210
  8
0
 10
0.0
 20
0.0
 30
0.0
 70
   128
 71
    27
 72
    28
 73
   -29
  0
VERTEX
  5
1211
  8
0
 10
0.0
 20
0.0
 30
0.0
 70
   128
 71
    -2
 72
    32
 73
    -5
  0
VERTEX
  5
1212
  8
0
 10
0.0
 20
0.0
 30
0.0
 70
   128
 71
    -7
 72
    -2
 73
    -5
  0
VERTEX
  5
1213
  8
0
 10
0.0
 20
0.0
 30
0.0
 70
   128
 71
     5
 72
     6
 73
    -7
  0
VERTEX
  5
1214
  8
0
 10
0.0
 20
0.0
 30
0.0
 70
   128
 71
     7
 72
    -8
 73
    -2
  0
VERTEX
  5
1215
  8
0
 10
0.0
 20
0.0
 30
0.0
 70
   128
 71
     8
 72
    -9
 73
    -2
  0
VERTEX
  5
1216
  8
0
 10
0.0
 20
0.0
 30
0.0
 70
   128
 71
    -9
 72
     1
 73
    -2
  0
VERTEX
  5
1217
  8
0
 10
0.0
 20
0.0
 30
0.0
 70
   128
 71
     9
 72
   -10
 73
    -1
  0
VERTEX
  5
1218
  8
0
 10
0.0
 20
0.0
 30
0.0
 70
   128
 71
    10
 72
   -11
 73
    -1
  0
VERTEX
  5
1219
  8
0
 10
0.0
 20
0.0
 30
0.0
 70
   128
 71
    11
 72
   -12
 73
    -1
  0
VERTEX
  5
121A
  8
0
 10
0.0
 20
0.0
 30
0.0
 70
   128
 71
    13
 72
   -14
 73
    -1
  0
VERTEX
  5
121B
  8
0
 10
0.0
 20
0.0
 30
0.0
 70
   128
 71
    12
 72
   -13
 73
    -1
  0
VERTEX
  5
121C
  8
0
 10
0.0
 20
0.0
 30
0.0
 70
   128
 71
    14
 72
   -15
 73
    -1
  0
VERTEX
  5
121D
  8
0
 10
0.0
 20
0.0
 30
0.0
 70
   128
 71
    15
 72
   -16
 73
    -1
  0
VERTEX
  5
121E
  8
0
 10
0.0
 20
0.0
 30
0.0
 70
   128
 71
    16
 72
   -17
 73
    -1
  0
VERTEX
  5
121F
  8
0
 10
0.0
 20
0.0
 30
0.0
 70
   128
 71
   -18
 72
     4
 73
    -1
  0
VERTEX
  5
1220
  8
0
 10
0.0
 20
0.0
 30
0.0
 70
   128
 71
    17
 72
   -18
 73
    -1
  0
VERTEX
  5
1221
  8
0
 10
0.0
 20
0.0
 30
0.0
 70
   128
 71
    18
 72
   -19
 73
    -4
  0
VERTEX
  5
1222
  8
0
 10
0.0
 20
0.0
 30
0.0
 70
   128
 71
   -19
 72
   -22
 73
    -4
  0
VERTEX
  5
1223
  8
0
 10
0.0
 20
0.0
 30
0.0
 70
   128
 71
    19
 72
   -20
 73
   -22
  0
VERTEX
  5
1224
  8
0
 10
0.0
 20
0.0
 30
0.0
 70
   128
 71
    20
 72
    21
 73
   -22
  0
VERTEX
  5
1225
  8
0
 10
0.0
 20
0.0
 30
0.0
 70
   128
 71
    22
 72
   -23
 73
    -4
  0
VERTEX
  5
1226
  8
0
 10
0.0
 20
0.0
 30
0.0
 70
   128
 71
    23
 72
   -24
 73
    -4
  0
VERTEX
  5
1227
  8
0
 10
0.0
 20
0.0
 30
0.0
 70
   128
 71
    24
 72
   -25
 73
    -4
  0
VERTEX
  5
1228
  8
0
 10
0.0
 20
0.0
 30
0.0
 70
   128
 71
     3
 72
    -4
 73
   -25
  0
VERTEX
  5
1229
  8
0
 10
0.0
 20
0.0
 30
0.0
 70
   128
 71
    25
 72
   -26
 73
    -3
  0
VERTEX
  5
122A
  8
0
 10
0.0
 20
0.0
 30
0.0
 70
   128
 71
    29
 72
   -30
 73
    -3
  0
VERTEX
  5
122B
  8
0
 10
0.0
 20
0.0
 30
0.0
 70
   128
 71
   -27
 72
   -29
 73
    -3
  0
VERTEX
  5
122C
  8
0
 10
0.0
 20
0.0
 30
0.0
 70
   128
 71
    26
 72
   -27
 73
    -3
  0
VERTEX
  5
122D
  8
0
 10
0.0
 20
0.0
 30
0.0
 70
   128
 71
   -31
 72
     2
 73
    -3
  0
VERTEX
  5
122E
  8
0
 10
0.0
 20
0.0
 30
0.0
 70
   128
 71
    30
 72
   -31
 73
    -3
  0
VERTEX
  5
122F
  8
0
 10
0.0
 20
0.0
 30
0.0
 70
   128
 71
    31
 72
   -32
 73
    -2
  0
SEQEND
  5
1589
  8
0
  0
POLYLINE
  5
1230
  8
0
 66
     1
 10
0.0
 20
0.0
 30
0.0
 70
    64
 71
     4
 72
     2
  0
VERTEX
  5
1231
  8
0
 10
-266.0000000000001
 20
-366.0
 30
0.0
 70
   192
  0
VERTEX
  5
1232
  8
0
 10
265.9999999999999
 20
-365.9999999999999
 30
0.0
 70
   192
  0
VERTEX
  5
1233
  8
0
 10
265.9999999999999
 20
-365.9999999999999
 30
-19.0
 70
   192
  0
VERTEX
  5
1234
  8
0
 10
-266.0000000000001
 20
-366.0
 30
-19.0
 70
   192
  0
VERTEX
  5
1235
  8
0
 10
0.0
 20
0.0
 30
0.0
 70
   128
 71
     3
 72
     4
 73
    -1
  0
VERTEX
  5
1236
  8
0
 10
0.0
 20
0.0
 30
0.0
 70
   128
 71
     2
 72
    -3
 73
     1
  0
SEQEND
  5
158A
  8
0
  0
POLYLINE
  5
1237
  8
0
 66
     1
 10
0.0
 20
0.0
 30
0.0
 70
    64
 71
     4
 72
     2
  0
VERTEX
  5
1238
  8
0
 10
265.9999999999999
 20
-365.9999999999999
 30
0.0
 70
   192
  0
VERTEX
  5
1239
  8
0
 10
265.9999999999999
 20
-365.9999999999999
 30
-19.0
 70
   192
  0
VERTEX
  5
123A
  8
0
 10
299.9999999999999
 20
-399.9999999999999
 30
-19.0
 70
   192
  0
VERTEX
  5
123B
  8
0
 10
299.9999999999999
 20
-399.9999999999999
 30
0.0
 70
   192
  0
VERTEX
  5
123C
  8
0
 10
0.0
 20
0.0
 30
0.0
 70
   128
 71
     1
 72
     4
 73
    -3
  0
VERTEX
  5
123D
  8
0
 10
0.0
 20
0.0
 30
0.0
 70
   128
 71
    -1
 72
     3
 73
     2
  0
SEQEND
  5
158B
  8
0
  0
POLYLINE
  5
123E
  8
0
 66
     1
 10
0.0
 20
0.0
 30
0.0
 70
    64
 71
     4
 72
     2
  0
VERTEX
  5
123F
  8
0
 10
299.9999999999999
 20
-399.9999999999999
 30
0.0
 70
   192
  0
VERTEX
  5
1240
  8
0
 10
299.9999999999999
 20
-399.9999999999999
 30
-19.0
 70
   192
  0
VERTEX
  5
1241
  8
0
 10
-300.0000000000001
 20
-400.0
 30
-19.0
 70
   192
  0
VERTEX
  5
1242
  8
0
 10
-300.0000000000001
 20
-400.0
 30
0.0
 70
   192
  0
VERTEX
  5
1243
  8
0
 10
0.0
 20
0.0
 30
0.0
 70
   128
 71
     1
 72
     4
 73
    -3
  0
VERTEX
  5
1244
  8
0
 10
0.0
 20
0.0
 30
0.0
 70
   128
 71
    -1
 72
     3
 73
     2
  0
SEQEND
  5
158C
  8
0
  0
POLYLINE
  5
1245
  8
0
 66
     1
 10
0.0
 20
0.0
 30
0.0
 70
    64
 71
     4
 72
     2
  0
VERTEX
  5
1246
  8
0
 10
-300.0000000000001
 20
-400.0
 30
0.0
 70
   192
  0
VERTEX
  5
1247
  8
0
 10
-300.0
 20
-400.0
 30
-19.0
 70
   192
  0
VERTEX
  5
1248
  8
0
 10
-266.0000000000001
 20
-366.0000000000001
 30
-19.0
 70
   192
  0
VERTEX
  5
1249
  8
0
 10
-266.0000000000001
 20
-366.0000000000001
 30
0.0
 70
   192
  0
VERTEX
  5
124A
  8
0
 10
0.0
 20
0.0
 30
0.0
 70
   128
 71
     1
 72
     4
 73
    -3
  0
VERTEX
  5
124B
  8
0
 10
0.0
 20
0.0
 30
0.0
 70
   128
 71
    -1
 72
     3
 73
     2
  0
SEQEND
  5
158D
  8
0
  0
POLYLINE
  5
124C
  8
0
 66
     1
 10
0.0
 20
0.0
 30
0.0
 70
    64
 71
     4
 72
     2
  0
VERTEX
  5
124D
  8
0
 10
265.9999999999999
 20
-365.9999999999999
 30
0.0
 70
   192
  0
VERTEX
  5
124E
  8
0
 10
299.9999999999999
 20
-399.9999999999999
 30
0.0
 70
   192
  0
VERTEX
  5
124F
  8
0
 10
-300.0
 20
-400.0
 30
0.0
 70
   192
  0
VERTEX
  5
1250
  8
0
 10
-266.0000000000001
 20
-366.0
 30
0.0
 70
   192
  0
VERTEX
  5
1251
  8
0
 10
0.0
 20
0.0
 30
0.0
 70
   128
 71
     1
 72
     4
 73
    -3
  0
VERTEX
  5
1252
  8
0
 10
0.0
 20
0.0
 30
0.0
 70
   128
 71
    -1
 72
     3
 73
     2
  0
SEQEND
  5
158E
  8
0
  0
POLYLINE
  5
1253
  8
0
 66
     1
 10
0.0
 20
0.0
 30
0.0
 70
    64
 71
     4
 72
     2
  0
VERTEX
  5
1254
  8
0
 10
-241.7499999999979
 20
-379.2500000000007
 30
-19.0
 70
   192
  0
VERTEX
  5
1255
  8
0
 10
-245.4999999999998
 20
-379.2500000000007
 30
-19.0
 70
   192
  0
VERTEX
  5
1256
  8
0
 10
-245.4999999999998
 20
-379.2500000000007
 30
-14.0
 70
   192
  0
VERTEX
  5
1257
  8
0
 10
-241.7499999999979
 20
-379.2500000000007
 30
-14.0
 70
   192
  0
VERTEX
  5
1258
  8
0
 10
0.0
 20
0.0
 30
0.0
 70
   128
 71
     1
 72
     4
 73
    -3
  0
VERTEX
  5
1259
  8
0
 10
0.0
 20
0.0
 30
0.0
 70
   128
 71
    -1
 72
     3
 73
     2
  0
SEQEND
  5
158F
  8
0
  0
POLYLINE
  5
125A
  8
0
 66
     1
 10
0.0
 20
0.0
 30
0.0
 70
    64
 71
     8
 72
     6
  0
VERTEX
  5
125B
  8
0
 10
-248.7475952641911
 20
-384.8749999999998
 30
-14.0
 70
   192
  0
VERTEX
  5
125C
  8
0
 10
-247.3749999999996
 20
-386.2475952641913
 30
-14.0
 70
   192
  0
VERTEX
  5
125D
  8
0
 10
-247.3749999999996
 20
-386.2475952641913
 30
-19.0
 70
   192
  0
VERTEX
  5
125E
  8
0
 10
-248.7475952641911
 20
-384.8749999999998
 30
-19.0
 70
   192
  0
VERTEX
  5
125F
  8
0
 10
-245.4999999999998
 20
-386.7499999999996
 30
-14.0
 70
   192
  0
VERTEX
  5
1260
  8
0
 10
-245.4999999999998
 20
-386.7499999999999
 30
-19.0
 70
   192
  0
VERTEX
  5
1261
  8
0
 10
-249.2499999999994
 20
-383.0
 30
-14.0
 70
   192
  0
VERTEX
  5
1262
  8
0
 10
-249.2499999999994
 20
-383.0
 30
-19.0
 70
   192
  0
VERTEX
  5
1263
  8
0
 10
0.0
 20
0.0
 30
0.0
 70
   128
 71
     1
 72
     2
 73
    -3
  0
VERTEX
  5
1264
  8
0
 10
0.0
 20
0.0
 30
0.0
 70
   128
 71
     4
 72
    -1
 73
     3
  0
VERTEX
  5
1265
  8
0
 10
0.0
 20
0.0
 30
0.0
 70
   128
 71
     2
 72
     5
 73
    -6
  0
VERTEX
  5
1266
  8
0
 10
0.0
 20
0.0
 30
0.0
 70
   128
 71
     3
 72
    -2
 73
     6
  0
VERTEX
  5
1267
  8
0
 10
0.0
 20
0.0
 30
0.0
 70
   128
 71
     7
 72
     1
 73
    -4
  0
VERTEX
  5
1268
  8
0
 10
0.0
 20
0.0
 30
0.0
 70
   128
 71
     8
 72
    -7
 73
     4
  0
SEQEND
  5
1590
  8
0
  0
POLYLINE
  5
1269
  8
0
 66
     1
 10
0.0
 20
0.0
 30
0.0
 70
    64
 71
     4
 72
     2
  0
VERTEX
  5
126A
  8
0
 10
-241.7499999999979
 20
-386.7499999999999
 30
-19.0
 70
   192
  0
VERTEX
  5
126B
  8
0
 10
-245.4999999999998
 20
-386.7499999999999
 30
-19.0
 70
   192
  0
VERTEX
  5
126C
  8
0
 10
-245.4999999999998
 20
-386.7499999999999
 30
-14.0
 70
   192
  0
VERTEX
  5
126D
  8
0
 10
-241.7499999999979
 20
-386.7499999999999
 30
-14.0
 70
   192
  0
VERTEX
  5
126E
  8
0
 10
0.0
 20
0.0
 30
0.0
 70
   128
 71
     3
 72
     4
 73
    -1
  0
VERTEX
  5
126F
  8
0
 10
0.0
 20
0.0
 30
0.0
 70
   128
 71
     2
 72
    -3
 73
     1
  0
SEQEND
  5
1591
  8
0
  0
POLYLINE
  5
1270
  8
0
 66
     1
 10
0.0
 20
0.0
 30
0.0
 70
    64
 71
    10
 72
     8
  0
VERTEX
  5
1271
  8
0
 10
-230.4999999999998
 20
-379.2500000000003
 30
-14.0
 70
   192
  0
VERTEX
  5
1272
  8
0
 10
-230.4999999999998
 20
-386.7499999999997
 30
-14.0
 70
   192
  0
VERTEX
  5
1273
  8
0
 10
-230.4999999999998
 20
-386.7499999999997
 30
-19.0
 70
   192
  0
VERTEX
  5
1274
  8
0
 10
-230.4999999999998
 20
-379.2500000000003
 30
-19.0
 70
   192
  0
VERTEX
  5
1275
  8
0
 10
-226.7500000000002
 20
-383.0
 30
-19.0
 70
   192
  0
VERTEX
  5
1276
  8
0
 10
-226.7500000000002
 20
-383.0
 30
-14.0
 70
   192
  0
VERTEX
  5
1277
  8
0
 10
-227.8483495705505
 20
-380.3483495705507
 30
-19.0
 70
   192
  0
VERTEX
  5
1278
  8
0
 10
-227.8483495705505
 20
-380.3483495705507
 30
-14.0
 70
   192
  0
VERTEX
  5
1279
  8
0
 10
-227.8483495705505
 20
-385.6516504294493
 30
-19.0
 70
   192
  0
VERTEX
  5
127A
  8
0
 10
-227.8483495705505
 20
-385.6516504294493
 30
-14.0
 70
   192
  0
VERTEX
  5
127B
  8
0
 10
0.0
 20
0.0
 30
0.0
 70
   128
 71
     4
 72
     7
 73
    -8
  0
VERTEX
  5
127C
  8
0
 10
0.0
 20
0.0
 30
0.0
 70
   128
 71
     1
 72
    -4
 73
     8
  0
VERTEX
  5
127D
  8
0
 10
0.0
 20
0.0
 30
0.0
 70
   128
 71
     7
 72
     5
 73
    -6
  0
VERTEX
  5
127E
  8
0
 10
0.0
 20
0.0
 30
0.0
 70
   128
 71
     8
 72
    -7
 73
     6
  0
VERTEX
  5
127F
  8
0
 10
0.0
 20
0.0
 30
0.0
 70
   128
 71
     5
 72
     9
 73
   -10
  0
VERTEX
  5
1280
  8
0
 10
0.0
 20
0.0
 30
0.0
 70
   128
 71
     6
 72
    -5
 73
    10
  0
VERTEX
  5
1281
  8
0
 10
0.0
 20
0.0
 30
0.0
 70
   128
 71
     9
 72
     3
 73
    -2
  0
VERTEX
  5
1282
  8
0
 10
0.0
 20
0.0
 30
0.0
 70
   128
 71
    10
 72
    -9
 73
     2
  0
SEQEND
  5
1592
  8
0
  0
POLYLINE
  5
1283
  8
0
 66
     1
 10
0.0
 20
0.0
 30
0.0
 70
    64
 71
     4
 72
     2
  0
VERTEX
  5
1284
  8
0
 10
-234.2500000000003
 20
-379.2500000000006
 30
-19.0
 70
   192
  0
VERTEX
  5
1285
  8
0
 10
-234.2500000000003
 20
-379.2500000000006
 30
-14.0
 70
   192
  0
VERTEX
  5
1286
  8
0
 10
-230.4999999999998
 20
-379.2500000000006
 30
-14.0
 70
   192
  0
VERTEX
  5
1287
  8
0
 10
-230.4999999999998
 20
-379.2500000000006
 30
-19.0
 70
   192
  0
VERTEX
  5
1288
  8
0
 10
0.0
 20
0.0
 30
0.0
 70
   128
 71
     1
 72
     4
 73
    -3
  0
VERTEX
  5
1289
  8
0
 10
0.0
 20
0.0
 30
0.0
 70
   128
 71
    -1
 72
     3
 73
     2
  0
SEQEND
  5
1593
  8
0
  0
POLYLINE
  5
128A
  8
0
 66
     1
 10
0.0
 20
0.0
 30
0.0
 70
    64
 71
     4
 72
     2
  0
VERTEX
  5
128B
  8
0
 10
-234.2500000000003
 20
-386.7499999999999
 30
-19.0
 70
   192
  0
VERTEX
  5
128C
  8
0
 10
-234.2500000000003
 20
-386.7499999999999
 30
-14.0
 70
   192
  0
VERTEX
  5
128D
  8
0
 10
-230.4999999999998
 20
-386.7499999999999
 30
-14.0
 70
   192
  0
VERTEX
  5
128E
  8
0
 10
-230.4999999999998
 20
-386.7499999999997
 30
-19.0
 70
   192
  0
VERTEX
  5
128F
  8
0
 10
0.0
 20
0.0
 30
0.0
 70
   128
 71
     3
 72
     4
 73
    -1
  0
VERTEX
  5
1290
  8
0
 10
0.0
 20
0.0
 30
0.0
 70
   128
 71
     2
 72
    -3
 73
     1
  0
SEQEND
  5
1594
  8
0
  0
POLYLINE
  5
1291
  8
0
 66
     1
 10
0.0
 20
0.0
 30
0.0
 70
    64
 71
    28
 72
    26
  0
VERTEX
  5
1292
  8
0
 10
-241.7499999999979
 20
-379.2500000000007
 30
-14.0
 70
   192
  0
VERTEX
  5
1293
  8
0
 10
-241.7499999999979
 20
-375.5000000000001
 30
-14.0
 70
   192
  0
VERTEX
  5
1294
  8
0
 10
-241.0338137289049
 20
-373.295805303904
 30
-14.0
 70
   192
  0
VERTEX
  5
1295
  8
0
 10
-239.1588137289055
 20
-371.9335380638944
 30
-14.0
 70
   192
  0
VERTEX
  5
1296
  8
0
 10
-236.8411862710942
 20
-371.9335380638944
 30
-14.0
 70
   192
  0
VERTEX
  5
1297
  8
0
 10
-234.9661862710948
 20
-373.295805303904
 30
-14.0
 70
   192
  0
VERTEX
  5
1298
  8
0
 10
-234.2500000000011
 20
-375.5000000000001
 30
-14.0
 70
   192
  0
VERTEX
  5
1299
  8
0
 10
-234.2500000000003
 20
-379.2500000000006
 30
-14.0
 70
   192
  0
VERTEX
  5
129A
  8
0
 10
-230.4999999999998
 20
-379.2500000000006
 30
-14.0
 70
   192
  0
VERTEX
  5
129B
  8
0
 10
-227.8483495705505
 20
-380.3483495705507
 30
-14.0
 70
   192
  0
VERTEX
  5
129C
  8
0
 10
-226.7500000000002
 20
-383.0
 30
-14.0
 70
   192
  0
VERTEX
  5
129D
  8
0
 10
-227.8483495705505
 20
-385.6516504294493
 30
-14.0
 70
   192
  0
VERTEX
  5
129E
  8
0
 10
-230.4999999999998
 20
-386.7499999999997
 30
-14.0
 70
   192
  0
VERTEX
  5
129F
  8
0
 10
-234.2500000000003
 20
-386.7499999999999
 30
-14.0
 70
   192
  0
VERTEX
  5
12A0
  8
0
 10
-234.2500000000003
 20
-390.4999999999999
 30
-14.0
 70
   192
  0
VERTEX
  5
12A1
  8
0
 10
-234.9661862710947
 20
-392.7041946960961
 30
-14.0
 70
   192
  0
VERTEX
  5
12A2
  8
0
 10
-236.8411862710941
 20
-394.0664619361057
 30
-14.0
 70
   192
  0
VERTEX
  5
12A3
  8
0
 10
-239.1588137289055
 20
-394.0664619361057
 30
-14.0
 70
   192
  0
VERTEX
  5
12A4
  8
0
 10
-241.0338137289049
 20
-392.7041946960961
 30
-14.0
 70
   192
  0
VERTEX
  5
12A5
  8
0
 10
-241.7499999999986
 20
-390.4999999999999
 30
-14.0
 70
   192
  0
VERTEX
  5
12A6
  8
0
 10
-241.7499999999978
 20
-386.7499999999999
 30
-14.0
 70
   192
  0
VERTEX
  5
12A7
  8
0
 10
-245.4999999999998
 20
-386.7499999999999
 30
-14.0
 70
   192
  0
VERTEX
  5
12A8
  8
0
 10
-247.3749999999996
 20
-386.2475952641913
 30
-14.0
 70
   192
  0
VERTEX
  5
12A9
  8
0
 10
-248.7475952641911
 20
-384.8749999999998
 30
-14.0
 70
   192
  0
VERTEX
  5
12AA
  8
0
 10
-249.2499999999994
 20
-383.0
 30
-14.0
 70
   192
  0
VERTEX
  5
12AB
  8
0
 10
-248.7475952641911
 20
-381.1250000000002
 30
-14.0
 70
   192
  0
VERTEX
  5
12AC
  8
0
 10
-247.3749999999996
 20
-379.7524047358087
 30
-14.0
 70
   192
  0
VERTEX
  5
12AD
  8
0
 10
-245.4999999999998
 20
-379.2500000000004
 30
-14.0
 70
   192
  0
VERTEX
  5
12AE
  8
0
 10
0.0
 20
0.0
 30
0.0
 70
   128
 71
    19
 72
    20
 73
   -21
  0
VERTEX
  5
12AF
  8
0
 10
0.0
 20
0.0
 30
0.0
 70
   128
 71
    18
 72
   -19
 73
   -21
  0
VERTEX
  5
12B0
  8
0
 10
0.0
 20
0.0
 30
0.0
 70
   128
 71
    17
 72
   -18
 73
   -21
  0
VERTEX
  5
12B1
  8
0
 10
0.0
 20
0.0
 30
0.0
 70
   128
 71
    16
 72
   -17
 73
   -21
  0
VERTEX
  5
12B2
  8
0
 10
0.0
 20
0.0
 30
0.0
 70
   128
 71
    15
 72
   -16
 73
   -21
  0
VERTEX
  5
12B3
  8
0
 10
0.0
 20
0.0
 30
0.0
 70
   128
 71
    14
 72
   -15
 73
   -21
  0
VERTEX
  5
12B4
  8
0
 10
0.0
 20
0.0
 30
0.0
 70
   128
 71
    -1
 72
   -14
 73
   -21
  0
VERTEX
  5
12B5
  8
0
 10
0.0
 20
0.0
 30
0.0
 70
   128
 71
    27
 72
    28
 73
    -1
  0
VERTEX
  5
12B6
  8
0
 10
0.0
 20
0.0
 30
0.0
 70
   128
 71
    26
 72
   -27
 73
    -1
  0
VERTEX
  5
12B7
  8
0
 10
0.0
 20
0.0
 30
0.0
 70
   128
 71
    25
 72
   -26
 73
    -1
  0
VERTEX
  5
12B8
  8
0
 10
0.0
 20
0.0
 30
0.0
 70
   128
 71
    24
 72
   -25
 73
    -1
  0
VERTEX
  5
12B9
  8
0
 10
0.0
 20
0.0
 30
0.0
 70
   128
 71
    23
 72
   -24
 73
    -1
  0
VERTEX
  5
12BA
  8
0
 10
0.0
 20
0.0
 30
0.0
 70
   128
 71
    22
 72
   -23
 73
    -1
  0
VERTEX
  5
12BB
  8
0
 10
0.0
 20
0.0
 30
0.0
 70
   128
 71
    21
 72
   -22
 73
    -1
  0
VERTEX
  5
12BC
  8
0
 10
0.0
 20
0.0
 30
0.0
 70
   128
 71
     6
 72
     7
 73
    -8
  0
VERTEX
  5
12BD
  8
0
 10
0.0
 20
0.0
 30
0.0
 70
   128
 71
     5
 72
    -6
 73
    -8
  0
VERTEX
  5
12BE
  8
0
 10
0.0
 20
0.0
 30
0.0
 70
   128
 71
     4
 72
    -5
 73
    -8
  0
VERTEX
  5
12BF
  8
0
 10
0.0
 20
0.0
 30
0.0
 70
   128
 71
     3
 72
    -4
 73
    -8
  0
VERTEX
  5
12C0
  8
0
 10
0.0
 20
0.0
 30
0.0
 70
   128
 71
     2
 72
    -3
 73
    -8
  0
VERTEX
  5
12C1
  8
0
 10
0.0
 20
0.0
 30
0.0
 70
   128
 71
     1
 72
    -2
 73
    -8
  0
VERTEX
  5
12C2
  8
0
 10
0.0
 20
0.0
 30
0.0
 70
   128
 71
   -14
 72
    -1
 73
    -8
  0
VERTEX
  5
12C3
  8
0
 10
0.0
 20
0.0
 30
0.0
 70
   128
 71
    12
 72
    13
 73
   -14
  0
VERTEX
  5
12C4
  8
0
 10
0.0
 20
0.0
 30
0.0
 70
   128
 71
    11
 72
   -12
 73
   -14
  0
VERTEX
  5
12C5
  8
0
 10
0.0
 20
0.0
 30
0.0
 70
   128
 71
    10
 72
   -11
 73
   -14
  0
VERTEX
  5
12C6
  8
0
 10
0.0
 20
0.0
 30
0.0
 70
   128
 71
     9
 72
   -10
 73
   -14
  0
VERTEX
  5
12C7
  8
0
 10
0.0
 20
0.0
 30
0.0
 70
   128
 71
     8
 72
    -9
 73
   -14
  0
SEQEND
  5
1595
  8
0
  0
POLYLINE
  5
12C8
  8
0
 66
     1
 10
0.0
 20
0.0
 30
0.0
 70
    64
 71
    12
 72
    10
  0
VERTEX
  5
12C9
  8
0
 10
-241.7499999999986
 20
-375.5000000000001
 30
-14.0
 70
   192
  0
VERTEX
  5
12CA
  8
0
 10
-241.7499999999986
 20
-375.5000000000001
 30
-19.0
 70
   192
  0
VERTEX
  5
12CB
  8
0
 10
-241.0338137289049
 20
-373.295805303904
 30
-19.0
 70
   192
  0
VERTEX
  5
12CC
  8
0
 10
-241.0338137289049
 20
-373.295805303904
 30
-14.0
 70
   192
  0
VERTEX
  5
12CD
  8
0
 10
-234.2500000000011
 20
-375.5000000000001
 30
-19.0
 70
   192
  0
VERTEX
  5
12CE
  8
0
 10
-234.2500000000003
 20
-375.5000000000001
 30
-14.0
 70
   192
  0
VERTEX
  5
12CF
  8
0
 10
-234.9661862710948
 20
-373.295805303904
 30
-14.0
 70
   192
  0
VERTEX
  5
12D0
  8
0
 10
-234.9661862710948
 20
-373.295805303904
 30
-19.0
 70
   192
  0
VERTEX
  5
12D1
  8
0
 10
-236.8411862710942
 20
-371.9335380638944
 30
-14.0
 70
   192
  0
VERTEX
  5
12D2
  8
0
 10
-239.1588137289055
 20
-371.9335380638944
 30
-14.0
 70
   192
  0
VERTEX
  5
12D3
  8
0
 10
-239.1588137289055
 20
-371.9335380638944
 30
-19.0
 70
   192
  0
VERTEX
  5
12D4
  8
0
 10
-236.8411862710942
 20
-371.9335380638944
 30
-19.0
 70
   192
  0
VERTEX
  5
12D5
  8
0
 10
0.0
 20
0.0
 30
0.0
 70
   128
 71
     1
 72
     2
 73
    -3
  0
VERTEX
  5
12D6
  8
0
 10
0.0
 20
0.0
 30
0.0
 70
   128
 71
     4
 72
    -1
 73
     3
  0
VERTEX
  5
12D7
  8
0
 10
0.0
 20
0.0
 30
0.0
 70
   128
 71
     5
 72
     6
 73
    -7
  0
VERTEX
  5
12D8
  8
0
 10
0.0
 20
0.0
 30
0.0
 70
   128
 71
     8
 72
    -5
 73
     7
  0
VERTEX
  5
12D9
  8
0
 10
0.0
 20
0.0
 30
0.0
 70
   128
 71
     9
 72
    10
 73
   -11
  0
VERTEX
  5
12DA
  8
0
 10
0.0
 20
0.0
 30
0.0
 70
   128
 71
    12
 72
    -9
 73
    11
  0
VERTEX
  5
12DB
  8
0
 10
0.0
 20
0.0
 30
0.0
 70
   128
 71
    10
 72
     4
 73
    -3
  0
VERTEX
  5
12DC
  8
0
 10
0.0
 20
0.0
 30
0.0
 70
   128
 71
    11
 72
   -10
 73
     3
  0
VERTEX
  5
12DD
  8
0
 10
0.0
 20
0.0
 30
0.0
 70
   128
 71
     7
 72
     9
 73
   -12
  0
VERTEX
  5
12DE
  8
0
 10
0.0
 20
0.0
 30
0.0
 70
   128
 71
     8
 72
    -7
 73
    12
  0
SEQEND
  5
1596
  8
0
  0
POLYLINE
  5
12DF
  8
0
 66
     1
 10
0.0
 20
0.0
 30
0.0
 70
    64
 71
     4
 72
     2
  0
VERTEX
  5
12E0
  8
0
 10
-241.7499999999979
 20
-379.2500000000007
 30
-19.0
 70
   192
  0
VERTEX
  5
12E1
  8
0
 10
-241.7499999999979
 20
-379.2500000000007
 30
-14.0
 70
   192
  0
VERTEX
  5
12E2
  8
0
 10
-241.7499999999986
 20
-375.5000000000001
 30
-14.0
 70
   192
  0
VERTEX
  5
12E3
  8
0
 10
-241.7499999999979
 20
-375.5000000000001
 30
-19.0
 70
   192
  0
VERTEX
  5
12E4
  8
0
 10
0.0
 20
0.0
 30
0.0
 70
   128
 71
     1
 72
     4
 73
    -3
  0
VERTEX
  5
12E5
  8
0
 10
0.0
 20
0.0
 30
0.0
 70
   128
 71
    -1
 72
     3
 73
     2
  0
SEQEND
  5
1597
  8
0
  0
POLYLINE
  5
12E6
  8
0
 66
     1
 10
0.0
 20
0.0
 30
0.0
 70
    64
 71
     4
 72
     2
  0
VERTEX
  5
12E7
  8
0
 10
-234.2500000000003
 20
-379.2500000000006
 30
-19.0
 70
   192
  0
VERTEX
  5
12E8
  8
0
 10
-234.2500000000003
 20
-379.2500000000006
 30
-14.0
 70
   192
  0
VERTEX
  5
12E9
  8
0
 10
-234.2500000000003
 20
-375.5000000000001
 30
-14.0
 70
   192
  0
VERTEX
  5
12EA
  8
0
 10
-234.2500000000003
 20
-375.5000000000001
 30
-19.0
 70
   192
  0
VERTEX
  5
12EB
  8
0
 10
0.0
 20
0.0
 30
0.0
 70
   128
 71
     3
 72
     4
 73
    -1
  0
VERTEX
  5
12EC
  8
0
 10
0.0
 20
0.0
 30
0.0
 70
   128
 71
     2
 72
    -3
 73
     1
  0
SEQEND
  5
1598
  8
0
  0
POLYLINE
  5
12ED
  8
0
 66
     1
 10
0.0
 20
0.0
 30
0.0
 70
    64
 71
     4
 72
     2
  0
VERTEX
  5
12EE
  8
0
 10
-234.2500000000003
 20
-386.7499999999999
 30
-19.0
 70
   192
  0
VERTEX
  5
12EF
  8
0
 10
-234.2500000000003
 20
-390.4999999999999
 30
-19.0
 70
   192
  0
VERTEX
  5
12F0
  8
0
 10
-234.2500000000003
 20
-390.4999999999999
 30
-14.0
 70
   192
  0
VERTEX
  5
12F1
  8
0
 10
-234.2500000000003
 20
-386.7499999999999
 30
-14.0
 70
   192
  0
VERTEX
  5
12F2
  8
0
 10
0.0
 20
0.0
 30
0.0
 70
   128
 71
     3
 72
     4
 73
    -1
  0
VERTEX
  5
12F3
  8
0
 10
0.0
 20
0.0
 30
0.0
 70
   128
 71
     2
 72
    -3
 73
     1
  0
SEQEND
  5
1599
  8
0
  0
POLYLINE
  5
12F4
  8
0
 66
     1
 10
0.0
 20
0.0
 30
0.0
 70
    64
 71
     4
 72
     2
  0
VERTEX
  5
12F5
  8
0
 10
-241.7499999999978
 20
-386.7499999999999
 30
-19.0
 70
   192
  0
VERTEX
  5
12F6
  8
0
 10
-241.7499999999978
 20
-390.4999999999999
 30
-19.0
 70
   192
  0
VERTEX
  5
12F7
  8
0
 10
-241.7499999999978
 20
-390.4999999999999
 30
-14.0
 70
   192
  0
VERTEX
  5
12F8
  8
0
 10
-241.7499999999978
 20
-386.7499999999999
 30
-14.0
 70
   192
  0
VERTEX
  5
12F9
  8
0
 10
0.0
 20
0.0
 30
0.0
 70
   128
 71
     1
 72
     4
 73
    -3
  0
VERTEX
  5
12FA
  8
0
 10
0.0
 20
0.0
 30
0.0
 70
   128
 71
    -1
 72
     3
 73
     2
  0
SEQEND
  5
159A
  8
0
  0
POLYLINE
  5
12FB
  8
0
 66
     1
 10
0.0
 20
0.0
 30
0.0
 70
    64
 71
    12
 72
    10
  0
VERTEX
  5
12FC
  8
0
 10
-234.2500000000011
 20
-390.4999999999999
 30
-14.0
 70
   192
  0
VERTEX
  5
12FD
  8
0
 10
-234.2500000000011
 20
-390.4999999999999
 30
-19.0
 70
   192
  0
VERTEX
  5
12FE
  8
0
 10
-234.9661862710947
 20
-392.7041946960961
 30
-19.0
 70
   192
  0
VERTEX
  5
12FF
  8
0
 10
-234.9661862710947
 20
-392.7041946960961
 30
-14.0
 70
   192
  0
VERTEX
  5
1300
  8
0
 10
-241.7499999999986
 20
-390.4999999999999
 30
-19.0
 70
   192
  0
VERTEX
  5
1301
  8
0
 10
-241.7499999999978
 20
-390.4999999999999
 30
-14.0
 70
   192
  0
VERTEX
  5
1302
  8
0
 10
-241.0338137289049
 20
-392.7041946960961
 30
-14.0
 70
   192
  0
VERTEX
  5
1303
  8
0
 10
-241.0338137289049
 20
-392.7041946960961
 30
-19.0
 70
   192
  0
VERTEX
  5
1304
  8
0
 10
-239.1588137289055
 20
-394.0664619361057
 30
-14.0
 70
   192
  0
VERTEX
  5
1305
  8
0
 10
-236.8411862710941
 20
-394.0664619361057
 30
-14.0
 70
   192
  0
VERTEX
  5
1306
  8
0
 10
-236.8411862710941
 20
-394.0664619361057
 30
-19.0
 70
   192
  0
VERTEX
  5
1307
  8
0
 10
-239.1588137289055
 20
-394.0664619361057
 30
-19.0
 70
   192
  0
VERTEX
  5
1308
  8
0
 10
0.0
 20
0.0
 30
0.0
 70
   128
 71
     1
 72
     2
 73
    -3
  0
VERTEX
  5
1309
  8
0
 10
0.0
 20
0.0
 30
0.0
 70
   128
 71
     4
 72
    -1
 73
     3
  0
VERTEX
  5
130A
  8
0
 10
0.0
 20
0.0
 30
0.0
 70
   128
 71
     5
 72
     6
 73
    -7
  0
VERTEX
  5
130B
  8
0
 10
0.0
 20
0.0
 30
0.0
 70
   128
 71
     8
 72
    -5
 73
     7
  0
VERTEX
  5
130C
  8
0
 10
0.0
 20
0.0
 30
0.0
 70
   128
 71
     9
 72
    10
 73
   -11
  0
VERTEX
  5
130D
  8
0
 10
0.0
 20
0.0
 30
0.0
 70
   128
 71
    12
 72
    -9
 73
    11
  0
VERTEX
  5
130E
  8
0
 10
0.0
 20
0.0
 30
0.0
 70
   128
 71
    10
 72
     4
 73
    -3
  0
VERTEX
  5
130F
  8
0
 10
0.0
 20
0.0
 30
0.0
 70
   128
 71
    11
 72
   -10
 73
     3
  0
VERTEX
  5
1310
  8
0
 10
0.0
 20
0.0
 30
0.0
 70
   128
 71
     7
 72
     9
 73
   -12
  0
VERTEX
  5
1311
  8
0
 10
0.0
 20
0.0
 30
0.0
 70
   128
 71
     8
 72
    -7
 73
    12
  0
SEQEND
  5
159B
  8
0
  0
ENDBLK
  5
1587
  8
0
  0
BLOCK
  8
0
  2
*X4
 70
     1
 10
0.0
 20
0.0
 30
0.0
  3
*X4
  1

  0
POLYLINE
  5
1313
  8
0
 66
     1
 10
0.0
 20
0.0
 30
0.0
 70
    64
 71
     8
 72
     6
  0
VERTEX
  5
1314
  8
0
 10
273.6250000000007
 20
341.2475952641905
 30
-14.0
 70
   192
  0
VERTEX
  5
1315
  8
0
 10
272.2524047358094
 20
339.8749999999993
 30
-14.0
 70
   192
  0
VERTEX
  5
1316
  8
0
 10
272.2524047358094
 20
339.8749999999993
 30
-19.0
 70
   192
  0
VERTEX
  5
1317
  8
0
 10
273.6250000000007
 20
341.2475952641905
 30
-19.0
 70
   192
  0
VERTEX
  5
1318
  8
0
 10
271.7500000000013
 20
337.9999999999999
 30
-14.0
 70
   192
  0
VERTEX
  5
1319
  8
0
 10
271.7500000000013
 20
337.9999999999999
 30
-19.0
 70
   192
  0
VERTEX
  5
131A
  8
0
 10
275.5000000000001
 20
341.7499999999987
 30
-14.0
 70
   192
  0
VERTEX
  5
131B
  8
0
 10
275.5000000000001
 20
341.7499999999987
 30
-19.0
 70
   192
  0
VERTEX
  5
131C
  8
0
 10
0.0
 20
0.0
 30
0.0
 70
   128
 71
     1
 72
     2
 73
    -3
  0
VERTEX
  5
131D
  8
0
 10
0.0
 20
0.0
 30
0.0
 70
   128
 71
     4
 72
    -1
 73
     3
  0
VERTEX
  5
131E
  8
0
 10
0.0
 20
0.0
 30
0.0
 70
   128
 71
     2
 72
     5
 73
    -6
  0
VERTEX
  5
131F
  8
0
 10
0.0
 20
0.0
 30
0.0
 70
   128
 71
     3
 72
    -2
 73
     6
  0
VERTEX
  5
1320
  8
0
 10
0.0
 20
0.0
 30
0.0
 70
   128
 71
     7
 72
     1
 73
    -4
  0
VERTEX
  5
1321
  8
0
 10
0.0
 20
0.0
 30
0.0
 70
   128
 71
     8
 72
    -7
 73
     4
  0
SEQEND
  5
159E
  8
0
  0
POLYLINE
  5
1322
  8
0
 66
     1
 10
0.0
 20
0.0
 30
0.0
 70
    64
 71
    31
 72
    31
  0
VERTEX
  5
1323
  8
0
 10
265.9999999999999
 20
-366.0
 30
-19.00000000000002
 70
   192
  0
VERTEX
  5
1324
  8
0
 10
265.9999999999999
 20
366.0000000000002
 30
-19.00000000000002
 70
   192
  0
VERTEX
  5
1325
  8
0
 10
299.9999999999999
 20
400.0000000000001
 30
-19.00000000000002
 70
   192
  0
VERTEX
  5
1326
  8
0
 10
299.9999999999999
 20
-399.9999999999999
 30
-19.00000000000002
 70
   192
  0
VERTEX
  5
1327
  8
0
 10
279.2500000000006
 20
345.5
 30
-19.0
 70
   192
  0
VERTEX
  5
1328
  8
0
 10
279.2500000000006
 20
341.749999999998
 30
-19.0
 70
   192
  0
VERTEX
  5
1329
  8
0
 10
275.5000000000001
 20
341.749999999998
 30
-19.0
 70
   192
  0
VERTEX
  5
132A
  8
0
 10
273.6250000000007
 20
341.2475952641905
 30
-19.0
 70
   192
  0
VERTEX
  5
132B
  8
0
 10
272.2524047358094
 20
339.8749999999993
 30
-19.0
 70
   192
  0
VERTEX
  5
132C
  8
0
 10
271.7500000000013
 20
337.9999999999999
 30
-19.0
 70
   192
  0
VERTEX
  5
132D
  8
0
 10
272.2524047358094
 20
336.1250000000006
 30
-19.0
 70
   192
  0
VERTEX
  5
132E
  8
0
 10
273.6250000000006
 20
334.7524047358094
 30
-19.0
 70
   192
  0
VERTEX
  5
132F
  8
0
 10
275.5
 20
334.2500000000012
 30
-19.0
 70
   192
  0
VERTEX
  5
1330
  8
0
 10
279.2500000000006
 20
334.2500000000005
 30
-19.0
 70
   192
  0
VERTEX
  5
1331
  8
0
 10
279.2500000000006
 20
330.4999999999999
 30
-19.0
 70
   192
  0
VERTEX
  5
1332
  8
0
 10
280.3483495705507
 20
327.8483495705506
 30
-19.0
 70
   192
  0
VERTEX
  5
1333
  8
0
 10
283.0
 20
326.7500000000003
 30
-19.0
 70
   192
  0
VERTEX
  5
1334
  8
0
 10
285.6516504294493
 20
327.8483495705506
 30
-19.0
 70
   192
  0
VERTEX
  5
1335
  8
0
 10
286.7499999999997
 20
330.4999999999999
 30
-19.0
 70
   192
  0
VERTEX
  5
1336
  8
0
 10
286.7499999999999
 20
334.2500000000008
 30
-19.0
 70
   192
  0
VERTEX
  5
1337
  8
0
 10
290.4999999999999
 20
334.2500000000005
 30
-19.0
 70
   192
  0
VERTEX
  5
1338
  8
0
 10
292.7041946960961
 20
334.9661862710948
 30
-19.0
 70
   192
  0
VERTEX
  5
1339
  8
0
 10
294.0664619361057
 20
336.8411862710943
 30
-19.0
 70
   192
  0
VERTEX
  5
133A
  8
0
 10
294.0664619361057
 20
339.1588137289057
 30
-19.0
 70
   192
  0
VERTEX
  5
133B
  8
0
 10
292.704194696096
 20
341.033813728905
 30
-19.0
 70
   192
  0
VERTEX
  5
133C
  8
0
 10
290.4999999999999
 20
341.7499999999987
 30
-19.0
 70
   192
  0
VERTEX
  5
133D
  8
0
 10
286.7499999999999
 20
341.749999999998
 30
-19.0
 70
   192
  0
VERTEX
  5
133E
  8
0
 10
286.7499999999999
 20
345.5
 30
-19.0
 70
   192
  0
VERTEX
  5
133F
  8
0
 10
285.6516504294493
 20
348.1516504294493
 30
-19.0
 70
   192
  0
VERTEX
  5
1340
  8
0
 10
283.0
 20
349.2499999999997
 30
-19.0
 70
   192
  0
VERTEX
  5
1341
  8
0
 10
280.3483495705507
 20
348.1516504294493
 30
-19.0
 70
   192
  0
VERTEX
  5
1342
  8
0
 10
0.0
 20
0.0
 30
0.0
 70
   128
 71
    13
 72
    14
 73
   -15
  0
VERTEX
  5
1343
  8
0
 10
0.0
 20
0.0
 30
0.0
 70
   128
 71
     5
 72
     6
 73
    -7
  0
VERTEX
  5
1344
  8
0
 10
0.0
 20
0.0
 30
0.0
 70
   128
 71
    -2
 72
    -5
 73
    -7
  0
VERTEX
  5
1345
  8
0
 10
0.0
 20
0.0
 30
0.0
 70
   128
 71
     7
 72
    -8
 73
    -2
  0
VERTEX
  5
1346
  8
0
 10
0.0
 20
0.0
 30
0.0
 70
   128
 71
     8
 72
    -9
 73
    -2
  0
VERTEX
  5
1347
  8
0
 10
0.0
 20
0.0
 30
0.0
 70
   128
 71
     9
 72
   -10
 73
    -2
  0
VERTEX
  5
1348
  8
0
 10
0.0
 20
0.0
 30
0.0
 70
   128
 71
     1
 72
    -2
 73
   -10
  0
VERTEX
  5
1349
  8
0
 10
0.0
 20
0.0
 30
0.0
 70
   128
 71
    10
 72
   -11
 73
    -1
  0
VERTEX
  5
134A
  8
0
 10
0.0
 20
0.0
 30
0.0
 70
   128
 71
    11
 72
   -12
 73
    -1
  0
VERTEX
  5
134B
  8
0
 10
0.0
 20
0.0
 30
0.0
 70
   128
 71
    15
 72
   -16
 73
    -1
  0
VERTEX
  5
134C
  8
0
 10
0.0
 20
0.0
 30
0.0
 70
   128
 71
   -13
 72
   -15
 73
    -1
  0
VERTEX
  5
134D
  8
0
 10
0.0
 20
0.0
 30
0.0
 70
   128
 71
    12
 72
   -13
 73
    -1
  0
VERTEX
  5
134E
  8
0
 10
0.0
 20
0.0
 30
0.0
 70
   128
 71
    16
 72
   -17
 73
    -1
  0
VERTEX
  5
134F
  8
0
 10
0.0
 20
0.0
 30
0.0
 70
   128
 71
    17
 72
   -18
 73
    -1
  0
VERTEX
  5
1350
  8
0
 10
0.0
 20
0.0
 30
0.0
 70
   128
 71
   -21
 72
     4
 73
    -1
  0
VERTEX
  5
1351
  8
0
 10
0.0
 20
0.0
 30
0.0
 70
   128
 71
   -18
 72
   -21
 73
    -1
  0
VERTEX
  5
1352
  8
0
 10
0.0
 20
0.0
 30
0.0
 70
   128
 71
    18
 72
   -19
 73
   -21
  0
VERTEX
  5
1353
  8
0
 10
0.0
 20
0.0
 30
0.0
 70
   128
 71
    19
 72
    20
 73
   -21
  0
VERTEX
  5
1354
  8
0
 10
0.0
 20
0.0
 30
0.0
 70
   128
 71
    21
 72
   -22
 73
    -4
  0
VERTEX
  5
1355
  8
0
 10
0.0
 20
0.0
 30
0.0
 70
   128
 71
    22
 72
   -23
 73
    -4
  0
VERTEX
  5
1356
  8
0
 10
0.0
 20
0.0
 30
0.0
 70
   128
 71
    23
 72
   -24
 73
    -4
  0
VERTEX
  5
1357
  8
0
 10
0.0
 20
0.0
 30
0.0
 70
   128
 71
   -24
 72
     3
 73
    -4
  0
VERTEX
  5
1358
  8
0
 10
0.0
 20
0.0
 30
0.0
 70
   128
 71
    24
 72
   -25
 73
    -3
  0
VERTEX
  5
1359
  8
0
 10
0.0
 20
0.0
 30
0.0
 70
   128
 71
    25
 72
   -26
 73
    -3
  0
VERTEX
  5
135A
  8
0
 10
0.0
 20
0.0
 30
0.0
 70
   128
 71
    27
 72
   -28
 73
    -3
  0
VERTEX
  5
135B
  8
0
 10
0.0
 20
0.0
 30
0.0
 70
   128
 71
    26
 72
   -27
 73
    -3
  0
VERTEX
  5
135C
  8
0
 10
0.0
 20
0.0
 30
0.0
 70
   128
 71
    28
 72
   -29
 73
    -3
  0
VERTEX
  5
135D
  8
0
 10
0.0
 20
0.0
 30
0.0
 70
   128
 71
   -30
 72
     2
 73
    -3
  0
VERTEX
  5
135E
  8
0
 10
0.0
 20
0.0
 30
0.0
 70
   128
 71
    29
 72
   -30
 73
    -3
  0
VERTEX
  5
135F
  8
0
 10
0.0
 20
0.0
 30
0.0
 70
   128
 71
    30
 72
   -31
 73
    -2
  0
VERTEX
  5
1360
  8
0
 10
0.0
 20
0.0
 30
0.0
 70
   128
 71
    31
 72
    -5
 73
    -2
  0
SEQEND
  5
159F
  8
0
  0
POLYLINE
  5
1361
  8
0
 66
     1
 10
0.0
 20
0.0
 30
0.0
 70
    64
 71
     4
 72
     2
  0
VERTEX
  5
1362
  8
0
 10
265.9999999999999
 20
366.0000000000002
 30
0.0
 70
   192
  0
VERTEX
  5
1363
  8
0
 10
299.9999999999999
 20
400.0000000000001
 30
0.0
 70
   192
  0
VERTEX
  5
1364
  8
0
 10
299.9999999999999
 20
-399.9999999999999
 30
0.0
 70
   192
  0
VERTEX
  5
1365
  8
0
 10
265.9999999999999
 20
-365.9999999999999
 30
0.0
 70
   192
  0
VERTEX
  5
1366
  8
0
 10
0.0
 20
0.0
 30
0.0
 70
   128
 71
     1
 72
     4
 73
    -3
  0
VERTEX
  5
1367
  8
0
 10
0.0
 20
0.0
 30
0.0
 70
   128
 71
    -1
 72
     3
 73
     2
  0
SEQEND
  5
15A0
  8
0
  0
POLYLINE
  5
1368
  8
0
 66
     1
 10
0.0
 20
0.0
 30
0.0
 70
    64
 71
     4
 72
     2
  0
VERTEX
  5
1369
  8
0
 10
265.9999999999999
 20
-365.9999999999999
 30
0.0
 70
   192
  0
VERTEX
  5
136A
  8
0
 10
265.9999999999999
 20
-365.9999999999999
 30
-19.00000000000011
 70
   192
  0
VERTEX
  5
136B
  8
0
 10
299.9999999999999
 20
-399.9999999999999
 30
-19.00000000000002
 70
   192
  0
VERTEX
  5
136C
  8
0
 10
299.9999999999999
 20
-399.9999999999999
 30
0.0
 70
   192
  0
VERTEX
  5
136D
  8
0
 10
0.0
 20
0.0
 30
0.0
 70
   128
 71
     3
 72
     4
 73
    -1
  0
VERTEX
  5
136E
  8
0
 10
0.0
 20
0.0
 30
0.0
 70
   128
 71
     2
 72
    -3
 73
     1
  0
SEQEND
  5
15A1
  8
0
  0
POLYLINE
  5
136F
  8
0
 66
     1
 10
0.0
 20
0.0
 30
0.0
 70
    64
 71
     4
 72
     2
  0
VERTEX
  5
1370
  8
0
 10
299.9999999999999
 20
-399.9999999999999
 30
-19.00000000000034
 70
   192
  0
VERTEX
  5
1371
  8
0
 10
299.9999999999999
 20
-399.9999999999999
 30
0.0
 70
   192
  0
VERTEX
  5
1372
  8
0
 10
299.9999999999999
 20
400.0000000000001
 30
0.0
 70
   192
  0
VERTEX
  5
1373
  8
0
 10
299.9999999999999
 20
400.0000000000001
 30
-19.00000000000002
 70
   192
  0
VERTEX
  5
1374
  8
0
 10
0.0
 20
0.0
 30
0.0
 70
   128
 71
     1
 72
     4
 73
    -3
  0
VERTEX
  5
1375
  8
0
 10
0.0
 20
0.0
 30
0.0
 70
   128
 71
    -1
 72
     3
 73
     2
  0
SEQEND
  5
15A2
  8
0
  0
POLYLINE
  5
1376
  8
0
 66
     1
 10
0.0
 20
0.0
 30
0.0
 70
    64
 71
     4
 72
     2
  0
VERTEX
  5
1377
  8
0
 10
299.9999999999999
 20
400.0000000000001
 30
0.0
 70
   192
  0
VERTEX
  5
1378
  8
0
 10
299.9999999999999
 20
400.0000000000001
 30
-19.00000000000011
 70
   192
  0
VERTEX
  5
1379
  8
0
 10
266.0
 20
366.0000000000002
 30
-19.00000000000002
 70
   192
  0
VERTEX
  5
137A
  8
0
 10
265.9999999999999
 20
366.0000000000002
 30
0.0
 70
   192
  0
VERTEX
  5
137B
  8
0
 10
0.0
 20
0.0
 30
0.0
 70
   128
 71
     3
 72
     4
 73
    -1
  0
VERTEX
  5
137C
  8
0
 10
0.0
 20
0.0
 30
0.0
 70
   128
 71
     2
 72
    -3
 73
     1
  0
SEQEND
  5
15A3
  8
0
  0
POLYLINE
  5
137D
  8
0
 66
     1
 10
0.0
 20
0.0
 30
0.0
 70
    64
 71
     4
 72
     2
  0
VERTEX
  5
137E
  8
0
 10
265.9999999999999
 20
366.0000000000002
 30
0.0
 70
   192
  0
VERTEX
  5
137F
  8
0
 10
265.9999999999999
 20
366.0000000000002
 30
-19.00000000000011
 70
   192
  0
VERTEX
  5
1380
  8
0
 10
265.9999999999999
 20
-366.0
 30
-19.00000000000002
 70
   192
  0
VERTEX
  5
1381
  8
0
 10
265.9999999999999
 20
-365.9999999999999
 30
0.0
 70
   192
  0
VERTEX
  5
1382
  8
0
 10
0.0
 20
0.0
 30
0.0
 70
   128
 71
     3
 72
     4
 73
    -1
  0
VERTEX
  5
1383
  8
0
 10
0.0
 20
0.0
 30
0.0
 70
   128
 71
     2
 72
    -3
 73
     1
  0
SEQEND
  5
15A4
  8
0
  0
POLYLINE
  5
1384
  8
0
 66
     1
 10
0.0
 20
0.0
 30
0.0
 70
    64
 71
    10
 72
     8
  0
VERTEX
  5
1385
  8
0
 10
279.2500000000003
 20
345.5
 30
-14.0
 70
   192
  0
VERTEX
  5
1386
  8
0
 10
286.7499999999999
 20
345.5
 30
-14.0
 70
   192
  0
VERTEX
  5
1387
  8
0
 10
286.7499999999997
 20
345.5
 30
-19.0
 70
   192
  0
VERTEX
  5
1388
  8
0
 10
279.2500000000003
 20
345.5
 30
-19.0
 70
   192
  0
VERTEX
  5
1389
  8
0
 10
283.0
 20
349.2499999999997
 30
-19.0
 70
   192
  0
VERTEX
  5
138A
  8
0
 10
283.0
 20
349.2499999999997
 30
-14.0
 70
   192
  0
VERTEX
  5
138B
  8
0
 10
280.3483495705507
 20
348.1516504294493
 30
-19.0
 70
   192
  0
VERTEX
  5
138C
  8
0
 10
280.3483495705507
 20
348.1516504294493
 30
-14.0
 70
   192
  0
VERTEX
  5
138D
  8
0
 10
285.6516504294493
 20
348.1516504294493
 30
-19.0
 70
   192
  0
VERTEX
  5
138E
  8
0
 10
285.6516504294493
 20
348.1516504294493
 30
-14.0
 70
   192
  0
VERTEX
  5
138F
  8
0
 10
0.0
 20
0.0
 30
0.0
 70
   128
 71
     4
 72
     7
 73
    -8
  0
VERTEX
  5
1390
  8
0
 10
0.0
 20
0.0
 30
0.0
 70
   128
 71
     1
 72
    -4
 73
     8
  0
VERTEX
  5
1391
  8
0
 10
0.0
 20
0.0
 30
0.0
 70
   128
 71
     7
 72
     5
 73
    -6
  0
VERTEX
  5
1392
  8
0
 10
0.0
 20
0.0
 30
0.0
 70
   128
 71
     8
 72
    -7
 73
     6
  0
VERTEX
  5
1393
  8
0
 10
0.0
 20
0.0
 30
0.0
 70
   128
 71
     5
 72
     9
 73
   -10
  0
VERTEX
  5
1394
  8
0
 10
0.0
 20
0.0
 30
0.0
 70
   128
 71
     6
 72
    -5
 73
    10
  0
VERTEX
  5
1395
  8
0
 10
0.0
 20
0.0
 30
0.0
 70
   128
 71
     9
 72
     3
 73
    -2
  0
VERTEX
  5
1396
  8
0
 10
0.0
 20
0.0
 30
0.0
 70
   128
 71
    10
 72
    -9
 73
     2
  0
SEQEND
  5
15A5
  8
0
  0
POLYLINE
  5
1397
  8
0
 66
     1
 10
0.0
 20
0.0
 30
0.0
 70
    64
 71
     4
 72
     2
  0
VERTEX
  5
1398
  8
0
 10
279.2500000000006
 20
341.749999999998
 30
-14.0
 70
   192
  0
VERTEX
  5
1399
  8
0
 10
279.2500000000006
 20
341.749999999998
 30
-19.0
 70
   192
  0
VERTEX
  5
139A
  8
0
 10
279.2500000000006
 20
345.5
 30
-19.0
 70
   192
  0
VERTEX
  5
139B
  8
0
 10
279.2500000000006
 20
345.5
 30
-14.0
 70
   192
  0
VERTEX
  5
139C
  8
0
 10
0.0
 20
0.0
 30
0.0
 70
   128
 71
     3
 72
     4
 73
    -1
  0
VERTEX
  5
139D
  8
0
 10
0.0
 20
0.0
 30
0.0
 70
   128
 71
     2
 72
    -3
 73
     1
  0
SEQEND
  5
15A6
  8
0
  0
POLYLINE
  5
139E
  8
0
 66
     1
 10
0.0
 20
0.0
 30
0.0
 70
    64
 71
     4
 72
     2
  0
VERTEX
  5
139F
  8
0
 10
286.7499999999999
 20
341.749999999998
 30
-14.0
 70
   192
  0
VERTEX
  5
13A0
  8
0
 10
286.7499999999999
 20
341.749999999998
 30
-19.0
 70
   192
  0
VERTEX
  5
13A1
  8
0
 10
286.7499999999999
 20
345.5
 30
-19.0
 70
   192
  0
VERTEX
  5
13A2
  8
0
 10
286.7499999999999
 20
345.5
 30
-14.0
 70
   192
  0
VERTEX
  5
13A3
  8
0
 10
0.0
 20
0.0
 30
0.0
 70
   128
 71
     1
 72
     4
 73
    -3
  0
VERTEX
  5
13A4
  8
0
 10
0.0
 20
0.0
 30
0.0
 70
   128
 71
    -1
 72
     3
 73
     2
  0
SEQEND
  5
15A7
  8
0
  0
POLYLINE
  5
13A5
  8
0
 66
     1
 10
0.0
 20
0.0
 30
0.0
 70
    64
 71
     4
 72
     2
  0
VERTEX
  5
13A6
  8
0
 10
279.2500000000006
 20
334.2500000000008
 30
-14.0
 70
   192
  0
VERTEX
  5
13A7
  8
0
 10
279.2500000000006
 20
330.4999999999999
 30
-14.0
 70
   192
  0
VERTEX
  5
13A8
  8
0
 10
279.2500000000006
 20
330.4999999999999
 30
-19.0
 70
   192
  0
VERTEX
  5
13A9
  8
0
 10
279.2500000000006
 20
334.2500000000008
 30
-19.0
 70
   192
  0
VERTEX
  5
13AA
  8
0
 10
0.0
 20
0.0
 30
0.0
 70
   128
 71
     3
 72
     4
 73
    -1
  0
VERTEX
  5
13AB
  8
0
 10
0.0
 20
0.0
 30
0.0
 70
   128
 71
     2
 72
    -3
 73
     1
  0
SEQEND
  5
15A8
  8
0
  0
POLYLINE
  5
13AC
  8
0
 66
     1
 10
0.0
 20
0.0
 30
0.0
 70
    64
 71
    10
 72
     8
  0
VERTEX
  5
13AD
  8
0
 10
286.7499999999997
 20
330.4999999999999
 30
-14.0
 70
   192
  0
VERTEX
  5
13AE
  8
0
 10
279.2500000000006
 20
330.4999999999999
 30
-14.0
 70
   192
  0
VERTEX
  5
13AF
  8
0
 10
279.2500000000003
 20
330.4999999999999
 30
-19.0
 70
   192
  0
VERTEX
  5
13B0
  8
0
 10
286.7499999999997
 20
330.4999999999999
 30
-19.0
 70
   192
  0
VERTEX
  5
13B1
  8
0
 10
283.0
 20
326.7500000000003
 30
-19.0
 70
   192
  0
VERTEX
  5
13B2
  8
0
 10
283.0
 20
326.7500000000003
 30
-14.0
 70
   192
  0
VERTEX
  5
13B3
  8
0
 10
285.6516504294493
 20
327.8483495705506
 30
-19.0
 70
   192
  0
VERTEX
  5
13B4
  8
0
 10
285.6516504294493
 20
327.8483495705506
 30
-14.0
 70
   192
  0
VERTEX
  5
13B5
  8
0
 10
280.3483495705507
 20
327.8483495705506
 30
-19.0
 70
   192
  0
VERTEX
  5
13B6
  8
0
 10
280.3483495705507
 20
327.8483495705506
 30
-14.0
 70
   192
  0
VERTEX
  5
13B7
  8
0
 10
0.0
 20
0.0
 30
0.0
 70
   128
 71
     4
 72
     7
 73
    -8
  0
VERTEX
  5
13B8
  8
0
 10
0.0
 20
0.0
 30
0.0
 70
   128
 71
     1
 72
    -4
 73
     8
  0
VERTEX
  5
13B9
  8
0
 10
0.0
 20
0.0
 30
0.0
 70
   128
 71
     7
 72
     5
 73
    -6
  0
VERTEX
  5
13BA
  8
0
 10
0.0
 20
0.0
 30
0.0
 70
   128
 71
     8
 72
    -7
 73
     6
  0
VERTEX
  5
13BB
  8
0
 10
0.0
 20
0.0
 30
0.0
 70
   128
 71
     5
 72
     9
 73
   -10
  0
VERTEX
  5
13BC
  8
0
 10
0.0
 20
0.0
 30
0.0
 70
   128
 71
     6
 72
    -5
 73
    10
  0
VERTEX
  5
13BD
  8
0
 10
0.0
 20
0.0
 30
0.0
 70
   128
 71
     9
 72
     3
 73
    -2
  0
VERTEX
  5
13BE
  8
0
 10
0.0
 20
0.0
 30
0.0
 70
   128
 71
    10
 72
    -9
 73
     2
  0
SEQEND
  5
15A9
  8
0
  0
POLYLINE
  5
13BF
  8
0
 66
     1
 10
0.0
 20
0.0
 30
0.0
 70
    64
 71
     4
 72
     2
  0
VERTEX
  5
13C0
  8
0
 10
286.7499999999999
 20
334.2500000000008
 30
-14.0
 70
   192
  0
VERTEX
  5
13C1
  8
0
 10
286.7499999999996
 20
330.4999999999999
 30
-14.0
 70
   192
  0
VERTEX
  5
13C2
  8
0
 10
286.7499999999999
 20
330.4999999999999
 30
-19.0
 70
   192
  0
VERTEX
  5
13C3
  8
0
 10
286.7499999999999
 20
334.2500000000005
 30
-19.0
 70
   192
  0
VERTEX
  5
13C4
  8
0
 10
0.0
 20
0.0
 30
0.0
 70
   128
 71
     1
 72
     4
 73
    -3
  0
VERTEX
  5
13C5
  8
0
 10
0.0
 20
0.0
 30
0.0
 70
   128
 71
    -1
 72
     3
 73
     2
  0
SEQEND
  5
15AA
  8
0
  0
POLYLINE
  5
13C6
  8
0
 66
     1
 10
0.0
 20
0.0
 30
0.0
 70
    64
 71
     8
 72
     6
  0
VERTEX
  5
13C7
  8
0
 10
272.2524047358094
 20
336.1250000000006
 30
-14.0
 70
   192
  0
VERTEX
  5
13C8
  8
0
 10
273.6250000000006
 20
334.7524047358094
 30
-14.0
 70
   192
  0
VERTEX
  5
13C9
  8
0
 10
273.6250000000006
 20
334.7524047358094
 30
-19.0
 70
   192
  0
VERTEX
  5
13CA
  8
0
 10
272.2524047358094
 20
336.1250000000006
 30
-19.0
 70
   192
  0
VERTEX
  5
13CB
  8
0
 10
275.5
 20
334.2500000000012
 30
-14.0
 70
   192
  0
VERTEX
  5
13CC
  8
0
 10
275.5
 20
334.2500000000012
 30
-19.0
 70
   192
  0
VERTEX
  5
13CD
  8
0
 10
271.7500000000013
 20
337.9999999999999
 30
-14.0
 70
   192
  0
VERTEX
  5
13CE
  8
0
 10
271.7500000000013
 20
337.9999999999999
 30
-19.0
 70
   192
  0
VERTEX
  5
13CF
  8
0
 10
0.0
 20
0.0
 30
0.0
 70
   128
 71
     1
 72
     2
 73
    -3
  0
VERTEX
  5
13D0
  8
0
 10
0.0
 20
0.0
 30
0.0
 70
   128
 71
     4
 72
    -1
 73
     3
  0
VERTEX
  5
13D1
  8
0
 10
0.0
 20
0.0
 30
0.0
 70
   128
 71
     2
 72
     5
 73
    -6
  0
VERTEX
  5
13D2
  8
0
 10
0.0
 20
0.0
 30
0.0
 70
   128
 71
     3
 72
    -2
 73
     6
  0
VERTEX
  5
13D3
  8
0
 10
0.0
 20
0.0
 30
0.0
 70
   128
 71
     7
 72
     1
 73
    -4
  0
VERTEX
  5
13D4
  8
0
 10
0.0
 20
0.0
 30
0.0
 70
   128
 71
     8
 72
    -7
 73
     4
  0
SEQEND
  5
15AB
  8
0
  0
POLYLINE
  5
13D5
  8
0
 66
     1
 10
0.0
 20
0.0
 30
0.0
 70
    64
 71
     4
 72
     2
  0
VERTEX
  5
13D6
  8
0
 10
279.2500000000006
 20
334.2500000000005
 30
-14.0
 70
   192
  0
VERTEX
  5
13D7
  8
0
 10
275.5
 20
334.2500000000012
 30
-14.0
 70
   192
  0
VERTEX
  5
13D8
  8
0
 10
275.5
 20
334.2500000000005
 30
-19.0
 70
   192
  0
VERTEX
  5
13D9
  8
0
 10
279.2500000000006
 20
334.2500000000005
 30
-19.0
 70
   192
  0
VERTEX
  5
13DA
  8
0
 10
0.0
 20
0.0
 30
0.0
 70
   128
 71
     1
 72
     4
 73
    -3
  0
VERTEX
  5
13DB
  8
0
 10
0.0
 20
0.0
 30
0.0
 70
   128
 71
    -1
 72
     3
 73
     2
  0
SEQEND
  5
15AC
  8
0
  0
POLYLINE
  5
13DC
  8
0
 66
     1
 10
0.0
 20
0.0
 30
0.0
 70
    64
 71
     4
 72
     2
  0
VERTEX
  5
13DD
  8
0
 10
279.2500000000006
 20
341.749999999998
 30
-14.0
 70
   192
  0
VERTEX
  5
13DE
  8
0
 10
275.5000000000001
 20
341.749999999998
 30
-14.0
 70
   192
  0
VERTEX
  5
13DF
  8
0
 10
275.5000000000001
 20
341.749999999998
 30
-19.0
 70
   192
  0
VERTEX
  5
13E0
  8
0
 10
279.2500000000006
 20
341.749999999998
 30
-19.0
 70
   192
  0
VERTEX
  5
13E1
  8
0
 10
0.0
 20
0.0
 30
0.0
 70
   128
 71
     3
 72
     4
 73
    -1
  0
VERTEX
  5
13E2
  8
0
 10
0.0
 20
0.0
 30
0.0
 70
   128
 71
     2
 72
    -3
 73
     1
  0
SEQEND
  5
15AD
  8
0
  0
POLYLINE
  5
13E3
  8
0
 66
     1
 10
0.0
 20
0.0
 30
0.0
 70
    64
 71
    12
 72
    10
  0
VERTEX
  5
13E4
  8
0
 10
290.4999999999999
 20
341.7499999999987
 30
-14.0
 70
   192
  0
VERTEX
  5
13E5
  8
0
 10
290.4999999999999
 20
341.7499999999987
 30
-19.0
 70
   192
  0
VERTEX
  5
13E6
  8
0
 10
292.704194696096
 20
341.033813728905
 30
-19.0
 70
   192
  0
VERTEX
  5
13E7
  8
0
 10
292.704194696096
 20
341.033813728905
 30
-14.0
 70
   192
  0
VERTEX
  5
13E8
  8
0
 10
290.4999999999999
 20
334.2500000000012
 30
-19.0
 70
   192
  0
VERTEX
  5
13E9
  8
0
 10
290.4999999999999
 20
334.2500000000005
 30
-14.0
 70
   192
  0
VERTEX
  5
13EA
  8
0
 10
292.7041946960961
 20
334.9661862710948
 30
-14.0
 70
   192
  0
VERTEX
  5
13EB
  8
0
 10
292.7041946960961
 20
334.9661862710948
 30
-19.0
 70
   192
  0
VERTEX
  5
13EC
  8
0
 10
294.0664619361057
 20
336.8411862710943
 30
-14.0
 70
   192
  0
VERTEX
  5
13ED
  8
0
 10
294.0664619361057
 20
339.1588137289057
 30
-14.0
 70
   192
  0
VERTEX
  5
13EE
  8
0
 10
294.0664619361057
 20
339.1588137289057
 30
-19.0
 70
   192
  0
VERTEX
  5
13EF
  8
0
 10
294.0664619361057
 20
336.8411862710943
 30
-19.0
 70
   192
  0
VERTEX
  5
13F0
  8
0
 10
0.0
 20
0.0
 30
0.0
 70
   128
 71
     1
 72
     2
 73
    -3
  0
VERTEX
  5
13F1
  8
0
 10
0.0
 20
0.0
 30
0.0
 70
   128
 71
     4
 72
    -1
 73
     3
  0
VERTEX
  5
13F2
  8
0
 10
0.0
 20
0.0
 30
0.0
 70
   128
 71
     5
 72
     6
 73
    -7
  0
VERTEX
  5
13F3
  8
0
 10
0.0
 20
0.0
 30
0.0
 70
   128
 71
     8
 72
    -5
 73
     7
  0
VERTEX
  5
13F4
  8
0
 10
0.0
 20
0.0
 30
0.0
 70
   128
 71
     9
 72
    10
 73
   -11
  0
VERTEX
  5
13F5
  8
0
 10
0.0
 20
0.0
 30
0.0
 70
   128
 71
    12
 72
    -9
 73
    11
  0
VERTEX
  5
13F6
  8
0
 10
0.0
 20
0.0
 30
0.0
 70
   128
 71
    10
 72
     4
 73
    -3
  0
VERTEX
  5
13F7
  8
0
 10
0.0
 20
0.0
 30
0.0
 70
   128
 71
    11
 72
   -10
 73
     3
  0
VERTEX
  5
13F8
  8
0
 10
0.0
 20
0.0
 30
0.0
 70
   128
 71
     7
 72
     9
 73
   -12
  0
VERTEX
  5
13F9
  8
0
 10
0.0
 20
0.0
 30
0.0
 70
   128
 71
     8
 72
    -7
 73
    12
  0
SEQEND
  5
15AE
  8
0
  0
POLYLINE
  5
13FA
  8
0
 66
     1
 10
0.0
 20
0.0
 30
0.0
 70
    64
 71
     4
 72
     2
  0
VERTEX
  5
13FB
  8
0
 10
286.7499999999999
 20
341.749999999998
 30
-14.0
 70
   192
  0
VERTEX
  5
13FC
  8
0
 10
286.7499999999999
 20
341.749999999998
 30
-19.0
 70
   192
  0
VERTEX
  5
13FD
  8
0
 10
290.4999999999999
 20
341.749999999998
 30
-19.0
 70
   192
  0
VERTEX
  5
13FE
  8
0
 10
290.4999999999999
 20
341.749999999998
 30
-14.0
 70
   192
  0
VERTEX
  5
13FF
  8
0
 10
0.0
 20
0.0
 30
0.0
 70
   128
 71
     3
 72
     4
 73
    -1
  0
VERTEX
  5
1400
  8
0
 10
0.0
 20
0.0
 30
0.0
 70
   128
 71
     2
 72
    -3
 73
     1
  0
SEQEND
  5
15AF
  8
0
  0
POLYLINE
  5
1401
  8
0
 66
     1
 10
0.0
 20
0.0
 30
0.0
 70
    64
 71
     4
 72
     2
  0
VERTEX
  5
1402
  8
0
 10
286.7499999999999
 20
334.2500000000005
 30
-14.0
 70
   192
  0
VERTEX
  5
1403
  8
0
 10
286.7499999999999
 20
334.2500000000005
 30
-19.0
 70
   192
  0
VERTEX
  5
1404
  8
0
 10
290.4999999999999
 20
334.2500000000005
 30
-19.0
 70
   192
  0
VERTEX
  5
1405
  8
0
 10
290.4999999999999
 20
334.2500000000005
 30
-14.0
 70
   192
  0
VERTEX
  5
1406
  8
0
 10
0.0
 20
0.0
 30
0.0
 70
   128
 71
     1
 72
     4
 73
    -3
  0
VERTEX
  5
1407
  8
0
 10
0.0
 20
0.0
 30
0.0
 70
   128
 71
    -1
 72
     3
 73
     2
  0
SEQEND
  5
15B0
  8
0
  0
POLYLINE
  5
1408
  8
0
 66
     1
 10
0.0
 20
0.0
 30
0.0
 70
    64
 71
    27
 72
    25
  0
VERTEX
  5
1409
  8
0
 10
279.2500000000006
 20
334.2500000000008
 30
-14.0
 70
   192
  0
VERTEX
  5
140A
  8
0
 10
279.2500000000003
 20
330.4999999999999
 30
-14.0
 70
   192
  0
VERTEX
  5
140B
  8
0
 10
280.3483495705507
 20
327.8483495705506
 30
-14.0
 70
   192
  0
VERTEX
  5
140C
  8
0
 10
283.0
 20
326.7500000000003
 30
-14.0
 70
   192
  0
VERTEX
  5
140D
  8
0
 10
285.6516504294493
 20
327.8483495705506
 30
-14.0
 70
   192
  0
VERTEX
  5
140E
  8
0
 10
286.7499999999999
 20
330.4999999999999
 30
-14.0
 70
   192
  0
VERTEX
  5
140F
  8
0
 10
286.7499999999999
 20
334.2500000000005
 30
-14.0
 70
   192
  0
VERTEX
  5
1410
  8
0
 10
290.4999999999999
 20
334.2500000000012
 30
-14.0
 70
   192
  0
VERTEX
  5
1411
  8
0
 10
292.7041946960961
 20
334.9661862710948
 30
-14.0
 70
   192
  0
VERTEX
  5
1412
  8
0
 10
294.0664619361057
 20
336.8411862710943
 30
-14.0
 70
   192
  0
VERTEX
  5
1413
  8
0
 10
294.0664619361057
 20
339.1588137289057
 30
-14.0
 70
   192
  0
VERTEX
  5
1414
  8
0
 10
292.704194696096
 20
341.033813728905
 30
-14.0
 70
   192
  0
VERTEX
  5
1415
  8
0
 10
290.4999999999999
 20
341.749999999998
 30
-14.0
 70
   192
  0
VERTEX
  5
1416
  8
0
 10
286.7499999999999
 20
341.749999999998
 30
-14.0
 70
   192
  0
VERTEX
  5
1417
  8
0
 10
286.7499999999997
 20
345.5
 30
-14.0
 70
   192
  0
VERTEX
  5
1418
  8
0
 10
285.6516504294493
 20
348.1516504294493
 30
-14.0
 70
   192
  0
VERTEX
  5
1419
  8
0
 10
283.0
 20
349.2499999999997
 30
-14.0
 70
   192
  0
VERTEX
  5
141A
  8
0
 10
280.3483495705507
 20
348.1516504294493
 30
-14.0
 70
   192
  0
VERTEX
  5
141B
  8
0
 10
279.2500000000006
 20
345.5
 30
-14.0
 70
   192
  0
VERTEX
  5
141C
  8
0
 10
279.2500000000006
 20
341.749999999998
 30
-14.0
 70
   192
  0
VERTEX
  5
141D
  8
0
 10
275.5000000000001
 20
341.7499999999987
 30
-14.0
 70
   192
  0
VERTEX
  5
141E
  8
0
 10
273.6250000000007
 20
341.2475952641905
 30
-14.0
 70
   192
  0
VERTEX
  5
141F
  8
0
 10
272.2524047358094
 20
339.8749999999993
 30
-14.0
 70
   192
  0
VERTEX
  5
1420
  8
0
 10
271.7500000000013
 20
337.9999999999999
 30
-14.0
 70
   192
  0
VERTEX
  5
1421
  8
0
 10
272.2524047358094
 20
336.1250000000006
 30
-14.0
 70
   192
  0
VERTEX
  5
1422
  8
0
 10
273.6250000000006
 20
334.7524047358094
 30
-14.0
 70
   192
  0
VERTEX
  5
1423
  8
0
 10
275.5
 20
334.2500000000005
 30
-14.0
 70
   192
  0
VERTEX
  5
1424
  8
0
 10
0.0
 20
0.0
 30
0.0
 70
   128
 71
    20
 72
    19
 73
   -18
  0
VERTEX
  5
1425
  8
0
 10
0.0
 20
0.0
 30
0.0
 70
   128
 71
   -20
 72
    18
 73
   -17
  0
VERTEX
  5
1426
  8
0
 10
0.0
 20
0.0
 30
0.0
 70
   128
 71
   -20
 72
    17
 73
   -16
  0
VERTEX
  5
1427
  8
0
 10
0.0
 20
0.0
 30
0.0
 70
   128
 71
   -20
 72
    16
 73
   -15
  0
VERTEX
  5
1428
  8
0
 10
0.0
 20
0.0
 30
0.0
 70
   128
 71
   -20
 72
    15
 73
   -14
  0
VERTEX
  5
1429
  8
0
 10
0.0
 20
0.0
 30
0.0
 70
   128
 71
   -14
 72
    -1
 73
   -20
  0
VERTEX
  5
142A
  8
0
 10
0.0
 20
0.0
 30
0.0
 70
   128
 71
     1
 72
    27
 73
   -26
  0
VERTEX
  5
142B
  8
0
 10
0.0
 20
0.0
 30
0.0
 70
   128
 71
    -1
 72
    26
 73
   -25
  0
VERTEX
  5
142C
  8
0
 10
0.0
 20
0.0
 30
0.0
 70
   128
 71
    -1
 72
    25
 73
   -24
  0
VERTEX
  5
142D
  8
0
 10
0.0
 20
0.0
 30
0.0
 70
   128
 71
    -1
 72
    24
 73
   -23
  0
VERTEX
  5
142E
  8
0
 10
0.0
 20
0.0
 30
0.0
 70
   128
 71
    -1
 72
    23
 73
   -22
  0
VERTEX
  5
142F
  8
0
 10
0.0
 20
0.0
 30
0.0
 70
   128
 71
    -1
 72
    22
 73
   -21
  0
VERTEX
  5
1430
  8
0
 10
0.0
 20
0.0
 30
0.0
 70
   128
 71
    -1
 72
    21
 73
   -20
  0
VERTEX
  5
1431
  8
0
 10
0.0
 20
0.0
 30
0.0
 70
   128
 71
     7
 72
     6
 73
    -5
  0
VERTEX
  5
1432
  8
0
 10
0.0
 20
0.0
 30
0.0
 70
   128
 71
    -7
 72
     5
 73
    -4
  0
VERTEX
  5
1433
  8
0
 10
0.0
 20
0.0
 30
0.0
 70
   128
 71
    -7
 72
     4
 73
    -3
  0
VERTEX
  5
1434
  8
0
 10
0.0
 20
0.0
 30
0.0
 70
   128
 71
    -7
 72
     3
 73
    -2
  0
VERTEX
  5
1435
  8
0
 10
0.0
 20
0.0
 30
0.0
 70
   128
 71
    -7
 72
     2
 73
    -1
  0
VERTEX
  5
1436
  8
0
 10
0.0
 20
0.0
 30
0.0
 70
   128
 71
    -1
 72
   -14
 73
    -7
  0
VERTEX
  5
1437
  8
0
 10
0.0
 20
0.0
 30
0.0
 70
   128
 71
    14
 72
    13
 73
   -12
  0
VERTEX
  5
1438
  8
0
 10
0.0
 20
0.0
 30
0.0
 70
   128
 71
   -14
 72
    12
 73
   -11
  0
VERTEX
  5
1439
  8
0
 10
0.0
 20
0.0
 30
0.0
 70
   128
 71
   -14
 72
    11
 73
   -10
  0
VERTEX
  5
143A
  8
0
 10
0.0
 20
0.0
 30
0.0
 70
   128
 71
   -14
 72
    10
 73
    -9
  0
VERTEX
  5
143B
  8
0
 10
0.0
 20
0.0
 30
0.0
 70
   128
 71
   -14
 72
     9
 73
    -8
  0
VERTEX
  5
143C
  8
0
 10
0.0
 20
0.0
 30
0.0
 70
   128
 71
   -14
 72
     8
 73
    -7
  0
SEQEND
  5
15B1
  8
0
  0
ENDBLK
  5
159D
  8
0
  0
BLOCK
  8
0
  2
*X5
 70
     1
 10
0.0
 20
0.0
 30
0.0
  3
*X5
  1

  0
POLYLINE
  5
143E
  8
0
 66
     1
 10
0.0
 20
0.0
 30
0.0
 70
    64
 71
     8
 72
     6
  0
VERTEX
  5
143F
  8
0
 10
-292.3749999999993
 20
341.2475952641906
 30
-14.0
 70
   192
  0
VERTEX
  5
1440
  8
0
 10
-293.7475952641906
 20
339.8749999999994
 30
-14.0
 70
   192
  0
VERTEX
  5
1441
  8
0
 10
-293.7475952641906
 20
339.8749999999994
 30
-19.0
 70
   192
  0
VERTEX
  5
1442
  8
0
 10
-292.3749999999993
 20
341.2475952641906
 30
-19.0
 70
   192
  0
VERTEX
  5
1443
  8
0
 10
-294.2499999999988
 20
337.9999999999999
 30
-14.0
 70
   192
  0
VERTEX
  5
1444
  8
0
 10
-294.2499999999988
 20
337.9999999999999
 30
-19.0
 70
   192
  0
VERTEX
  5
1445
  8
0
 10
-290.4999999999999
 20
341.7499999999987
 30
-14.0
 70
   192
  0
VERTEX
  5
1446
  8
0
 10
-290.4999999999999
 20
341.7499999999987
 30
-19.0
 70
   192
  0
VERTEX
  5
1447
  8
0
 10
0.0
 20
0.0
 30
0.0
 70
   128
 71
     1
 72
     2
 73
    -3
  0
VERTEX
  5
1448
  8
0
 10
0.0
 20
0.0
 30
0.0
 70
   128
 71
     4
 72
    -1
 73
     3
  0
VERTEX
  5
1449
  8
0
 10
0.0
 20
0.0
 30
0.0
 70
   128
 71
     2
 72
     5
 73
    -6
  0
VERTEX
  5
144A
  8
0
 10
0.0
 20
0.0
 30
0.0
 70
   128
 71
     3
 72
    -2
 73
     6
  0
VERTEX
  5
144B
  8
0
 10
0.0
 20
0.0
 30
0.0
 70
   128
 71
     7
 72
     1
 73
    -4
  0
VERTEX
  5
144C
  8
0
 10
0.0
 20
0.0
 30
0.0
 70
   128
 71
     8
 72
    -7
 73
     4
  0
SEQEND
  5
15B4
  8
0
  0
POLYLINE
  5
144D
  8
0
 66
     1
 10
0.0
 20
0.0
 30
0.0
 70
    64
 71
    31
 72
    31
  0
VERTEX
  5
144E
  8
0
 10
-266.0
 20
366.0000000000001
 30
-19.00000000000002
 70
   192
  0
VERTEX
  5
144F
  8
0
 10
-266.0
 20
-366.0000000000001
 30
-19.00000000000002
 70
   192
  0
VERTEX
  5
1450
  8
0
 10
-300.0
 20
-400.0
 30
-19.00000000000002
 70
   192
  0
VERTEX
  5
1451
  8
0
 10
-300.0000000000001
 20
400.0
 30
-19.00000000000002
 70
   192
  0
VERTEX
  5
1452
  8
0
 10
-286.7499999999999
 20
341.749999999998
 30
-19.0
 70
   192
  0
VERTEX
  5
1453
  8
0
 10
-290.4999999999999
 20
341.749999999998
 30
-19.0
 70
   192
  0
VERTEX
  5
1454
  8
0
 10
-292.3749999999993
 20
341.2475952641906
 30
-19.0
 70
   192
  0
VERTEX
  5
1455
  8
0
 10
-293.7475952641906
 20
339.8749999999994
 30
-19.0
 70
   192
  0
VERTEX
  5
1456
  8
0
 10
-294.2499999999988
 20
337.9999999999999
 30
-19.0
 70
   192
  0
VERTEX
  5
1457
  8
0
 10
-293.7475952641906
 20
336.1250000000005
 30
-19.0
 70
   192
  0
VERTEX
  5
1458
  8
0
 10
-292.3749999999994
 20
334.7524047358094
 30
-19.0
 70
   192
  0
VERTEX
  5
1459
  8
0
 10
-290.4999999999999
 20
334.2500000000012
 30
-19.0
 70
   192
  0
VERTEX
  5
145A
  8
0
 10
-286.7499999999999
 20
334.2500000000005
 30
-19.0
 70
   192
  0
VERTEX
  5
145B
  8
0
 10
-286.7499999999999
 20
330.4999999999999
 30
-19.0
 70
   192
  0
VERTEX
  5
145C
  8
0
 10
-285.6516504294493
 20
327.8483495705506
 30
-19.0
 70
   192
  0
VERTEX
  5
145D
  8
0
 10
-283.0
 20
326.7500000000003
 30
-19.0
 70
   192
  0
VERTEX
  5
145E
  8
0
 10
-280.3483495705507
 20
327.8483495705506
 30
-19.0
 70
   192
  0
VERTEX
  5
145F
  8
0
 10
-279.2500000000003
 20
330.4999999999999
 30
-19.0
 70
   192
  0
VERTEX
  5
1460
  8
0
 10
-279.2500000000006
 20
334.2500000000008
 30
-19.0
 70
   192
  0
VERTEX
  5
1461
  8
0
 10
-275.5
 20
334.2500000000005
 30
-19.0
 70
   192
  0
VERTEX
  5
1462
  8
0
 10
-273.2958053039039
 20
334.9661862710949
 30
-19.0
 70
   192
  0
VERTEX
  5
1463
  8
0
 10
-271.9335380638943
 20
336.8411862710943
 30
-19.0
 70
   192
  0
VERTEX
  5
1464
  8
0
 10
-271.9335380638944
 20
339.1588137289057
 30
-19.0
 70
   192
  0
VERTEX
  5
1465
  8
0
 10
-273.295805303904
 20
341.033813728905
 30
-19.0
 70
   192
  0
VERTEX
  5
1466
  8
0
 10
-275.5000000000001
 20
341.7499999999987
 30
-19.0
 70
   192
  0
VERTEX
  5
1467
  8
0
 10
-279.2500000000006
 20
341.749999999998
 30
-19.0
 70
   192
  0
VERTEX
  5
1468
  8
0
 10
-279.2500000000006
 20
345.5
 30
-19.0
 70
   192
  0
VERTEX
  5
1469
  8
0
 10
-280.3483495705507
 20
348.1516504294493
 30
-19.0
 70
   192
  0
VERTEX
  5
146A
  8
0
 10
-283.0
 20
349.2499999999997
 30
-19.0
 70
   192
  0
VERTEX
  5
146B
  8
0
 10
-285.6516504294493
 20
348.1516504294493
 30
-19.0
 70
   192
  0
VERTEX
  5
146C
  8
0
 10
-286.7499999999997
 20
345.5
 30
-19.0
 70
   192
  0
VERTEX
  5
146D
  8
0
 10
0.0
 20
0.0
 30
0.0
 70
   128
 71
    12
 72
    13
 73
   -14
  0
VERTEX
  5
146E
  8
0
 10
0.0
 20
0.0
 30
0.0
 70
   128
 71
    31
 72
     5
 73
    -6
  0
VERTEX
  5
146F
  8
0
 10
0.0
 20
0.0
 30
0.0
 70
   128
 71
    -4
 72
   -31
 73
    -6
  0
VERTEX
  5
1470
  8
0
 10
0.0
 20
0.0
 30
0.0
 70
   128
 71
     6
 72
    -7
 73
    -4
  0
VERTEX
  5
1471
  8
0
 10
0.0
 20
0.0
 30
0.0
 70
   128
 71
     7
 72
    -8
 73
    -4
  0
VERTEX
  5
1472
  8
0
 10
0.0
 20
0.0
 30
0.0
 70
   128
 71
     8
 72
    -9
 73
    -4
  0
VERTEX
  5
1473
  8
0
 10
0.0
 20
0.0
 30
0.0
 70
   128
 71
     3
 72
    -4
 73
    -9
  0
VERTEX
  5
1474
  8
0
 10
0.0
 20
0.0
 30
0.0
 70
   128
 71
     9
 72
   -10
 73
    -3
  0
VERTEX
  5
1475
  8
0
 10
0.0
 20
0.0
 30
0.0
 70
   128
 71
    10
 72
   -11
 73
    -3
  0
VERTEX
  5
1476
  8
0
 10
0.0
 20
0.0
 30
0.0
 70
   128
 71
    14
 72
   -15
 73
    -3
  0
VERTEX
  5
1477
  8
0
 10
0.0
 20
0.0
 30
0.0
 70
   128
 71
   -12
 72
   -14
 73
    -3
  0
VERTEX
  5
1478
  8
0
 10
0.0
 20
0.0
 30
0.0
 70
   128
 71
    11
 72
   -12
 73
    -3
  0
VERTEX
  5
1479
  8
0
 10
0.0
 20
0.0
 30
0.0
 70
   128
 71
    15
 72
   -16
 73
    -3
  0
VERTEX
  5
147A
  8
0
 10
0.0
 20
0.0
 30
0.0
 70
   128
 71
    16
 72
   -17
 73
    -3
  0
VERTEX
  5
147B
  8
0
 10
0.0
 20
0.0
 30
0.0
 70
   128
 71
   -17
 72
   -20
 73
    -3
  0
VERTEX
  5
147C
  8
0
 10
0.0
 20
0.0
 30
0.0
 70
   128
 71
    17
 72
   -18
 73
   -20
  0
VERTEX
  5
147D
  8
0
 10
0.0
 20
0.0
 30
0.0
 70
   128
 71
    18
 72
    19
 73
   -20
  0
VERTEX
  5
147E
  8
0
 10
0.0
 20
0.0
 30
0.0
 70
   128
 71
    20
 72
   -21
 73
    -3
  0
VERTEX
  5
147F
  8
0
 10
0.0
 20
0.0
 30
0.0
 70
   128
 71
    21
 72
   -22
 73
    -3
  0
VERTEX
  5
1480
  8
0
 10
0.0
 20
0.0
 30
0.0
 70
   128
 71
     1
 72
     2
 73
    -3
  0
VERTEX
  5
1481
  8
0
 10
0.0
 20
0.0
 30
0.0
 70
   128
 71
   -22
 72
    -1
 73
    -3
  0
VERTEX
  5
1482
  8
0
 10
0.0
 20
0.0
 30
0.0
 70
   128
 71
    22
 72
   -23
 73
    -1
  0
VERTEX
  5
1483
  8
0
 10
0.0
 20
0.0
 30
0.0
 70
   128
 71
    23
 72
   -24
 73
    -1
  0
VERTEX
  5
1484
  8
0
 10
0.0
 20
0.0
 30
0.0
 70
   128
 71
    24
 72
   -25
 73
    -1
  0
VERTEX
  5
1485
  8
0
 10
0.0
 20
0.0
 30
0.0
 70
   128
 71
    26
 72
   -27
 73
    -1
  0
VERTEX
  5
1486
  8
0
 10
0.0
 20
0.0
 30
0.0
 70
   128
 71
    25
 72
   -26
 73
    -1
  0
VERTEX
  5
1487
  8
0
 10
0.0
 20
0.0
 30
0.0
 70
   128
 71
    27
 72
   -28
 73
    -1
  0
VERTEX
  5
1488
  8
0
 10
0.0
 20
0.0
 30
0.0
 70
   128
 71
    28
 72
   -29
 73
    -1
  0
VERTEX
  5
1489
  8
0
 10
0.0
 20
0.0
 30
0.0
 70
   128
 71
   -30
 72
     4
 73
    -1
  0
VERTEX
  5
148A
  8
0
 10
0.0
 20
0.0
 30
0.0
 70
   128
 71
    29
 72
   -30
 73
    -1
  0
VERTEX
  5
148B
  8
0
 10
0.0
 20
0.0
 30
0.0
 70
   128
 71
    30
 72
   -31
 73
    -4
  0
SEQEND
  5
15B5
  8
0
  0
POLYLINE
  5
148C
  8
0
 66
     1
 10
0.0
 20
0.0
 30
0.0
 70
    64
 71
     4
 72
     2
  0
VERTEX
  5
148D
  8
0
 10
-266.0000000000001
 20
-366.0000000000001
 30
0.0
 70
   192
  0
VERTEX
  5
148E
  8
0
 10
-300.0000000000001
 20
-400.0
 30
0.0
 70
   192
  0
VERTEX
  5
148F
  8
0
 10
-300.0
 20
400.0
 30
0.0
 70
   192
  0
VERTEX
  5
1490
  8
0
 10
-266.0
 20
366.0000000000001
 30
0.0
 70
   192
  0
VERTEX
  5
1491
  8
0
 10
0.0
 20
0.0
 30
0.0
 70
   128
 71
     1
 72
     4
 73
    -3
  0
VERTEX
  5
1492
  8
0
 10
0.0
 20
0.0
 30
0.0
 70
   128
 71
    -1
 72
     3
 73
     2
  0
SEQEND
  5
15B6
  8
0
  0
POLYLINE
  5
1493
  8
0
 66
     1
 10
0.0
 20
0.0
 30
0.0
 70
    64
 71
     4
 72
     2
  0
VERTEX
  5
1494
  8
0
 10
-266.0000000000001
 20
366.0000000000001
 30
0.0
 70
   192
  0
VERTEX
  5
1495
  8
0
 10
-266.0000000000001
 20
366.0000000000001
 30
-19.00000000000011
 70
   192
  0
VERTEX
  5
1496
  8
0
 10
-300.0
 20
400.0
 30
-19.00000000000002
 70
   192
  0
VERTEX
  5
1497
  8
0
 10
-300.0000000000001
 20
400.0
 30
0.0
 70
   192
  0
VERTEX
  5
1498
  8
0
 10
0.0
 20
0.0
 30
0.0
 70
   128
 71
     3
 72
     4
 73
    -1
  0
VERTEX
  5
1499
  8
0
 10
0.0
 20
0.0
 30
0.0
 70
   128
 71
     2
 72
    -3
 73
     1
  0
SEQEND
  5
15B7
  8
0
  0
POLYLINE
  5
149A
  8
0
 66
     1
 10
0.0
 20
0.0
 30
0.0
 70
    64
 71
     4
 72
     2
  0
VERTEX
  5
149B
  8
0
 10
-300.0000000000001
 20
400.0
 30
-19.00000000000034
 70
   192
  0
VERTEX
  5
149C
  8
0
 10
-300.0000000000001
 20
400.0
 30
0.0
 70
   192
  0
VERTEX
  5
149D
  8
0
 10
-300.0000000000001
 20
-400.0
 30
0.0
 70
   192
  0
VERTEX
  5
149E
  8
0
 10
-300.0000000000001
 20
-400.0
 30
-19.00000000000002
 70
   192
  0
VERTEX
  5
149F
  8
0
 10
0.0
 20
0.0
 30
0.0
 70
   128
 71
     1
 72
     4
 73
    -3
  0
VERTEX
  5
14A0
  8
0
 10
0.0
 20
0.0
 30
0.0
 70
   128
 71
    -1
 72
     3
 73
     2
  0
SEQEND
  5
15B8
  8
0
  0
POLYLINE
  5
14A1
  8
0
 66
     1
 10
0.0
 20
0.0
 30
0.0
 70
    64
 71
     4
 72
     2
  0
VERTEX
  5
14A2
  8
0
 10
-300.0000000000001
 20
-400.0
 30
0.0
 70
   192
  0
VERTEX
  5
14A3
  8
0
 10
-300.0000000000001
 20
-400.0
 30
-19.00000000000011
 70
   192
  0
VERTEX
  5
14A4
  8
0
 10
-266.0000000000001
 20
-366.0000000000001
 30
-19.00000000000002
 70
   192
  0
VERTEX
  5
14A5
  8
0
 10
-266.0000000000001
 20
-366.0000000000001
 30
0.0
 70
   192
  0
VERTEX
  5
14A6
  8
0
 10
0.0
 20
0.0
 30
0.0
 70
   128
 71
     3
 72
     4
 73
    -1
  0
VERTEX
  5
14A7
  8
0
 10
0.0
 20
0.0
 30
0.0
 70
   128
 71
     2
 72
    -3
 73
     1
  0
SEQEND
  5
15B9
  8
0
  0
POLYLINE
  5
14A8
  8
0
 66
     1
 10
0.0
 20
0.0
 30
0.0
 70
    64
 71
     4
 72
     2
  0
VERTEX
  5
14A9
  8
0
 10
-266.0000000000001
 20
-366.0000000000001
 30
0.0
 70
   192
  0
VERTEX
  5
14AA
  8
0
 10
-266.0000000000001
 20
-366.0000000000001
 30
-19.00000000000011
 70
   192
  0
VERTEX
  5
14AB
  8
0
 10
-266.0
 20
366.0000000000001
 30
-19.00000000000002
 70
   192
  0
VERTEX
  5
14AC
  8
0
 10
-266.0000000000001
 20
366.0000000000001
 30
0.0
 70
   192
  0
VERTEX
  5
14AD
  8
0
 10
0.0
 20
0.0
 30
0.0
 70
   128
 71
     3
 72
     4
 73
    -1
  0
VERTEX
  5
14AE
  8
0
 10
0.0
 20
0.0
 30
0.0
 70
   128
 71
     2
 72
    -3
 73
     1
  0
SEQEND
  5
15BA
  8
0
  0
POLYLINE
  5
14AF
  8
0
 66
     1
 10
0.0
 20
0.0
 30
0.0
 70
    64
 71
    10
 72
     8
  0
VERTEX
  5
14B0
  8
0
 10
-279.2500000000003
 20
330.4999999999999
 30
-14.0
 70
   192
  0
VERTEX
  5
14B1
  8
0
 10
-286.7499999999996
 20
330.4999999999999
 30
-14.0
 70
   192
  0
VERTEX
  5
14B2
  8
0
 10
-286.7499999999997
 20
330.4999999999999
 30
-19.0
 70
   192
  0
VERTEX
  5
14B3
  8
0
 10
-279.2500000000003
 20
330.4999999999999
 30
-19.0
 70
   192
  0
VERTEX
  5
14B4
  8
0
 10
-283.0
 20
326.7500000000003
 30
-19.0
 70
   192
  0
VERTEX
  5
14B5
  8
0
 10
-283.0
 20
326.7500000000003
 30
-14.0
 70
   192
  0
VERTEX
  5
14B6
  8
0
 10
-280.3483495705507
 20
327.8483495705506
 30
-19.0
 70
   192
  0
VERTEX
  5
14B7
  8
0
 10
-280.3483495705507
 20
327.8483495705506
 30
-14.0
 70
   192
  0
VERTEX
  5
14B8
  8
0
 10
-285.6516504294493
 20
327.8483495705506
 30
-19.0
 70
   192
  0
VERTEX
  5
14B9
  8
0
 10
-285.6516504294493
 20
327.8483495705506
 30
-14.0
 70
   192
  0
VERTEX
  5
14BA
  8
0
 10
0.0
 20
0.0
 30
0.0
 70
   128
 71
     4
 72
     7
 73
    -8
  0
VERTEX
  5
14BB
  8
0
 10
0.0
 20
0.0
 30
0.0
 70
   128
 71
     1
 72
    -4
 73
     8
  0
VERTEX
  5
14BC
  8
0
 10
0.0
 20
0.0
 30
0.0
 70
   128
 71
     7
 72
     5
 73
    -6
  0
VERTEX
  5
14BD
  8
0
 10
0.0
 20
0.0
 30
0.0
 70
   128
 71
     8
 72
    -7
 73
     6
  0
VERTEX
  5
14BE
  8
0
 10
0.0
 20
0.0
 30
0.0
 70
   128
 71
     5
 72
     9
 73
   -10
  0
VERTEX
  5
14BF
  8
0
 10
0.0
 20
0.0
 30
0.0
 70
   128
 71
     6
 72
    -5
 73
    10
  0
VERTEX
  5
14C0
  8
0
 10
0.0
 20
0.0
 30
0.0
 70
   128
 71
     9
 72
     3
 73
    -2
  0
VERTEX
  5
14C1
  8
0
 10
0.0
 20
0.0
 30
0.0
 70
   128
 71
    10
 72
    -9
 73
     2
  0
SEQEND
  5
15BB
  8
0
  0
POLYLINE
  5
14C2
  8
0
 66
     1
 10
0.0
 20
0.0
 30
0.0
 70
    64
 71
     4
 72
     2
  0
VERTEX
  5
14C3
  8
0
 10
-279.2500000000006
 20
334.2500000000005
 30
-19.0
 70
   192
  0
VERTEX
  5
14C4
  8
0
 10
-279.2500000000006
 20
334.2500000000008
 30
-14.0
 70
   192
  0
VERTEX
  5
14C5
  8
0
 10
-279.2500000000006
 20
330.4999999999999
 30
-14.0
 70
   192
  0
VERTEX
  5
14C6
  8
0
 10
-279.2500000000006
 20
330.4999999999999
 30
-19.0
 70
   192
  0
VERTEX
  5
14C7
  8
0
 10
0.0
 20
0.0
 30
0.0
 70
   128
 71
     1
 72
     4
 73
    -3
  0
VERTEX
  5
14C8
  8
0
 10
0.0
 20
0.0
 30
0.0
 70
   128
 71
    -1
 72
     3
 73
     2
  0
SEQEND
  5
15BC
  8
0
  0
POLYLINE
  5
14C9
  8
0
 66
     1
 10
0.0
 20
0.0
 30
0.0
 70
    64
 71
     4
 72
     2
  0
VERTEX
  5
14CA
  8
0
 10
-286.7499999999999
 20
334.2500000000005
 30
-19.0
 70
   192
  0
VERTEX
  5
14CB
  8
0
 10
-286.7499999999999
 20
334.2500000000005
 30
-14.0
 70
   192
  0
VERTEX
  5
14CC
  8
0
 10
-286.7499999999999
 20
330.4999999999999
 30
-14.0
 70
   192
  0
VERTEX
  5
14CD
  8
0
 10
-286.7499999999996
 20
330.4999999999999
 30
-19.0
 70
   192
  0
VERTEX
  5
14CE
  8
0
 10
0.0
 20
0.0
 30
0.0
 70
   128
 71
     3
 72
     4
 73
    -1
  0
VERTEX
  5
14CF
  8
0
 10
0.0
 20
0.0
 30
0.0
 70
   128
 71
     2
 72
    -3
 73
     1
  0
SEQEND
  5
15BD
  8
0
  0
POLYLINE
  5
14D0
  8
0
 66
     1
 10
0.0
 20
0.0
 30
0.0
 70
    64
 71
     4
 72
     2
  0
VERTEX
  5
14D1
  8
0
 10
-279.2500000000006
 20
341.749999999998
 30
-19.0
 70
   192
  0
VERTEX
  5
14D2
  8
0
 10
-279.2500000000006
 20
345.5
 30
-19.0
 70
   192
  0
VERTEX
  5
14D3
  8
0
 10
-279.2500000000006
 20
345.5
 30
-14.0
 70
   192
  0
VERTEX
  5
14D4
  8
0
 10
-279.2500000000006
 20
341.749999999998
 30
-14.0
 70
   192
  0
VERTEX
  5
14D5
  8
0
 10
0.0
 20
0.0
 30
0.0
 70
   128
 71
     1
 72
     4
 73
    -3
  0
VERTEX
  5
14D6
  8
0
 10
0.0
 20
0.0
 30
0.0
 70
   128
 71
    -1
 72
     3
 73
     2
  0
SEQEND
  5
15BE
  8
0
  0
POLYLINE
  5
14D7
  8
0
 66
     1
 10
0.0
 20
0.0
 30
0.0
 70
    64
 71
    10
 72
     8
  0
VERTEX
  5
14D8
  8
0
 10
-286.7499999999997
 20
345.5
 30
-14.0
 70
   192
  0
VERTEX
  5
14D9
  8
0
 10
-279.2500000000006
 20
345.5
 30
-14.0
 70
   192
  0
VERTEX
  5
14DA
  8
0
 10
-279.2500000000003
 20
345.5
 30
-19.0
 70
   192
  0
VERTEX
  5
14DB
  8
0
 10
-286.7499999999997
 20
345.5
 30
-19.0
 70
   192
  0
VERTEX
  5
14DC
  8
0
 10
-283.0
 20
349.2499999999997
 30
-19.0
 70
   192
  0
VERTEX
  5
14DD
  8
0
 10
-283.0
 20
349.2499999999997
 30
-14.0
 70
   192
  0
VERTEX
  5
14DE
  8
0
 10
-285.6516504294493
 20
348.1516504294493
 30
-19.0
 70
   192
  0
VERTEX
  5
14DF
  8
0
 10
-285.6516504294493
 20
348.1516504294493
 30
-14.0
 70
   192
  0
VERTEX
  5
14E0
  8
0
 10
-280.3483495705507
 20
348.1516504294493
 30
-19.0
 70
   192
  0
VERTEX
  5
14E1
  8
0
 10
-280.3483495705507
 20
348.1516504294493
 30
-14.0
 70
   192
  0
VERTEX
  5
14E2
  8
0
 10
0.0
 20
0.0
 30
0.0
 70
   128
 71
     4
 72
     7
 73
    -8
  0
VERTEX
  5
14E3
  8
0
 10
0.0
 20
0.0
 30
0.0
 70
   128
 71
     1
 72
    -4
 73
     8
  0
VERTEX
  5
14E4
  8
0
 10
0.0
 20
0.0
 30
0.0
 70
   128
 71
     7
 72
     5
 73
    -6
  0
VERTEX
  5
14E5
  8
0
 10
0.0
 20
0.0
 30
0.0
 70
   128
 71
     8
 72
    -7
 73
     6
  0
VERTEX
  5
14E6
  8
0
 10
0.0
 20
0.0
 30
0.0
 70
   128
 71
     5
 72
     9
 73
   -10
  0
VERTEX
  5
14E7
  8
0
 10
0.0
 20
0.0
 30
0.0
 70
   128
 71
     6
 72
    -5
 73
    10
  0
VERTEX
  5
14E8
  8
0
 10
0.0
 20
0.0
 30
0.0
 70
   128
 71
     9
 72
     3
 73
    -2
  0
VERTEX
  5
14E9
  8
0
 10
0.0
 20
0.0
 30
0.0
 70
   128
 71
    10
 72
    -9
 73
     2
  0
SEQEND
  5
15BF
  8
0
  0
POLYLINE
  5
14EA
  8
0
 66
     1
 10
0.0
 20
0.0
 30
0.0
 70
    64
 71
     4
 72
     2
  0
VERTEX
  5
14EB
  8
0
 10
-286.7499999999999
 20
341.749999999998
 30
-19.0
 70
   192
  0
VERTEX
  5
14EC
  8
0
 10
-286.7499999999999
 20
345.5
 30
-19.0
 70
   192
  0
VERTEX
  5
14ED
  8
0
 10
-286.7499999999999
 20
345.5
 30
-14.0
 70
   192
  0
VERTEX
  5
14EE
  8
0
 10
-286.7499999999999
 20
341.749999999998
 30
-14.0
 70
   192
  0
VERTEX
  5
14EF
  8
0
 10
0.0
 20
0.0
 30
0.0
 70
   128
 71
     3
 72
     4
 73
    -1
  0
VERTEX
  5
14F0
  8
0
 10
0.0
 20
0.0
 30
0.0
 70
   128
 71
     2
 72
    -3
 73
     1
  0
SEQEND
  5
15C0
  8
0
  0
POLYLINE
  5
14F1
  8
0
 66
     1
 10
0.0
 20
0.0
 30
0.0
 70
    64
 71
     8
 72
     6
  0
VERTEX
  5
14F2
  8
0
 10
-293.7475952641906
 20
336.1250000000005
 30
-14.0
 70
   192
  0
VERTEX
  5
14F3
  8
0
 10
-292.3749999999994
 20
334.7524047358094
 30
-14.0
 70
   192
  0
VERTEX
  5
14F4
  8
0
 10
-292.3749999999994
 20
334.7524047358094
 30
-19.0
 70
   192
  0
VERTEX
  5
14F5
  8
0
 10
-293.7475952641906
 20
336.1250000000005
 30
-19.0
 70
   192
  0
VERTEX
  5
14F6
  8
0
 10
-290.4999999999999
 20
334.2500000000012
 30
-14.0
 70
   192
  0
VERTEX
  5
14F7
  8
0
 10
-290.4999999999999
 20
334.2500000000005
 30
-19.0
 70
   192
  0
VERTEX
  5
14F8
  8
0
 10
-294.2499999999988
 20
337.9999999999999
 30
-14.0
 70
   192
  0
VERTEX
  5
14F9
  8
0
 10
-294.2499999999988
 20
337.9999999999999
 30
-19.0
 70
   192
  0
VERTEX
  5
14FA
  8
0
 10
0.0
 20
0.0
 30
0.0
 70
   128
 71
     1
 72
     2
 73
    -3
  0
VERTEX
  5
14FB
  8
0
 10
0.0
 20
0.0
 30
0.0
 70
   128
 71
     4
 72
    -1
 73
     3
  0
VERTEX
  5
14FC
  8
0
 10
0.0
 20
0.0
 30
0.0
 70
   128
 71
     2
 72
     5
 73
    -6
  0
VERTEX
  5
14FD
  8
0
 10
0.0
 20
0.0
 30
0.0
 70
   128
 71
     3
 72
    -2
 73
     6
  0
VERTEX
  5
14FE
  8
0
 10
0.0
 20
0.0
 30
0.0
 70
   128
 71
     7
 72
     1
 73
    -4
  0
VERTEX
  5
14FF
  8
0
 10
0.0
 20
0.0
 30
0.0
 70
   128
 71
     8
 72
    -7
 73
     4
  0
SEQEND
  5
15C1
  8
0
  0
POLYLINE
  5
1500
  8
0
 66
     1
 10
0.0
 20
0.0
 30
0.0
 70
    64
 71
     4
 72
     2
  0
VERTEX
  5
1501
  8
0
 10
-286.7499999999999
 20
334.2500000000005
 30
-19.0
 70
   192
  0
VERTEX
  5
1502
  8
0
 10
-290.4999999999999
 20
334.2500000000005
 30
-19.0
 70
   192
  0
VERTEX
  5
1503
  8
0
 10
-290.4999999999999
 20
334.2500000000005
 30
-14.0
 70
   192
  0
VERTEX
  5
1504
  8
0
 10
-286.7499999999999
 20
334.2500000000005
 30
-14.0
 70
   192
  0
VERTEX
  5
1505
  8
0
 10
0.0
 20
0.0
 30
0.0
 70
   128
 71
     3
 72
     4
 73
    -1
  0
VERTEX
  5
1506
  8
0
 10
0.0
 20
0.0
 30
0.0
 70
   128
 71
     2
 72
    -3
 73
     1
  0
SEQEND
  5
15C2
  8
0
  0
POLYLINE
  5
1507
  8
0
 66
     1
 10
0.0
 20
0.0
 30
0.0
 70
    64
 71
     4
 72
     2
  0
VERTEX
  5
1508
  8
0
 10
-286.7499999999999
 20
341.749999999998
 30
-19.0
 70
   192
  0
VERTEX
  5
1509
  8
0
 10
-290.4999999999999
 20
341.749999999998
 30
-19.0
 70
   192
  0
VERTEX
  5
150A
  8
0
 10
-290.4999999999999
 20
341.749999999998
 30
-14.0
 70
   192
  0
VERTEX
  5
150B
  8
0
 10
-286.7499999999999
 20
341.749999999998
 30
-14.0
 70
   192
  0
VERTEX
  5
150C
  8
0
 10
0.0
 20
0.0
 30
0.0
 70
   128
 71
     1
 72
     4
 73
    -3
  0
VERTEX
  5
150D
  8
0
 10
0.0
 20
0.0
 30
0.0
 70
   128
 71
    -1
 72
     3
 73
     2
  0
SEQEND
  5
15C3
  8
0
  0
POLYLINE
  5
150E
  8
0
 66
     1
 10
0.0
 20
0.0
 30
0.0
 70
    64
 71
     4
 72
     2
  0
VERTEX
  5
150F
  8
0
 10
-279.2500000000006
 20
334.2500000000005
 30
-19.0
 70
   192
  0
VERTEX
  5
1510
  8
0
 10
-279.2500000000006
 20
334.2500000000005
 30
-14.0
 70
   192
  0
VERTEX
  5
1511
  8
0
 10
-275.5
 20
334.2500000000005
 30
-14.0
 70
   192
  0
VERTEX
  5
1512
  8
0
 10
-275.5
 20
334.2500000000012
 30
-19.0
 70
   192
  0
VERTEX
  5
1513
  8
0
 10
0.0
 20
0.0
 30
0.0
 70
   128
 71
     3
 72
     4
 73
    -1
  0
VERTEX
  5
1514
  8
0
 10
0.0
 20
0.0
 30
0.0
 70
   128
 71
     2
 72
    -3
 73
     1
  0
SEQEND
  5
15C4
  8
0
  0
POLYLINE
  5
1515
  8
0
 66
     1
 10
0.0
 20
0.0
 30
0.0
 70
    64
 71
    12
 72
    10
  0
VERTEX
  5
1516
  8
0
 10
-275.5000000000001
 20
341.7499999999987
 30
-14.0
 70
   192
  0
VERTEX
  5
1517
  8
0
 10
-275.5000000000001
 20
341.7499999999987
 30
-19.0
 70
   192
  0
VERTEX
  5
1518
  8
0
 10
-273.295805303904
 20
341.033813728905
 30
-19.0
 70
   192
  0
VERTEX
  5
1519
  8
0
 10
-273.295805303904
 20
341.033813728905
 30
-14.0
 70
   192
  0
VERTEX
  5
151A
  8
0
 10
-275.5
 20
334.2500000000012
 30
-19.0
 70
   192
  0
VERTEX
  5
151B
  8
0
 10
-275.5
 20
334.2500000000012
 30
-14.0
 70
   192
  0
VERTEX
  5
151C
  8
0
 10
-273.2958053039039
 20
334.9661862710949
 30
-14.0
 70
   192
  0
VERTEX
  5
151D
  8
0
 10
-273.2958053039039
 20
334.9661862710949
 30
-19.0
 70
   192
  0
VERTEX
  5
151E
  8
0
 10
-271.9335380638943
 20
336.8411862710943
 30
-14.0
 70
   192
  0
VERTEX
  5
151F
  8
0
 10
-271.9335380638944
 20
339.1588137289057
 30
-14.0
 70
   192
  0
VERTEX
  5
1520
  8
0
 10
-271.9335380638944
 20
339.1588137289057
 30
-19.0
 70
   192
  0
VERTEX
  5
1521
  8
0
 10
-271.9335380638943
 20
336.8411862710943
 30
-19.0
 70
   192
  0
VERTEX
  5
1522
  8
0
 10
0.0
 20
0.0
 30
0.0
 70
   128
 71
     1
 72
     2
 73
    -3
  0
VERTEX
  5
1523
  8
0
 10
0.0
 20
0.0
 30
0.0
 70
   128
 71
     4
 72
    -1
 73
     3
  0
VERTEX
  5
1524
  8
0
 10
0.0
 20
0.0
 30
0.0
 70
   128
 71
     5
 72
     6
 73
    -7
  0
VERTEX
  5
1525
  8
0
 10
0.0
 20
0.0
 30
0.0
 70
   128
 71
     8
 72
    -5
 73
     7
  0
VERTEX
  5
1526
  8
0
 10
0.0
 20
0.0
 30
0.0
 70
   128
 71
     9
 72
    10
 73
   -11
  0
VERTEX
  5
1527
  8
0
 10
0.0
 20
0.0
 30
0.0
 70
   128
 71
    12
 72
    -9
 73
    11
  0
VERTEX
  5
1528
  8
0
 10
0.0
 20
0.0
 30
0.0
 70
   128
 71
    10
 72
     4
 73
    -3
  0
VERTEX
  5
1529
  8
0
 10
0.0
 20
0.0
 30
0.0
 70
   128
 71
    11
 72
   -10
 73
     3
  0
VERTEX
  5
152A
  8
0
 10
0.0
 20
0.0
 30
0.0
 70
   128
 71
     7
 72
     9
 73
   -12
  0
VERTEX
  5
152B
  8
0
 10
0.0
 20
0.0
 30
0.0
 70
   128
 71
     8
 72
    -7
 73
    12
  0
SEQEND
  5
15C5
  8
0
  0
POLYLINE
  5
152C
  8
0
 66
     1
 10
0.0
 20
0.0
 30
0.0
 70
    64
 71
     4
 72
     2
  0
VERTEX
  5
152D
  8
0
 10
-279.2500000000006
 20
341.749999999998
 30
-19.0
 70
   192
  0
VERTEX
  5
152E
  8
0
 10
-279.2500000000006
 20
341.749999999998
 30
-14.0
 70
   192
  0
VERTEX
  5
152F
  8
0
 10
-275.5000000000001
 20
341.749999999998
 30
-14.0
 70
   192
  0
VERTEX
  5
1530
  8
0
 10
-275.5000000000001
 20
341.749999999998
 30
-19.0
 70
   192
  0
VERTEX
  5
1531
  8
0
 10
0.0
 20
0.0
 30
0.0
 70
   128
 71
     1
 72
     4
 73
    -3
  0
VERTEX
  5
1532
  8
0
 10
0.0
 20
0.0
 30
0.0
 70
   128
 71
    -1
 72
     3
 73
     2
  0
SEQEND
  5
15C6
  8
0
  0
POLYLINE
  5
1533
  8
0
 66
     1
 10
0.0
 20
0.0
 30
0.0
 70
    64
 71
    27
 72
    25
  0
VERTEX
  5
1534
  8
0
 10
-279.2500000000006
 20
341.749999999998
 30
-14.0
 70
   192
  0
VERTEX
  5
1535
  8
0
 10
-275.5000000000001
 20
341.749999999998
 30
-14.0
 70
   192
  0
VERTEX
  5
1536
  8
0
 10
-273.295805303904
 20
341.033813728905
 30
-14.0
 70
   192
  0
VERTEX
  5
1537
  8
0
 10
-271.9335380638944
 20
339.1588137289057
 30
-14.0
 70
   192
  0
VERTEX
  5
1538
  8
0
 10
-271.9335380638943
 20
336.8411862710943
 30
-14.0
 70
   192
  0
VERTEX
  5
1539
  8
0
 10
-273.2958053039039
 20
334.9661862710949
 30
-14.0
 70
   192
  0
VERTEX
  5
153A
  8
0
 10
-275.5
 20
334.2500000000012
 30
-14.0
 70
   192
  0
VERTEX
  5
153B
  8
0
 10
-279.2500000000006
 20
334.2500000000005
 30
-14.0
 70
   192
  0
VERTEX
  5
153C
  8
0
 10
-279.2500000000006
 20
330.4999999999999
 30
-14.0
 70
   192
  0
VERTEX
  5
153D
  8
0
 10
-280.3483495705507
 20
327.8483495705506
 30
-14.0
 70
   192
  0
VERTEX
  5
153E
  8
0
 10
-283.0
 20
326.7500000000003
 30
-14.0
 70
   192
  0
VERTEX
  5
153F
  8
0
 10
-285.6516504294493
 20
327.8483495705506
 30
-14.0
 70
   192
  0
VERTEX
  5
1540
  8
0
 10
-286.7499999999997
 20
330.4999999999999
 30
-14.0
 70
   192
  0
VERTEX
  5
1541
  8
0
 10
-286.7499999999999
 20
334.2500000000008
 30
-14.0
 70
   192
  0
VERTEX
  5
1542
  8
0
 10
-290.4999999999999
 20
334.2500000000005
 30
-14.0
 70
   192
  0
VERTEX
  5
1543
  8
0
 10
-292.3749999999994
 20
334.7524047358094
 30
-14.0
 70
   192
  0
VERTEX
  5
1544
  8
0
 10
-293.7475952641906
 20
336.1250000000005
 30
-14.0
 70
   192
  0
VERTEX
  5
1545
  8
0
 10
-294.2499999999988
 20
337.9999999999999
 30
-14.0
 70
   192
  0
VERTEX
  5
1546
  8
0
 10
-293.7475952641906
 20
339.8749999999994
 30
-14.0
 70
   192
  0
VERTEX
  5
1547
  8
0
 10
-292.3749999999993
 20
341.2475952641906
 30
-14.0
 70
   192
  0
VERTEX
  5
1548
  8
0
 10
-290.4999999999999
 20
341.7499999999987
 30
-14.0
 70
   192
  0
VERTEX
  5
1549
  8
0
 10
-286.7499999999999
 20
341.749999999998
 30
-14.0
 70
   192
  0
VERTEX
  5
154A
  8
0
 10
-286.7499999999999
 20
345.5
 30
-14.0
 70
   192
  0
VERTEX
  5
154B
  8
0
 10
-285.6516504294493
 20
348.1516504294493
 30
-14.0
 70
   192
  0
VERTEX
  5
154C
  8
0
 10
-283.0
 20
349.2499999999997
 30
-14.0
 70
   192
  0
VERTEX
  5
154D
  8
0
 10
-280.3483495705507
 20
348.1516504294493
 30
-14.0
 70
   192
  0
VERTEX
  5
154E
  8
0
 10
-279.2500000000003
 20
345.5
 30
-14.0
 70
   192
  0
VERTEX
  5
154F
  8
0
 10
0.0
 20
0.0
 30
0.0
 70
   128
 71
    20
 72
    21
 73
   -22
  0
VERTEX
  5
1550
  8
0
 10
0.0
 20
0.0
 30
0.0
 70
   128
 71
    19
 72
   -20
 73
   -22
  0
VERTEX
  5
1551
  8
0
 10
0.0
 20
0.0
 30
0.0
 70
   128
 71
    18
 72
   -19
 73
   -22
  0
VERTEX
  5
1552
  8
0
 10
0.0
 20
0.0
 30
0.0
 70
   128
 71
    17
 72
   -18
 73
   -22
  0
VERTEX
  5
1553
  8
0
 10
0.0
 20
0.0
 30
0.0
 70
   128
 71
    16
 72
   -17
 73
   -22
  0
VERTEX
  5
1554
  8
0
 10
0.0
 20
0.0
 30
0.0
 70
   128
 71
    15
 72
   -16
 73
   -22
  0
VERTEX
  5
1555
  8
0
 10
0.0
 20
0.0
 30
0.0
 70
   128
 71
    14
 72
   -15
 73
   -22
  0
VERTEX
  5
1556
  8
0
 10
0.0
 20
0.0
 30
0.0
 70
   128
 71
    -1
 72
   -14
 73
   -22
  0
VERTEX
  5
1557
  8
0
 10
0.0
 20
0.0
 30
0.0
 70
   128
 71
    26
 72
    27
 73
    -1
  0
VERTEX
  5
1558
  8
0
 10
0.0
 20
0.0
 30
0.0
 70
   128
 71
    25
 72
   -26
 73
    -1
  0
VERTEX
  5
1559
  8
0
 10
0.0
 20
0.0
 30
0.0
 70
   128
 71
    24
 72
   -25
 73
    -1
  0
VERTEX
  5
155A
  8
0
 10
0.0
 20
0.0
 30
0.0
 70
   128
 71
    23
 72
   -24
 73
    -1
  0
VERTEX
  5
155B
  8
0
 10
0.0
 20
0.0
 30
0.0
 70
   128
 71
    22
 72
   -23
 73
    -1
  0
VERTEX
  5
155C
  8
0
 10
0.0
 20
0.0
 30
0.0
 70
   128
 71
     6
 72
     7
 73
    -8
  0
VERTEX
  5
155D
  8
0
 10
0.0
 20
0.0
 30
0.0
 70
   128
 71
     5
 72
    -6
 73
    -8
  0
VERTEX
  5
155E
  8
0
 10
0.0
 20
0.0
 30
0.0
 70
   128
 71
     4
 72
    -5
 73
    -8
  0
VERTEX
  5
155F
  8
0
 10
0.0
 20
0.0
 30
0.0
 70
   128
 71
     3
 72
    -4
 73
    -8
  0
VERTEX
  5
1560
  8
0
 10
0.0
 20
0.0
 30
0.0
 70
   128
 71
     2
 72
    -3
 73
    -8
  0
VERTEX
  5
1561
  8
0
 10
0.0
 20
0.0
 30
0.0
 70
   128
 71
     1
 72
    -2
 73
    -8
  0
VERTEX
  5
1562
  8
0
 10
0.0
 20
0.0
 30
0.0
 70
   128
 71
   -14
 72
    -1
 73
    -8
  0
VERTEX
  5
1563
  8
0
 10
0.0
 20
0.0
 30
0.0
 70
   128
 71
    12
 72
    13
 73
   -14
  0
VERTEX
  5
1564
  8
0
 10
0.0
 20
0.0
 30
0.0
 70
   128
 71
    11
 72
   -12
 73
   -14
  0
VERTEX
  5
1565
  8
0
 10
0.0
 20
0.0
 30
0.0
 70
   128
 71
    10
 72
   -11
 73
   -14
  0
VERTEX
  5
1566
  8
0
 10
0.0
 20
0.0
 30
0.0
 70
   128
 71
     9
 72
   -10
 73
   -14
  0
VERTEX
  5
1567
  8
0
 10
0.0
 20
0.0
 30
0.0
 70
   128
 71
     8
 72
    -9
 73
   -14
  0
SEQEND
  5
15C7
  8
0
  0
ENDBLK
  5
15B3
  8
0
  0
ENDSEC
  0
SECTION
  2
ENTITIES
  0
INSERT
  5
B2E
  8
0
  2
*X1
 10
0.0
 20
0.0
 30
0.0
  0
INSERT
  5
B2F
  8
0
  2
*X2
 10
0.0
 20
0.0
 30
0.0
  0
INSERT
  5
B30
  8
0
  2
*X3
 10
0.0
 20
0.0
 30
0.0
  0
INSERT
  5
B31
  8
0
  2
*X4
 10
0.0
 20
0.0
 30
0.0
  0
INSERT
  5
B32
  8
0
  2
*X5
 10
0.0
 20
0.0
 30
0.0
  0
ENDSEC
  0
EOF
