  0
SECTION
  2
HEADER
  9
$ACADVER
  1
AC1009
  9
$DWGCODEPAGE
  3
ansi_1250
  9
$INSBASE
 10
0.0
 20
0.0
 30
0.0
  9
$EXTMIN
 10
-10.00000000000003
 20
-29.0
 30
-28.99999999999999
  9
$EXTMAX
 10
202.5321043607134
 20
29.0
 30
29.00000000000001
  9
$LIMMIN
 10
0.0
 20
0.0
  9
$LIMMAX
 10
420.0
 20
297.0
  9
$ORTHOMODE
 70
     0
  9
$REGENMODE
 70
     1
  9
$FILLMODE
 70
     1
  9
$QTEXTMODE
 70
     0
  9
$MIRRTEXT
 70
     0
  9
$DRAGMODE
 70
     2
  9
$LTSCALE
 40
1.0
  9
$OSMODE
 70
   511
  9
$ATTMODE
 70
     1
  9
$TEXTSIZE
 40
2.5
  9
$TRACEWID
 40
1.0
  9
$TEXTSTYLE
  7
STANDARD
  9
$CLAYER
  8
0
  9
$CELTYPE
  6
BYLAYER
  9
$CECOLOR
 62
   256
  9
$DIMSCALE
 40
1.0
  9
$DIMASZ
 40
2.5
  9
$DIMEXO
 40
0.625
  9
$DIMDLI
 40
3.75
  9
$DIMRND
 40
0.0
  9
$DIMDLE
 40
0.0
  9
$DIMEXE
 40
1.25
  9
$DIMTP
 40
0.0
  9
$DIMTM
 40
0.0
  9
$DIMTXT
 40
2.5
  9
$DIMCEN
 40
-2.5
  9
$DIMTSZ
 40
0.0
  9
$DIMTOL
 70
     0
  9
$DIMLIM
 70
     0
  9
$DIMTIH
 70
     0
  9
$DIMTOH
 70
     0
  9
$DIMSE1
 70
     0
  9
$DIMSE2
 70
     0
  9
$DIMTAD
 70
     1
  9
$DIMZIN
 70
     8
  9
$DIMBLK
  1

  9
$DIMASO
 70
     1
  9
$DIMSHO
 70
     1
  9
$DIMPOST
  1

  9
$DIMAPOST
  1

  9
$DIMALT
 70
     0
  9
$DIMALTD
 70
     3
  9
$DIMALTF
 40
0.03937007874016
  9
$DIMLFAC
 40
1.0
  9
$DIMTOFL
 70
     1
  9
$DIMTVP
 40
0.0
  9
$DIMTIX
 70
     0
  9
$DIMSOXD
 70
     0
  9
$DIMSAH
 70
     0
  9
$DIMBLK1
  1

  9
$DIMBLK2
  1

  9
$DIMSTYLE
  2
ISO-25
  9
$DIMCLRD
 70
     0
  9
$DIMCLRE
 70
     0
  9
$DIMCLRT
 70
     0
  9
$DIMTFAC
 40
1.0
  9
$DIMGAP
 40
0.625
  9
$LUNITS
 70
     2
  9
$LUPREC
 70
     3
  9
$SKETCHINC
 40
1.0
  9
$FILLETRAD
 40
10.0
  9
$AUNITS
 70
     0
  9
$AUPREC
 70
     0
  9
$MENU
  1
.
  9
$ELEVATION
 40
0.0
  9
$PELEVATION
 40
0.0
  9
$THICKNESS
 40
0.0
  9
$LIMCHECK
 70
     0
  9
$CHAMFERA
 40
10.0
  9
$CHAMFERB
 40
10.0
  9
$SKPOLY
 70
     0
  9
$TDCREATE
 40
2455022.720692848
  9
$TDUPDATE
 40
2460528.538469746
  9
$TDINDWG
 40
0.0735584375
  9
$TDUSRTIMER
 40
0.1481149884
  9
$USRTIMER
 70
     1
  9
$ANGBASE
 50
0.0
  9
$ANGDIR
 70
     0
  9
$PDMODE
 70
     0
  9
$PDSIZE
 40
0.0
  9
$PLINEWID
 40
0.0
  9
$COORDS
 70
     1
  9
$SPLFRAME
 70
     0
  9
$SPLINETYPE
 70
     6
  9
$SPLINESEGS
 70
     8
  9
$ATTDIA
 70
     0
  9
$ATTREQ
 70
     1
  9
$HANDLING
 70
     1
  9
$HANDSEED
  5
16D3EF
  9
$SURFTAB1
 70
     6
  9
$SURFTAB2
 70
     6
  9
$SURFTYPE
 70
     6
  9
$SURFU
 70
     6
  9
$SURFV
 70
     6
  9
$UCSNAME
  2

  9
$UCSORG
 10
0.0
 20
0.0
 30
0.0
  9
$UCSXDIR
 10
1.0
 20
0.0
 30
0.0
  9
$UCSYDIR
 10
0.0
 20
1.0
 30
0.0
  9
$PUCSNAME
  2

  9
$PUCSORG
 10
0.0
 20
0.0
 30
0.0
  9
$PUCSXDIR
 10
1.0
 20
0.0
 30
0.0
  9
$PUCSYDIR
 10
0.0
 20
1.0
 30
0.0
  9
$USERI1
 70
     0
  9
$USERI2
 70
     0
  9
$USERI3
 70
     0
  9
$USERI4
 70
     0
  9
$USERI5
 70
     0
  9
$USERR1
 40
0.0
  9
$USERR2
 40
0.0
  9
$USERR3
 40
0.0
  9
$USERR4
 40
0.0
  9
$USERR5
 40
0.0
  9
$WORLDVIEW
 70
     1
  9
$SHADEDGE
 70
     3
  9
$SHADEDIF
 70
    70
  9
$TILEMODE
 70
     1
  9
$MAXACTVP
 70
    64
  9
$PLIMCHECK
 70
     0
  9
$PEXTMIN
 10
1.000000000000000E+20
 20
1.000000000000000E+20
 30
1.000000000000000E+20
  9
$PEXTMAX
 10
-1.000000000000000E+20
 20
-1.000000000000000E+20
 30
-1.000000000000000E+20
  9
$PLIMMIN
 10
0.0
 20
0.0
  9
$PLIMMAX
 10
0.0
 20
0.0
  9
$UNITMODE
 70
     0
  9
$VISRETAIN
 70
     1
  9
$PLINEGEN
 70
     0
  9
$PSLTSCALE
 70
     1
  0
ENDSEC
  0
SECTION
  2
TABLES
  0
TABLE
  2
VPORT
 70
     1
  0
VPORT
  2
*ACTIVE
 70
     0
 10
0.0
 20
0.0
 11
1.0
 21
1.0
 12
-123.39463368048
 22
-61.5232681321995
 13
0.0
 23
0.0
 14
10.0
 24
10.0
 15
10.0
 25
10.0
 16
0.5773502691896226
 26
0.5773502691896262
 36
0.5773502691896262
 17
5.266928548892928
 27
83.5072408435309
 37
71.60436572219453
 40
160.957092230954
 41
1.89041095890411
 42
50.0
 43
0.0
 44
0.0
 50
0.0
 51
0.0000000000001024
 71
    16
 72
  1000
 73
     1
 74
     3
 75
     0
 76
     0
 77
     0
 78
     0
  0
ENDTAB
  0
TABLE
  2
LTYPE
 70
     1
  0
LTYPE
  2
CONTINUOUS
 70
     0
  3
Solid line
 72
    65
 73
     0
 40
0.0
  0
ENDTAB
  0
TABLE
  2
LAYER
 70
     1
  0
LAYER
  2
0
 70
     0
 62
     7
  6
CONTINUOUS
  0
ENDTAB
  0
TABLE
  2
STYLE
 70
     2
  0
STYLE
  2
STANDARD
 70
     0
 40
0.0
 41
1.0
 50
0.0
 71
     0
 42
2.5
  3
arial.ttf
  4

  0
STYLE
  2
ANNOTATIVE
 70
     0
 40
0.0
 41
1.0
 50
0.0
 71
     0
 42
2.5
  3
arial.ttf
  4

  0
ENDTAB
  0
TABLE
  2
VIEW
 70
     0
  0
ENDTAB
  0
TABLE
  2
UCS
 70
     0
  0
ENDTAB
  0
TABLE
  2
APPID
 70
     2
  0
APPID
  2
ACAD
 70
     0
  0
APPID
  2
ACADANNOTATIVE
 70
     0
  0
ENDTAB
  0
TABLE
  2
DIMSTYLE
 70
     2
  0
DIMSTYLE
  2
ISO-25
 70
     0
  3

  4

  5

  6

  7

 40
1.0
 41
2.5
 42
0.625
 43
3.75
 44
1.25
 45
0.0
 46
0.0
 47
0.0
 48
0.0
140
2.5
141
-2.5
142
0.0
143
0.03937007874016
144
1.0
145
0.0
146
1.0
147
0.625
 71
     0
 72
     0
 73
     0
 74
     0
 75
     0
 76
     0
 77
     1
 78
     8
170
     0
171
     3
172
     1
173
     0
174
     0
175
     0
176
     0
177
     0
178
     0
  0
DIMSTYLE
  2
ANNOTATIVE
 70
     0
  3

  4

  5

  6

  7

 40
0.0
 41
2.5
 42
0.625
 43
3.75
 44
1.25
 45
0.0
 46
0.0
 47
0.0
 48
0.0
140
2.5
141
-2.5
142
0.0
143
0.03937007874016
144
1.0
145
0.0
146
1.0
147
0.625
 71
     0
 72
     0
 73
     0
 74
     0
 75
     0
 76
     0
 77
     1
 78
     8
170
     0
171
     3
172
     1
173
     0
174
     0
175
     0
176
     0
177
     0
178
     0
  0
ENDTAB
  0
ENDSEC
  0
SECTION
  2
BLOCKS
  0
BLOCK
  8
0
  2
$MODEL_SPACE
 70
     0
 10
0.0
 20
0.0
 30
0.0
  3
$MODEL_SPACE
  1

  0
ENDBLK
  5
21
  8
0
  0
BLOCK
 67
     1
  8
0
  2
$PAPER_SPACE
 70
     0
 10
0.0
 20
0.0
 30
0.0
  3
$PAPER_SPACE
  1

  0
ENDBLK
  5
1D
 67
     1
  8
0
  0
BLOCK
  8
0
  2
*X1
 70
     1
 10
0.0
 20
0.0
 30
0.0
  3
*X1
  1

  0
POLYLINE
  5
16D30B
  8
0
 66
     1
 10
0.0
 20
0.0
 30
0.0
 70
    64
 71
    10
 72
     8
  0
VERTEX
  5
16D30C
  8
0
 10
-10.0
 20
0.0
 30
-29.0
 70
   192
  0
VERTEX
  5
16D30D
  8
0
 10
-10.0
 20
0.0
 30
29.0
 70
   192
  0
VERTEX
  5
16D30E
  8
0
 10
-0.0000000000000001
 20
0.0000000000000036
 30
29.0
 70
   192
  0
VERTEX
  5
16D30F
  8
0
 10
0.0
 20
0.0
 30
-29.0
 70
   192
  0
VERTEX
  5
16D310
  8
0
 10
0.0
 20
29.0
 30
0.0
 70
   192
  0
VERTEX
  5
16D311
  8
0
 10
-10.0
 20
29.0
 30
0.0
 70
   192
  0
VERTEX
  5
16D312
  8
0
 10
0.0
 20
20.50609665440988
 30
-20.50609665440988
 70
   192
  0
VERTEX
  5
16D313
  8
0
 10
-10.0
 20
20.50609665440988
 30
-20.50609665440988
 70
   192
  0
VERTEX
  5
16D314
  8
0
 10
0.0
 20
20.50609665440988
 30
20.50609665440988
 70
   192
  0
VERTEX
  5
16D315
  8
0
 10
-10.0
 20
20.50609665440988
 30
20.50609665440988
 70
   192
  0
VERTEX
  5
16D316
  8
0
 10
0.0
 20
0.0
 30
0.0
 70
   128
 71
     7
 72
     4
 73
    -1
  0
VERTEX
  5
16D317
  8
0
 10
0.0
 20
0.0
 30
0.0
 70
   128
 71
    -7
 72
     1
 73
     8
  0
VERTEX
  5
16D318
  8
0
 10
0.0
 20
0.0
 30
0.0
 70
   128
 71
     6
 72
     5
 73
    -7
  0
VERTEX
  5
16D319
  8
0
 10
0.0
 20
0.0
 30
0.0
 70
   128
 71
    -6
 72
     7
 73
     8
  0
VERTEX
  5
16D31A
  8
0
 10
0.0
 20
0.0
 30
0.0
 70
   128
 71
    10
 72
     9
 73
    -5
  0
VERTEX
  5
16D31B
  8
0
 10
0.0
 20
0.0
 30
0.0
 70
   128
 71
   -10
 72
     5
 73
     6
  0
VERTEX
  5
16D31C
  8
0
 10
0.0
 20
0.0
 30
0.0
 70
   128
 71
     2
 72
     3
 73
    -9
  0
VERTEX
  5
16D31D
  8
0
 10
0.0
 20
0.0
 30
0.0
 70
   128
 71
    -2
 72
     9
 73
    10
  0
SEQEND
  5
16D3E4
  8
0
  0
POLYLINE
  5
16D31E
  8
0
 66
     1
 10
0.0
 20
0.0
 30
0.0
 70
    64
 71
    10
 72
     8
  0
VERTEX
  5
16D31F
  8
0
 10
0.0000000000000021
 20
0.0
 30
-11.0
 70
   192
  0
VERTEX
  5
16D320
  8
0
 10
0.0
 20
0.0
 30
11.0
 70
   192
  0
VERTEX
  5
16D321
  8
0
 10
190.0
 20
0.0000000000000013
 30
11.0
 70
   192
  0
VERTEX
  5
16D322
  8
0
 10
190.0
 20
0.0000000000000013
 30
-11.0
 70
   192
  0
VERTEX
  5
16D323
  8
0
 10
190.0
 20
11.0
 30
0.0000000000000012
 70
   192
  0
VERTEX
  5
16D324
  8
0
 10
0.0
 20
11.0
 30
0.0
 70
   192
  0
VERTEX
  5
16D325
  8
0
 10
190.0
 20
7.778174593052024
 30
-7.778174593052022
 70
   192
  0
VERTEX
  5
16D326
  8
0
 10
0.0
 20
7.778174593052023
 30
-7.778174593052023
 70
   192
  0
VERTEX
  5
16D327
  8
0
 10
190.0
 20
7.778174593052022
 30
7.778174593052024
 70
   192
  0
VERTEX
  5
16D328
  8
0
 10
0.0
 20
7.778174593052024
 30
7.778174593052024
 70
   192
  0
VERTEX
  5
16D329
  8
0
 10
0.0
 20
0.0
 30
0.0
 70
   128
 71
     7
 72
     4
 73
    -1
  0
VERTEX
  5
16D32A
  8
0
 10
0.0
 20
0.0
 30
0.0
 70
   128
 71
    -7
 72
     1
 73
     8
  0
VERTEX
  5
16D32B
  8
0
 10
0.0
 20
0.0
 30
0.0
 70
   128
 71
     6
 72
     5
 73
    -7
  0
VERTEX
  5
16D32C
  8
0
 10
0.0
 20
0.0
 30
0.0
 70
   128
 71
    -6
 72
     7
 73
     8
  0
VERTEX
  5
16D32D
  8
0
 10
0.0
 20
0.0
 30
0.0
 70
   128
 71
    10
 72
     9
 73
    -5
  0
VERTEX
  5
16D32E
  8
0
 10
0.0
 20
0.0
 30
0.0
 70
   128
 71
   -10
 72
     5
 73
     6
  0
VERTEX
  5
16D32F
  8
0
 10
0.0
 20
0.0
 30
0.0
 70
   128
 71
     2
 72
     3
 73
    -9
  0
VERTEX
  5
16D330
  8
0
 10
0.0
 20
0.0
 30
0.0
 70
   128
 71
    -2
 72
     9
 73
    10
  0
SEQEND
  5
16D3E5
  8
0
  0
POLYLINE
  5
16D331
  8
0
 66
     1
 10
0.0
 20
0.0
 30
0.0
 70
    64
 71
    10
 72
     8
  0
VERTEX
  5
16D332
  8
0
 10
190.0321043607134
 20
0.0
 30
9.00025768909512
 70
   192
  0
VERTEX
  5
16D333
  8
0
 10
190.0321043607134
 20
0.0
 30
-9.000257689095118
 70
   192
  0
VERTEX
  5
16D334
  8
0
 10
190.0
 20
0.0000000000000013
 30
-10.99999999999999
 70
   192
  0
VERTEX
  5
16D335
  8
0
 10
190.0
 20
-0.0000000000000012
 30
11.0
 70
   192
  0
VERTEX
  5
16D336
  8
0
 10
190.0
 20
11.0
 30
0.0000000000000012
 70
   192
  0
VERTEX
  5
16D337
  8
0
 10
190.0321043607134
 20
9.00025768909512
 30
0.0
 70
   192
  0
VERTEX
  5
16D338
  8
0
 10
190.0
 20
7.778174593052022
 30
7.778174593052024
 70
   192
  0
VERTEX
  5
16D339
  8
0
 10
190.0321043607134
 20
6.364143244385525
 30
6.364143244385525
 70
   192
  0
VERTEX
  5
16D33A
  8
0
 10
190.0
 20
7.778174593052024
 30
-7.778174593052022
 70
   192
  0
VERTEX
  5
16D33B
  8
0
 10
190.0321043607134
 20
6.364143244385524
 30
-6.364143244385524
 70
   192
  0
VERTEX
  5
16D33C
  8
0
 10
0.0
 20
0.0
 30
0.0
 70
   128
 71
     7
 72
     4
 73
    -1
  0
VERTEX
  5
16D33D
  8
0
 10
0.0
 20
0.0
 30
0.0
 70
   128
 71
    -7
 72
     1
 73
     8
  0
VERTEX
  5
16D33E
  8
0
 10
0.0
 20
0.0
 30
0.0
 70
   128
 71
     6
 72
     5
 73
    -7
  0
VERTEX
  5
16D33F
  8
0
 10
0.0
 20
0.0
 30
0.0
 70
   128
 71
    -6
 72
     7
 73
     8
  0
VERTEX
  5
16D340
  8
0
 10
0.0
 20
0.0
 30
0.0
 70
   128
 71
    10
 72
     9
 73
    -5
  0
VERTEX
  5
16D341
  8
0
 10
0.0
 20
0.0
 30
0.0
 70
   128
 71
   -10
 72
     5
 73
     6
  0
VERTEX
  5
16D342
  8
0
 10
0.0
 20
0.0
 30
0.0
 70
   128
 71
     2
 72
     3
 73
    -9
  0
VERTEX
  5
16D343
  8
0
 10
0.0
 20
0.0
 30
0.0
 70
   128
 71
    -2
 72
     9
 73
    10
  0
SEQEND
  5
16D3E6
  8
0
  0
POLYLINE
  5
16D344
  8
0
 66
     1
 10
0.0
 20
0.0
 30
0.0
 70
    64
 71
    10
 72
     8
  0
VERTEX
  5
16D345
  8
0
 10
190.0321043607134
 20
0.0
 30
-9.00025768909512
 70
   192
  0
VERTEX
  5
16D346
  8
0
 10
190.0321043607134
 20
0.0
 30
9.00025768909512
 70
   192
  0
VERTEX
  5
16D347
  8
0
 10
202.5321043607134
 20
0.0000000000000011
 30
9.00025768909512
 70
   192
  0
VERTEX
  5
16D348
  8
0
 10
202.5321043607134
 20
0.0
 30
-9.000257689095118
 70
   192
  0
VERTEX
  5
16D349
  8
0
 10
202.5321043607134
 20
9.00025768909512
 30
0.0
 70
   192
  0
VERTEX
  5
16D34A
  8
0
 10
190.0321043607134
 20
9.00025768909512
 30
0.0
 70
   192
  0
VERTEX
  5
16D34B
  8
0
 10
202.5321043607134
 20
6.364143244385524
 30
-6.364143244385524
 70
   192
  0
VERTEX
  5
16D34C
  8
0
 10
190.0321043607134
 20
6.364143244385524
 30
-6.364143244385524
 70
   192
  0
VERTEX
  5
16D34D
  8
0
 10
202.5321043607134
 20
6.364143244385525
 30
6.364143244385525
 70
   192
  0
VERTEX
  5
16D34E
  8
0
 10
190.0321043607134
 20
6.364143244385525
 30
6.364143244385525
 70
   192
  0
VERTEX
  5
16D34F
  8
0
 10
0.0
 20
0.0
 30
0.0
 70
   128
 71
     7
 72
     4
 73
    -1
  0
VERTEX
  5
16D350
  8
0
 10
0.0
 20
0.0
 30
0.0
 70
   128
 71
    -7
 72
     1
 73
     8
  0
VERTEX
  5
16D351
  8
0
 10
0.0
 20
0.0
 30
0.0
 70
   128
 71
     6
 72
     5
 73
    -7
  0
VERTEX
  5
16D352
  8
0
 10
0.0
 20
0.0
 30
0.0
 70
   128
 71
    -6
 72
     7
 73
     8
  0
VERTEX
  5
16D353
  8
0
 10
0.0
 20
0.0
 30
0.0
 70
   128
 71
    10
 72
     9
 73
    -5
  0
VERTEX
  5
16D354
  8
0
 10
0.0
 20
0.0
 30
0.0
 70
   128
 71
   -10
 72
     5
 73
     6
  0
VERTEX
  5
16D355
  8
0
 10
0.0
 20
0.0
 30
0.0
 70
   128
 71
     2
 72
     3
 73
    -9
  0
VERTEX
  5
16D356
  8
0
 10
0.0
 20
0.0
 30
0.0
 70
   128
 71
    -2
 72
     9
 73
    10
  0
SEQEND
  5
16D3E7
  8
0
  0
POLYLINE
  5
16D357
  8
0
 66
     1
 10
0.0
 20
0.0
 30
0.0
 70
    64
 71
     8
 72
     6
  0
VERTEX
  5
16D358
  8
0
 10
-10.0
 20
0.0
 30
29.0
 70
   192
  0
VERTEX
  5
16D359
  8
0
 10
-10.0
 20
20.50609665440988
 30
20.50609665440988
 70
   192
  0
VERTEX
  5
16D35A
  8
0
 10
-10.0
 20
29.0
 30
0.0
 70
   192
  0
VERTEX
  5
16D35B
  8
0
 10
-10.0
 20
20.50609665440988
 30
-20.50609665440988
 70
   192
  0
VERTEX
  5
16D35C
  8
0
 10
-10.0
 20
0.0
 30
-29.0
 70
   192
  0
VERTEX
  5
16D35D
  8
0
 10
-10.0
 20
-20.50609665440988
 30
-20.50609665440987
 70
   192
  0
VERTEX
  5
16D35E
  8
0
 10
-10.0
 20
-29.0
 30
0.0000000000000032
 70
   192
  0
VERTEX
  5
16D35F
  8
0
 10
-10.0
 20
-20.50609665440987
 30
20.50609665440988
 70
   192
  0
VERTEX
  5
16D360
  8
0
 10
0.0
 20
0.0
 30
0.0
 70
   128
 71
     7
 72
     8
 73
    -1
  0
VERTEX
  5
16D361
  8
0
 10
0.0
 20
0.0
 30
0.0
 70
   128
 71
     6
 72
    -7
 73
    -1
  0
VERTEX
  5
16D362
  8
0
 10
0.0
 20
0.0
 30
0.0
 70
   128
 71
     5
 72
    -6
 73
    -1
  0
VERTEX
  5
16D363
  8
0
 10
0.0
 20
0.0
 30
0.0
 70
   128
 71
     4
 72
    -5
 73
    -1
  0
VERTEX
  5
16D364
  8
0
 10
0.0
 20
0.0
 30
0.0
 70
   128
 71
     3
 72
    -4
 73
    -1
  0
VERTEX
  5
16D365
  8
0
 10
0.0
 20
0.0
 30
0.0
 70
   128
 71
     2
 72
    -3
 73
     1
  0
SEQEND
  5
16D3E8
  8
0
  0
POLYLINE
  5
16D366
  8
0
 66
     1
 10
0.0
 20
0.0
 30
0.0
 70
    64
 71
     8
 72
     6
  0
VERTEX
  5
16D367
  8
0
 10
202.5321043607134
 20
0.0
 30
-9.000257689095118
 70
   192
  0
VERTEX
  5
16D368
  8
0
 10
202.5321043607134
 20
6.364143244385524
 30
-6.364143244385524
 70
   192
  0
VERTEX
  5
16D369
  8
0
 10
202.5321043607134
 20
9.00025768909512
 30
0.0
 70
   192
  0
VERTEX
  5
16D36A
  8
0
 10
202.5321043607134
 20
6.364143244385525
 30
6.364143244385525
 70
   192
  0
VERTEX
  5
16D36B
  8
0
 10
202.5321043607134
 20
0.0
 30
9.00025768909512
 70
   192
  0
VERTEX
  5
16D36C
  8
0
 10
202.5321043607134
 20
-6.364143244385523
 30
6.364143244385525
 70
   192
  0
VERTEX
  5
16D36D
  8
0
 10
202.5321043607134
 20
-9.000257689095118
 30
0.000000000000001
 70
   192
  0
VERTEX
  5
16D36E
  8
0
 10
202.5321043607134
 20
-6.364143244385525
 30
-6.364143244385523
 70
   192
  0
VERTEX
  5
16D36F
  8
0
 10
0.0
 20
0.0
 30
0.0
 70
   128
 71
     7
 72
     8
 73
    -1
  0
VERTEX
  5
16D370
  8
0
 10
0.0
 20
0.0
 30
0.0
 70
   128
 71
     6
 72
    -7
 73
    -1
  0
VERTEX
  5
16D371
  8
0
 10
0.0
 20
0.0
 30
0.0
 70
   128
 71
     5
 72
    -6
 73
    -1
  0
VERTEX
  5
16D372
  8
0
 10
0.0
 20
0.0
 30
0.0
 70
   128
 71
     4
 72
    -5
 73
    -1
  0
VERTEX
  5
16D373
  8
0
 10
0.0
 20
0.0
 30
0.0
 70
   128
 71
     3
 72
    -4
 73
    -1
  0
VERTEX
  5
16D374
  8
0
 10
0.0
 20
0.0
 30
0.0
 70
   128
 71
     2
 72
    -3
 73
     1
  0
SEQEND
  5
16D3E9
  8
0
  0
POLYLINE
  5
16D375
  8
0
 66
     1
 10
0.0
 20
0.0
 30
0.0
 70
    64
 71
    10
 72
     8
  0
VERTEX
  5
16D376
  8
0
 10
190.0321043607134
 20
0.0000000000000011
 30
9.00025768909512
 70
   192
  0
VERTEX
  5
16D377
  8
0
 10
190.0321043607134
 20
-0.000000000000001
 30
-9.000257689095118
 70
   192
  0
VERTEX
  5
16D378
  8
0
 10
202.5321043607134
 20
0.0
 30
-9.00025768909512
 70
   192
  0
VERTEX
  5
16D379
  8
0
 10
202.5321043607134
 20
0.0000000000000011
 30
9.000257689095118
 70
   192
  0
VERTEX
  5
16D37A
  8
0
 10
202.5321043607134
 20
-9.000257689095118
 30
0.000000000000001
 70
   192
  0
VERTEX
  5
16D37B
  8
0
 10
190.0321043607134
 20
-9.000257689095118
 30
0.000000000000001
 70
   192
  0
VERTEX
  5
16D37C
  8
0
 10
202.5321043607134
 20
-6.364143244385523
 30
6.364143244385525
 70
   192
  0
VERTEX
  5
16D37D
  8
0
 10
190.0321043607134
 20
-6.364143244385523
 30
6.364143244385525
 70
   192
  0
VERTEX
  5
16D37E
  8
0
 10
202.5321043607134
 20
-6.364143244385525
 30
-6.364143244385523
 70
   192
  0
VERTEX
  5
16D37F
  8
0
 10
190.0321043607134
 20
-6.364143244385525
 30
-6.364143244385523
 70
   192
  0
VERTEX
  5
16D380
  8
0
 10
0.0
 20
0.0
 30
0.0
 70
   128
 71
     8
 72
     7
 73
    -4
  0
VERTEX
  5
16D381
  8
0
 10
0.0
 20
0.0
 30
0.0
 70
   128
 71
    -8
 72
     4
 73
     1
  0
VERTEX
  5
16D382
  8
0
 10
0.0
 20
0.0
 30
0.0
 70
   128
 71
     6
 72
     5
 73
    -7
  0
VERTEX
  5
16D383
  8
0
 10
0.0
 20
0.0
 30
0.0
 70
   128
 71
    -6
 72
     7
 73
     8
  0
VERTEX
  5
16D384
  8
0
 10
0.0
 20
0.0
 30
0.0
 70
   128
 71
    10
 72
     9
 73
    -5
  0
VERTEX
  5
16D385
  8
0
 10
0.0
 20
0.0
 30
0.0
 70
   128
 71
   -10
 72
     5
 73
     6
  0
VERTEX
  5
16D386
  8
0
 10
0.0
 20
0.0
 30
0.0
 70
   128
 71
     2
 72
     3
 73
    -9
  0
VERTEX
  5
16D387
  8
0
 10
0.0
 20
0.0
 30
0.0
 70
   128
 71
    -2
 72
     9
 73
    10
  0
SEQEND
  5
16D3EA
  8
0
  0
POLYLINE
  5
16D388
  8
0
 66
     1
 10
0.0
 20
0.0
 30
0.0
 70
    64
 71
    10
 72
     8
  0
VERTEX
  5
16D389
  8
0
 10
190.0321043607134
 20
0.0000000000000011
 30
-9.00025768909512
 70
   192
  0
VERTEX
  5
16D38A
  8
0
 10
190.0321043607134
 20
0.0000000000000011
 30
9.000257689095118
 70
   192
  0
VERTEX
  5
16D38B
  8
0
 10
190.0
 20
0.0
 30
10.99999999999999
 70
   192
  0
VERTEX
  5
16D38C
  8
0
 10
190.0
 20
-0.0000000000000012
 30
-11.0
 70
   192
  0
VERTEX
  5
16D38D
  8
0
 10
190.0
 20
-11.0
 30
0.0000000000000012
 70
   192
  0
VERTEX
  5
16D38E
  8
0
 10
190.0321043607134
 20
-9.000257689095118
 30
0.000000000000001
 70
   192
  0
VERTEX
  5
16D38F
  8
0
 10
190.0
 20
-7.778174593052024
 30
-7.778174593052022
 70
   192
  0
VERTEX
  5
16D390
  8
0
 10
190.0321043607134
 20
-6.364143244385525
 30
-6.364143244385523
 70
   192
  0
VERTEX
  5
16D391
  8
0
 10
190.0
 20
-7.778174593052022
 30
7.778174593052024
 70
   192
  0
VERTEX
  5
16D392
  8
0
 10
190.0321043607134
 20
-6.364143244385523
 30
6.364143244385525
 70
   192
  0
VERTEX
  5
16D393
  8
0
 10
0.0
 20
0.0
 30
0.0
 70
   128
 71
     8
 72
     7
 73
    -4
  0
VERTEX
  5
16D394
  8
0
 10
0.0
 20
0.0
 30
0.0
 70
   128
 71
    -8
 72
     4
 73
     1
  0
VERTEX
  5
16D395
  8
0
 10
0.0
 20
0.0
 30
0.0
 70
   128
 71
     6
 72
     5
 73
    -7
  0
VERTEX
  5
16D396
  8
0
 10
0.0
 20
0.0
 30
0.0
 70
   128
 71
    -6
 72
     7
 73
     8
  0
VERTEX
  5
16D397
  8
0
 10
0.0
 20
0.0
 30
0.0
 70
   128
 71
    10
 72
     9
 73
    -5
  0
VERTEX
  5
16D398
  8
0
 10
0.0
 20
0.0
 30
0.0
 70
   128
 71
   -10
 72
     5
 73
     6
  0
VERTEX
  5
16D399
  8
0
 10
0.0
 20
0.0
 30
0.0
 70
   128
 71
     2
 72
     3
 73
    -9
  0
VERTEX
  5
16D39A
  8
0
 10
0.0
 20
0.0
 30
0.0
 70
   128
 71
    -2
 72
     9
 73
    10
  0
SEQEND
  5
16D3EB
  8
0
  0
POLYLINE
  5
16D39B
  8
0
 66
     1
 10
0.0
 20
0.0
 30
0.0
 70
    64
 71
    10
 72
     8
  0
VERTEX
  5
16D39C
  8
0
 10
0.0000000000000021
 20
0.0000000000000013
 30
11.0
 70
   192
  0
VERTEX
  5
16D39D
  8
0
 10
0.0
 20
-0.0000000000000012
 30
-11.0
 70
   192
  0
VERTEX
  5
16D39E
  8
0
 10
190.0
 20
0.0
 30
-11.0
 70
   192
  0
VERTEX
  5
16D39F
  8
0
 10
190.0
 20
0.0000000000000013
 30
11.0
 70
   192
  0
VERTEX
  5
16D3A0
  8
0
 10
190.0
 20
-11.0
 30
0.0000000000000012
 70
   192
  0
VERTEX
  5
16D3A1
  8
0
 10
0.0
 20
-11.0
 30
0.0000000000000012
 70
   192
  0
VERTEX
  5
16D3A2
  8
0
 10
190.0
 20
-7.778174593052022
 30
7.778174593052024
 70
   192
  0
VERTEX
  5
16D3A3
  8
0
 10
0.0
 20
-7.778174593052022
 30
7.778174593052024
 70
   192
  0
VERTEX
  5
16D3A4
  8
0
 10
190.0
 20
-7.778174593052024
 30
-7.778174593052022
 70
   192
  0
VERTEX
  5
16D3A5
  8
0
 10
0.0
 20
-7.778174593052024
 30
-7.778174593052022
 70
   192
  0
VERTEX
  5
16D3A6
  8
0
 10
0.0
 20
0.0
 30
0.0
 70
   128
 71
     8
 72
     7
 73
    -4
  0
VERTEX
  5
16D3A7
  8
0
 10
0.0
 20
0.0
 30
0.0
 70
   128
 71
    -8
 72
     4
 73
     1
  0
VERTEX
  5
16D3A8
  8
0
 10
0.0
 20
0.0
 30
0.0
 70
   128
 71
     6
 72
     5
 73
    -7
  0
VERTEX
  5
16D3A9
  8
0
 10
0.0
 20
0.0
 30
0.0
 70
   128
 71
    -6
 72
     7
 73
     8
  0
VERTEX
  5
16D3AA
  8
0
 10
0.0
 20
0.0
 30
0.0
 70
   128
 71
    10
 72
     9
 73
    -5
  0
VERTEX
  5
16D3AB
  8
0
 10
0.0
 20
0.0
 30
0.0
 70
   128
 71
   -10
 72
     5
 73
     6
  0
VERTEX
  5
16D3AC
  8
0
 10
0.0
 20
0.0
 30
0.0
 70
   128
 71
     2
 72
     3
 73
    -9
  0
VERTEX
  5
16D3AD
  8
0
 10
0.0
 20
0.0
 30
0.0
 70
   128
 71
    -2
 72
     9
 73
    10
  0
SEQEND
  5
16D3EC
  8
0
  0
POLYLINE
  5
16D3AE
  8
0
 66
     1
 10
0.0
 20
0.0
 30
0.0
 70
    64
 71
    16
 72
    16
  0
VERTEX
  5
16D3AF
  8
0
 10
0.0
 20
0.0
 30
-29.0
 70
   192
  0
VERTEX
  5
16D3B0
  8
0
 10
0.0
 20
20.50609665440988
 30
-20.50609665440988
 70
   192
  0
VERTEX
  5
16D3B1
  8
0
 10
0.0
 20
29.0
 30
0.0
 70
   192
  0
VERTEX
  5
16D3B2
  8
0
 10
0.0
 20
20.50609665440988
 30
20.50609665440988
 70
   192
  0
VERTEX
  5
16D3B3
  8
0
 10
0.0
 20
0.0
 30
29.0
 70
   192
  0
VERTEX
  5
16D3B4
  8
0
 10
0.0
 20
-20.50609665440987
 30
20.50609665440988
 70
   192
  0
VERTEX
  5
16D3B5
  8
0
 10
0.0
 20
-29.0
 30
0.0000000000000032
 70
   192
  0
VERTEX
  5
16D3B6
  8
0
 10
0.0
 20
-20.50609665440988
 30
-20.50609665440987
 70
   192
  0
VERTEX
  5
16D3B7
  8
0
 10
0.0
 20
0.0
 30
11.0
 70
   192
  0
VERTEX
  5
16D3B8
  8
0
 10
0.0
 20
7.778174593052024
 30
7.778174593052024
 70
   192
  0
VERTEX
  5
16D3B9
  8
0
 10
0.0
 20
11.0
 30
0.0
 70
   192
  0
VERTEX
  5
16D3BA
  8
0
 10
0.0
 20
7.778174593052023
 30
-7.778174593052023
 70
   192
  0
VERTEX
  5
16D3BB
  8
0
 10
0.0
 20
0.0
 30
-11.0
 70
   192
  0
VERTEX
  5
16D3BC
  8
0
 10
0.0
 20
-7.778174593052024
 30
-7.778174593052022
 70
   192
  0
VERTEX
  5
16D3BD
  8
0
 10
0.0
 20
-11.0
 30
0.0000000000000012
 70
   192
  0
VERTEX
  5
16D3BE
  8
0
 10
0.0
 20
-7.778174593052022
 30
7.778174593052024
 70
   192
  0
VERTEX
  5
16D3BF
  8
0
 10
0.0
 20
0.0
 30
0.0
 70
   128
 71
    -5
 72
     9
 73
   -10
  0
VERTEX
  5
16D3C0
  8
0
 10
0.0
 20
0.0
 30
0.0
 70
   128
 71
     4
 72
    -5
 73
   -10
  0
VERTEX
  5
16D3C1
  8
0
 10
0.0
 20
0.0
 30
0.0
 70
   128
 71
   -11
 72
     3
 73
    -4
  0
VERTEX
  5
16D3C2
  8
0
 10
0.0
 20
0.0
 30
0.0
 70
   128
 71
    10
 72
   -11
 73
    -4
  0
VERTEX
  5
16D3C3
  8
0
 10
0.0
 20
0.0
 30
0.0
 70
   128
 71
   -12
 72
     2
 73
    -3
  0
VERTEX
  5
16D3C4
  8
0
 10
0.0
 20
0.0
 30
0.0
 70
   128
 71
    11
 72
   -12
 73
    -3
  0
VERTEX
  5
16D3C5
  8
0
 10
0.0
 20
0.0
 30
0.0
 70
   128
 71
   -13
 72
     1
 73
    -2
  0
VERTEX
  5
16D3C6
  8
0
 10
0.0
 20
0.0
 30
0.0
 70
   128
 71
    12
 72
   -13
 73
    -2
  0
VERTEX
  5
16D3C7
  8
0
 10
0.0
 20
0.0
 30
0.0
 70
   128
 71
   -14
 72
     8
 73
    -1
  0
VERTEX
  5
16D3C8
  8
0
 10
0.0
 20
0.0
 30
0.0
 70
   128
 71
    13
 72
   -14
 73
    -1
  0
VERTEX
  5
16D3C9
  8
0
 10
0.0
 20
0.0
 30
0.0
 70
   128
 71
   -15
 72
     7
 73
    -8
  0
VERTEX
  5
16D3CA
  8
0
 10
0.0
 20
0.0
 30
0.0
 70
   128
 71
    14
 72
   -15
 73
    -8
  0
VERTEX
  5
16D3CB
  8
0
 10
0.0
 20
0.0
 30
0.0
 70
   128
 71
   -16
 72
     6
 73
    -7
  0
VERTEX
  5
16D3CC
  8
0
 10
0.0
 20
0.0
 30
0.0
 70
   128
 71
    15
 72
   -16
 73
    -7
  0
VERTEX
  5
16D3CD
  8
0
 10
0.0
 20
0.0
 30
0.0
 70
   128
 71
    -9
 72
     5
 73
    -6
  0
VERTEX
  5
16D3CE
  8
0
 10
0.0
 20
0.0
 30
0.0
 70
   128
 71
    16
 72
    -9
 73
    -6
  0
SEQEND
  5
16D3ED
  8
0
  0
POLYLINE
  5
16D3CF
  8
0
 66
     1
 10
0.0
 20
0.0
 30
0.0
 70
    64
 71
    10
 72
     8
  0
VERTEX
  5
16D3D0
  8
0
 10
-10.0
 20
0.0000000000000036
 30
29.0
 70
   192
  0
VERTEX
  5
16D3D1
  8
0
 10
-10.0
 20
-0.0000000000000032
 30
-29.0
 70
   192
  0
VERTEX
  5
16D3D2
  8
0
 10
-0.0000000000000001
 20
0.0
 30
-29.0
 70
   192
  0
VERTEX
  5
16D3D3
  8
0
 10
0.0
 20
0.0000000000000036
 30
29.0
 70
   192
  0
VERTEX
  5
16D3D4
  8
0
 10
0.0
 20
-29.0
 30
0.0000000000000032
 70
   192
  0
VERTEX
  5
16D3D5
  8
0
 10
-10.0
 20
-29.0
 30
0.0000000000000032
 70
   192
  0
VERTEX
  5
16D3D6
  8
0
 10
0.0
 20
-20.50609665440987
 30
20.50609665440988
 70
   192
  0
VERTEX
  5
16D3D7
  8
0
 10
-10.0
 20
-20.50609665440987
 30
20.50609665440988
 70
   192
  0
VERTEX
  5
16D3D8
  8
0
 10
0.0
 20
-20.50609665440988
 30
-20.50609665440987
 70
   192
  0
VERTEX
  5
16D3D9
  8
0
 10
-10.0
 20
-20.50609665440988
 30
-20.50609665440987
 70
   192
  0
VERTEX
  5
16D3DA
  8
0
 10
0.0
 20
0.0
 30
0.0
 70
   128
 71
     8
 72
     7
 73
    -4
  0
VERTEX
  5
16D3DB
  8
0
 10
0.0
 20
0.0
 30
0.0
 70
   128
 71
    -8
 72
     4
 73
     1
  0
VERTEX
  5
16D3DC
  8
0
 10
0.0
 20
0.0
 30
0.0
 70
   128
 71
     6
 72
     5
 73
    -7
  0
VERTEX
  5
16D3DD
  8
0
 10
0.0
 20
0.0
 30
0.0
 70
   128
 71
    -6
 72
     7
 73
     8
  0
VERTEX
  5
16D3DE
  8
0
 10
0.0
 20
0.0
 30
0.0
 70
   128
 71
    10
 72
     9
 73
    -5
  0
VERTEX
  5
16D3DF
  8
0
 10
0.0
 20
0.0
 30
0.0
 70
   128
 71
   -10
 72
     5
 73
     6
  0
VERTEX
  5
16D3E0
  8
0
 10
0.0
 20
0.0
 30
0.0
 70
   128
 71
     2
 72
     3
 73
    -9
  0
VERTEX
  5
16D3E1
  8
0
 10
0.0
 20
0.0
 30
0.0
 70
   128
 71
    -2
 72
     9
 73
    10
  0
SEQEND
  5
16D3EE
  8
0
  0
ENDBLK
  5
16D3E3
  8
0
  0
ENDSEC
  0
SECTION
  2
ENTITIES
  0
INSERT
  5
16D21D
  8
0
  2
*X1
 10
0.0
 20
0.0
 30
0.0
  0
ENDSEC
  0
EOF
