  0
SECTION
  2
HEADER
  9
$ACADVER
  1
AC1009
  9
$DWGCODEPAGE
  3
ansi_1250
  9
$INSBASE
 10
0.0
 20
0.0
 30
0.0
  9
$EXTMIN
 10
-30.00000000000003
 20
0.0
 30
-30.0
  9
$EXTMAX
 10
30.0
 20
60.0
 30
30.00000000000001
  9
$LIMMIN
 10
0.0
 20
0.0
  9
$LIMMAX
 10
420.0
 20
297.0
  9
$ORTHOMODE
 70
     0
  9
$REGENMODE
 70
     1
  9
$FILLMODE
 70
     1
  9
$QTEXTMODE
 70
     0
  9
$MIRRTEXT
 70
     0
  9
$DRAGMODE
 70
     2
  9
$LTSCALE
 40
1.0
  9
$OSMODE
 70
   511
  9
$ATTMODE
 70
     1
  9
$TEXTSIZE
 40
2.5
  9
$TRACEWID
 40
1.0
  9
$TEXTSTYLE
  7
STANDARD
  9
$CLAYER
  8
0
  9
$CELTYPE
  6
BYLAYER
  9
$CECOLOR
 62
   256
  9
$DIMSCALE
 40
1.0
  9
$DIMASZ
 40
2.5
  9
$DIMEXO
 40
0.625
  9
$DIMDLI
 40
3.75
  9
$DIMRND
 40
0.0
  9
$DIMDLE
 40
0.0
  9
$DIMEXE
 40
1.25
  9
$DIMTP
 40
0.0
  9
$DIMTM
 40
0.0
  9
$DIMTXT
 40
2.5
  9
$DIMCEN
 40
-2.5
  9
$DIMTSZ
 40
0.0
  9
$DIMTOL
 70
     0
  9
$DIMLIM
 70
     0
  9
$DIMTIH
 70
     0
  9
$DIMTOH
 70
     0
  9
$DIMSE1
 70
     0
  9
$DIMSE2
 70
     0
  9
$DIMTAD
 70
     1
  9
$DIMZIN
 70
     8
  9
$DIMBLK
  1

  9
$DIMASO
 70
     1
  9
$DIMSHO
 70
     1
  9
$DIMPOST
  1

  9
$DIMAPOST
  1

  9
$DIMALT
 70
     0
  9
$DIMALTD
 70
     3
  9
$DIMALTF
 40
0.03937007874016
  9
$DIMLFAC
 40
1.0
  9
$DIMTOFL
 70
     1
  9
$DIMTVP
 40
0.0
  9
$DIMTIX
 70
     0
  9
$DIMSOXD
 70
     0
  9
$DIMSAH
 70
     0
  9
$DIMBLK1
  1

  9
$DIMBLK2
  1

  9
$DIMSTYLE
  2
ISO-25
  9
$DIMCLRD
 70
     0
  9
$DIMCLRE
 70
     0
  9
$DIMCLRT
 70
     0
  9
$DIMTFAC
 40
1.0
  9
$DIMGAP
 40
0.625
  9
$LUNITS
 70
     2
  9
$LUPREC
 70
     3
  9
$SKETCHINC
 40
1.0
  9
$FILLETRAD
 40
10.0
  9
$AUNITS
 70
     0
  9
$AUPREC
 70
     0
  9
$MENU
  1
.
  9
$ELEVATION
 40
0.0
  9
$PELEVATION
 40
0.0
  9
$THICKNESS
 40
0.0
  9
$LIMCHECK
 70
     0
  9
$CHAMFERA
 40
10.0
  9
$CHAMFERB
 40
10.0
  9
$SKPOLY
 70
     0
  9
$TDCREATE
 40
2455022.720692848
  9
$TDUPDATE
 40
2460528.538835903
  9
$TDINDWG
 40
0.0739246875
  9
$TDUSRTIMER
 40
0.1484812384
  9
$USRTIMER
 70
     1
  9
$ANGBASE
 50
0.0
  9
$ANGDIR
 70
     0
  9
$PDMODE
 70
     0
  9
$PDSIZE
 40
0.0
  9
$PLINEWID
 40
0.0
  9
$COORDS
 70
     1
  9
$SPLFRAME
 70
     0
  9
$SPLINETYPE
 70
     6
  9
$SPLINESEGS
 70
     8
  9
$ATTDIA
 70
     0
  9
$ATTREQ
 70
     1
  9
$HANDLING
 70
     1
  9
$HANDSEED
  5
16D9A7
  9
$SURFTAB1
 70
     6
  9
$SURFTAB2
 70
     6
  9
$SURFTYPE
 70
     6
  9
$SURFU
 70
     6
  9
$SURFV
 70
     6
  9
$UCSNAME
  2

  9
$UCSORG
 10
0.0
 20
0.0
 30
0.0
  9
$UCSXDIR
 10
1.0
 20
0.0
 30
0.0
  9
$UCSYDIR
 10
0.0
 20
1.0
 30
0.0
  9
$PUCSNAME
  2

  9
$PUCSORG
 10
0.0
 20
0.0
 30
0.0
  9
$PUCSXDIR
 10
1.0
 20
0.0
 30
0.0
  9
$PUCSYDIR
 10
0.0
 20
1.0
 30
0.0
  9
$USERI1
 70
     0
  9
$USERI2
 70
     0
  9
$USERI3
 70
     0
  9
$USERI4
 70
     0
  9
$USERI5
 70
     0
  9
$USERR1
 40
0.0
  9
$USERR2
 40
0.0
  9
$USERR3
 40
0.0
  9
$USERR4
 40
0.0
  9
$USERR5
 40
0.0
  9
$WORLDVIEW
 70
     1
  9
$SHADEDGE
 70
     3
  9
$SHADEDIF
 70
    70
  9
$TILEMODE
 70
     1
  9
$MAXACTVP
 70
    64
  9
$PLIMCHECK
 70
     0
  9
$PEXTMIN
 10
1.000000000000000E+20
 20
1.000000000000000E+20
 30
1.000000000000000E+20
  9
$PEXTMAX
 10
-1.000000000000000E+20
 20
-1.000000000000000E+20
 30
-1.000000000000000E+20
  9
$PLIMMIN
 10
0.0
 20
0.0
  9
$PLIMMAX
 10
0.0
 20
0.0
  9
$UNITMODE
 70
     0
  9
$VISRETAIN
 70
     1
  9
$PLINEGEN
 70
     0
  9
$PSLTSCALE
 70
     1
  0
ENDSEC
  0
SECTION
  2
TABLES
  0
TABLE
  2
VPORT
 70
     1
  0
VPORT
  2
*ACTIVE
 70
     0
 10
0.0
 20
0.0
 11
1.0
 21
1.0
 12
-34.11105195009527
 22
-34.47026561377977
 13
0.0
 23
0.0
 14
10.0
 24
10.0
 15
10.0
 25
10.0
 16
0.5773502691896226
 26
0.5773502691896226
 36
0.5773502691896226
 17
5.266928548892944
 27
83.50724084353091
 37
71.60436572219457
 40
99.93918150555369
 41
1.89041095890411
 42
50.0
 43
0.0
 44
0.0
 50
0.0
 51
0.0
 71
    16
 72
  1000
 73
     1
 74
     3
 75
     0
 76
     0
 77
     0
 78
     0
  0
ENDTAB
  0
TABLE
  2
LTYPE
 70
     1
  0
LTYPE
  2
CONTINUOUS
 70
     0
  3
Solid line
 72
    65
 73
     0
 40
0.0
  0
ENDTAB
  0
TABLE
  2
LAYER
 70
     1
  0
LAYER
  2
0
 70
     0
 62
     7
  6
CONTINUOUS
  0
ENDTAB
  0
TABLE
  2
STYLE
 70
     2
  0
STYLE
  2
STANDARD
 70
     0
 40
0.0
 41
1.0
 50
0.0
 71
     0
 42
2.5
  3
arial.ttf
  4

  0
STYLE
  2
ANNOTATIVE
 70
     0
 40
0.0
 41
1.0
 50
0.0
 71
     0
 42
2.5
  3
arial.ttf
  4

  0
ENDTAB
  0
TABLE
  2
VIEW
 70
     0
  0
ENDTAB
  0
TABLE
  2
UCS
 70
     0
  0
ENDTAB
  0
TABLE
  2
APPID
 70
     2
  0
APPID
  2
ACAD
 70
     0
  0
APPID
  2
ACADANNOTATIVE
 70
     0
  0
ENDTAB
  0
TABLE
  2
DIMSTYLE
 70
     2
  0
DIMSTYLE
  2
ISO-25
 70
     0
  3

  4

  5

  6

  7

 40
1.0
 41
2.5
 42
0.625
 43
3.75
 44
1.25
 45
0.0
 46
0.0
 47
0.0
 48
0.0
140
2.5
141
-2.5
142
0.0
143
0.03937007874016
144
1.0
145
0.0
146
1.0
147
0.625
 71
     0
 72
     0
 73
     0
 74
     0
 75
     0
 76
     0
 77
     1
 78
     8
170
     0
171
     3
172
     1
173
     0
174
     0
175
     0
176
     0
177
     0
178
     0
  0
DIMSTYLE
  2
ANNOTATIVE
 70
     0
  3

  4

  5

  6

  7

 40
0.0
 41
2.5
 42
0.625
 43
3.75
 44
1.25
 45
0.0
 46
0.0
 47
0.0
 48
0.0
140
2.5
141
-2.5
142
0.0
143
0.03937007874016
144
1.0
145
0.0
146
1.0
147
0.625
 71
     0
 72
     0
 73
     0
 74
     0
 75
     0
 76
     0
 77
     1
 78
     8
170
     0
171
     3
172
     1
173
     0
174
     0
175
     0
176
     0
177
     0
178
     0
  0
ENDTAB
  0
ENDSEC
  0
SECTION
  2
BLOCKS
  0
BLOCK
  8
0
  2
$MODEL_SPACE
 70
     0
 10
0.0
 20
0.0
 30
0.0
  3
$MODEL_SPACE
  1

  0
ENDBLK
  5
21
  8
0
  0
BLOCK
 67
     1
  8
0
  2
$PAPER_SPACE
 70
     0
 10
0.0
 20
0.0
 30
0.0
  3
$PAPER_SPACE
  1

  0
ENDBLK
  5
1D
 67
     1
  8
0
  0
BLOCK
  8
0
  2
*X1
 70
     1
 10
0.0
 20
0.0
 30
0.0
  3
*X1
  1

  0
POLYLINE
  5
16D783
  8
0
 66
     1
 10
0.0
 20
0.0
 30
0.0
 70
    64
 71
    10
 72
     8
  0
VERTEX
  5
16D784
  8
0
 10
22.80000000000003
 20
35.49999999999998
 30
0.0
 70
   192
  0
VERTEX
  5
16D785
  8
0
 10
22.8
 20
53.49999999999999
 30
0.0
 70
   192
  0
VERTEX
  5
16D786
  8
0
 10
20.8
 20
53.49999999999998
 30
0.0000000000000011
 70
   192
  0
VERTEX
  5
16D787
  8
0
 10
20.80000000000003
 20
35.49999999999998
 30
0.0
 70
   192
  0
VERTEX
  5
16D788
  8
0
 10
20.80000000000001
 20
44.49999999999998
 30
9.000000000000004
 70
   192
  0
VERTEX
  5
16D789
  8
0
 10
22.80000000000001
 20
44.49999999999998
 30
9.000000000000004
 70
   192
  0
VERTEX
  5
16D78A
  8
0
 10
20.80000000000002
 20
38.13603896932105
 30
6.363961030678929
 70
   192
  0
VERTEX
  5
16D78B
  8
0
 10
22.80000000000003
 20
38.13603896932105
 30
6.363961030678929
 70
   192
  0
VERTEX
  5
16D78C
  8
0
 10
20.8
 20
50.86396103067891
 30
6.36396103067893
 70
   192
  0
VERTEX
  5
16D78D
  8
0
 10
22.8
 20
50.86396103067891
 30
6.36396103067893
 70
   192
  0
VERTEX
  5
16D78E
  8
0
 10
0.0
 20
0.0
 30
0.0
 70
   128
 71
     7
 72
     4
 73
    -1
  0
VERTEX
  5
16D78F
  8
0
 10
0.0
 20
0.0
 30
0.0
 70
   128
 71
    -7
 72
     1
 73
     8
  0
VERTEX
  5
16D790
  8
0
 10
0.0
 20
0.0
 30
0.0
 70
   128
 71
     6
 72
     5
 73
    -7
  0
VERTEX
  5
16D791
  8
0
 10
0.0
 20
0.0
 30
0.0
 70
   128
 71
    -6
 72
     7
 73
     8
  0
VERTEX
  5
16D792
  8
0
 10
0.0
 20
0.0
 30
0.0
 70
   128
 71
    10
 72
     9
 73
    -5
  0
VERTEX
  5
16D793
  8
0
 10
0.0
 20
0.0
 30
0.0
 70
   128
 71
   -10
 72
     5
 73
     6
  0
VERTEX
  5
16D794
  8
0
 10
0.0
 20
0.0
 30
0.0
 70
   128
 71
     2
 72
     3
 73
    -9
  0
VERTEX
  5
16D795
  8
0
 10
0.0
 20
0.0
 30
0.0
 70
   128
 71
    -2
 72
     9
 73
    10
  0
SEQEND
  5
16D992
  8
0
  0
POLYLINE
  5
16D796
  8
0
 66
     1
 10
0.0
 20
0.0
 30
0.0
 70
    64
 71
    10
 72
     8
  0
VERTEX
  5
16D797
  8
0
 10
28.60000000000004
 20
34.19999999999999
 30
0.0
 70
   192
  0
VERTEX
  5
16D798
  8
0
 10
28.6
 20
54.79999999999998
 30
0.0
 70
   192
  0
VERTEX
  5
16D799
  8
0
 10
22.8
 20
54.79999999999998
 30
0.0000000000000013
 70
   192
  0
VERTEX
  5
16D79A
  8
0
 10
22.80000000000004
 20
34.19999999999997
 30
0.0
 70
   192
  0
VERTEX
  5
16D79B
  8
0
 10
22.80000000000002
 20
44.49999999999998
 30
10.30000000000001
 70
   192
  0
VERTEX
  5
16D79C
  8
0
 10
28.60000000000002
 20
44.49999999999999
 30
10.29999999999999
 70
   192
  0
VERTEX
  5
16D79D
  8
0
 10
22.80000000000003
 20
37.21680015377853
 30
7.283199846221448
 70
   192
  0
VERTEX
  5
16D79E
  8
0
 10
28.60000000000003
 20
37.21680015377856
 30
7.283199846221433
 70
   192
  0
VERTEX
  5
16D79F
  8
0
 10
22.80000000000001
 20
51.78319984622143
 30
7.283199846221449
 70
   192
  0
VERTEX
  5
16D7A0
  8
0
 10
28.60000000000001
 20
51.78319984622143
 30
7.283199846221434
 70
   192
  0
VERTEX
  5
16D7A1
  8
0
 10
0.0
 20
0.0
 30
0.0
 70
   128
 71
     7
 72
     4
 73
    -1
  0
VERTEX
  5
16D7A2
  8
0
 10
0.0
 20
0.0
 30
0.0
 70
   128
 71
    -7
 72
     1
 73
     8
  0
VERTEX
  5
16D7A3
  8
0
 10
0.0
 20
0.0
 30
0.0
 70
   128
 71
     6
 72
     5
 73
    -7
  0
VERTEX
  5
16D7A4
  8
0
 10
0.0
 20
0.0
 30
0.0
 70
   128
 71
    -6
 72
     7
 73
     8
  0
VERTEX
  5
16D7A5
  8
0
 10
0.0
 20
0.0
 30
0.0
 70
   128
 71
    10
 72
     9
 73
    -5
  0
VERTEX
  5
16D7A6
  8
0
 10
0.0
 20
0.0
 30
0.0
 70
   128
 71
   -10
 72
     5
 73
     6
  0
VERTEX
  5
16D7A7
  8
0
 10
0.0
 20
0.0
 30
0.0
 70
   128
 71
     2
 72
     3
 73
    -9
  0
VERTEX
  5
16D7A8
  8
0
 10
0.0
 20
0.0
 30
0.0
 70
   128
 71
    -2
 72
     9
 73
    10
  0
SEQEND
  5
16D993
  8
0
  0
POLYLINE
  5
16D7A9
  8
0
 66
     1
 10
0.0
 20
0.0
 30
0.0
 70
    64
 71
    10
 72
     8
  0
VERTEX
  5
16D7AA
  8
0
 10
29.80000000000002
 20
35.39999999999999
 30
0.0
 70
   192
  0
VERTEX
  5
16D7AB
  8
0
 10
29.8
 20
53.59999999999999
 30
0.0
 70
   192
  0
VERTEX
  5
16D7AC
  8
0
 10
28.6
 20
54.79999999999998
 30
0.0000000000000013
 70
   192
  0
VERTEX
  5
16D7AD
  8
0
 10
28.60000000000004
 20
34.2
 30
0.0
 70
   192
  0
VERTEX
  5
16D7AE
  8
0
 10
28.60000000000002
 20
44.49999999999999
 30
10.29999999999999
 70
   192
  0
VERTEX
  5
16D7AF
  8
0
 10
29.80000000000001
 20
44.49999999999999
 30
9.1
 70
   192
  0
VERTEX
  5
16D7B0
  8
0
 10
28.60000000000003
 20
37.21680015377856
 30
7.283199846221433
 70
   192
  0
VERTEX
  5
16D7B1
  8
0
 10
29.80000000000002
 20
38.06532829120241
 30
6.434671708797581
 70
   192
  0
VERTEX
  5
16D7B2
  8
0
 10
28.60000000000001
 20
51.78319984622143
 30
7.283199846221434
 70
   192
  0
VERTEX
  5
16D7B3
  8
0
 10
29.8
 20
50.93467170879757
 30
6.434671708797582
 70
   192
  0
VERTEX
  5
16D7B4
  8
0
 10
0.0
 20
0.0
 30
0.0
 70
   128
 71
     7
 72
     4
 73
    -1
  0
VERTEX
  5
16D7B5
  8
0
 10
0.0
 20
0.0
 30
0.0
 70
   128
 71
    -7
 72
     1
 73
     8
  0
VERTEX
  5
16D7B6
  8
0
 10
0.0
 20
0.0
 30
0.0
 70
   128
 71
     6
 72
     5
 73
    -7
  0
VERTEX
  5
16D7B7
  8
0
 10
0.0
 20
0.0
 30
0.0
 70
   128
 71
    -6
 72
     7
 73
     8
  0
VERTEX
  5
16D7B8
  8
0
 10
0.0
 20
0.0
 30
0.0
 70
   128
 71
    10
 72
     9
 73
    -5
  0
VERTEX
  5
16D7B9
  8
0
 10
0.0
 20
0.0
 30
0.0
 70
   128
 71
   -10
 72
     5
 73
     6
  0
VERTEX
  5
16D7BA
  8
0
 10
0.0
 20
0.0
 30
0.0
 70
   128
 71
     2
 72
     3
 73
    -9
  0
VERTEX
  5
16D7BB
  8
0
 10
0.0
 20
0.0
 30
0.0
 70
   128
 71
    -2
 72
     9
 73
    10
  0
SEQEND
  5
16D994
  8
0
  0
POLYLINE
  5
16D7BC
  8
0
 66
     1
 10
0.0
 20
0.0
 30
0.0
 70
    64
 71
    10
 72
     8
  0
VERTEX
  5
16D7BD
  8
0
 10
12.33165392220272
 20
52.57958467106927
 30
8.183539059784719
 70
   192
  0
VERTEX
  5
16D7BE
  8
0
 10
20.80000000000002
 20
44.49999999999998
 30
11.50000000000003
 70
   192
  0
VERTEX
  5
16D7BF
  8
0
 10
20.80000000000001
 20
52.6317279836453
 30
8.13172798364532
 70
   192
  0
VERTEX
  5
16D7C0
  8
0
 10
14.8
 20
32.99999999999994
 30
0.0000000000000018
 70
   192
  0
VERTEX
  5
16D7C1
  8
0
 10
20.80000000000004
 20
32.99999999999996
 30
0.0
 70
   192
  0
VERTEX
  5
16D7C2
  8
0
 10
20.80000000000003
 20
36.36827201635466
 30
8.131727983645318
 70
   192
  0
VERTEX
  5
16D7C3
  8
0
 10
12.32771677228241
 20
36.42642577183974
 30
8.189468797326665
 70
   192
  0
VERTEX
  5
16D7C4
  8
0
 10
9.316114906015343
 20
44.5000215246903
 30
11.49999994097977
 70
   192
  0
VERTEX
  5
16D7C5
  8
0
 10
20.8
 20
56.00000000000001
 30
0.0
 70
   192
  0
VERTEX
  5
16D7C6
  8
0
 10
14.80000000000001
 20
55.99999999999998
 30
0.0000000000000014
 70
   192
  0
VERTEX
  5
16D7C7
  8
0
 10
0.0
 20
0.0
 30
0.0
 70
   128
 71
     1
 72
     2
 73
     3
  0
VERTEX
  5
16D7C8
  8
0
 10
0.0
 20
0.0
 30
0.0
 70
   128
 71
     4
 72
     5
 73
     6
  0
VERTEX
  5
16D7C9
  8
0
 10
0.0
 20
0.0
 30
0.0
 70
   128
 71
     4
 72
     6
 73
     7
  0
VERTEX
  5
16D7CA
  8
0
 10
0.0
 20
0.0
 30
0.0
 70
   128
 71
     7
 72
     6
 73
     2
  0
VERTEX
  5
16D7CB
  8
0
 10
0.0
 20
0.0
 30
0.0
 70
   128
 71
     7
 72
     2
 73
     1
  0
VERTEX
  5
16D7CC
  8
0
 10
0.0
 20
0.0
 30
0.0
 70
   128
 71
     7
 72
     1
 73
     8
  0
VERTEX
  5
16D7CD
  8
0
 10
0.0
 20
0.0
 30
0.0
 70
   128
 71
     1
 72
     3
 73
     9
  0
VERTEX
  5
16D7CE
  8
0
 10
0.0
 20
0.0
 30
0.0
 70
   128
 71
     1
 72
     9
 73
    10
  0
SEQEND
  5
16D995
  8
0
  0
POLYLINE
  5
16D7CF
  8
0
 66
     1
 10
0.0
 20
0.0
 30
0.0
 70
    64
 71
    18
 72
    18
  0
VERTEX
  5
16D7D0
  8
0
 10
9.31611528982576
 20
44.5025403885493
 30
-11.49999966657591
 70
   192
  0
VERTEX
  5
16D7D1
  8
0
 10
10.4651803615609
 20
10.0
 30
-10.46518036156091
 70
   192
  0
VERTEX
  5
16D7D2
  8
0
 10
-0.0000000000000016
 20
10.0
 30
-14.8
 70
   192
  0
VERTEX
  5
16D7D3
  8
0
 10
0.0
 20
60.00000000000001
 30
-14.8
 70
   192
  0
VERTEX
  5
16D7D4
  8
0
 10
12.32836062013886
 20
36.42544270066826
 30
-8.188499521878803
 70
   192
  0
VERTEX
  5
16D7D5
  8
0
 10
14.8
 20
32.99999999999994
 30
0.0000000000000018
 70
   192
  0
VERTEX
  5
16D7D6
  8
0
 10
14.8
 20
10.0
 30
-0.0000000000000016
 70
   192
  0
VERTEX
  5
16D7D7
  8
0
 10
10.4651803615609
 20
60.00000000000001
 30
-10.46518036156091
 70
   192
  0
VERTEX
  5
16D7D8
  8
0
 10
14.8
 20
60.00000000000001
 30
-0.0000000000000016
 70
   192
  0
VERTEX
  5
16D7D9
  8
0
 10
14.80000000000001
 20
55.99999999999999
 30
0.0000000000000009
 70
   192
  0
VERTEX
  5
16D7DA
  8
0
 10
12.32665719266216
 20
52.57195624030567
 30
-8.191063572857322
 70
   192
  0
VERTEX
  5
16D7DB
  8
0
 10
10.46518036156091
 20
10.0
 30
10.4651803615609
 70
   192
  0
VERTEX
  5
16D7DC
  8
0
 10
12.32771677228241
 20
36.42642577183974
 30
8.189468797326665
 70
   192
  0
VERTEX
  5
16D7DD
  8
0
 10
12.33165392220272
 20
52.57958467106927
 30
8.183539059784719
 70
   192
  0
VERTEX
  5
16D7DE
  8
0
 10
10.46518036156091
 20
60.00000000000001
 30
10.4651803615609
 70
   192
  0
VERTEX
  5
16D7DF
  8
0
 10
9.316114906015343
 20
44.5000215246903
 30
11.49999994097977
 70
   192
  0
VERTEX
  5
16D7E0
  8
0
 10
0.0000000000000018
 20
60.00000000000001
 30
14.8
 70
   192
  0
VERTEX
  5
16D7E1
  8
0
 10
0.0000000000000018
 20
10.0
 30
14.8
 70
   192
  0
VERTEX
  5
16D7E2
  8
0
 10
0.0
 20
0.0
 30
0.0
 70
   128
 71
     1
 72
     2
 73
     3
  0
VERTEX
  5
16D7E3
  8
0
 10
0.0
 20
0.0
 30
0.0
 70
   128
 71
     3
 72
     4
 73
     1
  0
VERTEX
  5
16D7E4
  8
0
 10
0.0
 20
0.0
 30
0.0
 70
   128
 71
     5
 72
     6
 73
     7
  0
VERTEX
  5
16D7E5
  8
0
 10
0.0
 20
0.0
 30
0.0
 70
   128
 71
     5
 72
     7
 73
     2
  0
VERTEX
  5
16D7E6
  8
0
 10
0.0
 20
0.0
 30
0.0
 70
   128
 71
     8
 72
     9
 73
    10
  0
VERTEX
  5
16D7E7
  8
0
 10
0.0
 20
0.0
 30
0.0
 70
   128
 71
     8
 72
    10
 73
    11
  0
VERTEX
  5
16D7E8
  8
0
 10
0.0
 20
0.0
 30
0.0
 70
   128
 71
    12
 72
     7
 73
     6
  0
VERTEX
  5
16D7E9
  8
0
 10
0.0
 20
0.0
 30
0.0
 70
   128
 71
    12
 72
     6
 73
    13
  0
VERTEX
  5
16D7EA
  8
0
 10
0.0
 20
0.0
 30
0.0
 70
   128
 71
    14
 72
    10
 73
     9
  0
VERTEX
  5
16D7EB
  8
0
 10
0.0
 20
0.0
 30
0.0
 70
   128
 71
    14
 72
     9
 73
    15
  0
VERTEX
  5
16D7EC
  8
0
 10
0.0
 20
0.0
 30
0.0
 70
   128
 71
    16
 72
    15
 73
    17
  0
VERTEX
  5
16D7ED
  8
0
 10
0.0
 20
0.0
 30
0.0
 70
   128
 71
    16
 72
    17
 73
    18
  0
VERTEX
  5
16D7EE
  8
0
 10
0.0
 20
0.0
 30
0.0
 70
   128
 71
     1
 72
     5
 73
     2
  0
VERTEX
  5
16D7EF
  8
0
 10
0.0
 20
0.0
 30
0.0
 70
   128
 71
     1
 72
     4
 73
     8
  0
VERTEX
  5
16D7F0
  8
0
 10
0.0
 20
0.0
 30
0.0
 70
   128
 71
     1
 72
     8
 73
    11
  0
VERTEX
  5
16D7F1
  8
0
 10
0.0
 20
0.0
 30
0.0
 70
   128
 71
    13
 72
    16
 73
    18
  0
VERTEX
  5
16D7F2
  8
0
 10
0.0
 20
0.0
 30
0.0
 70
   128
 71
    13
 72
    18
 73
    12
  0
VERTEX
  5
16D7F3
  8
0
 10
0.0
 20
0.0
 30
0.0
 70
   128
 71
    14
 72
    15
 73
    16
  0
SEQEND
  5
16D996
  8
0
  0
POLYLINE
  5
16D7F4
  8
0
 66
     1
 10
0.0
 20
0.0
 30
0.0
 70
    64
 71
    14
 72
    12
  0
VERTEX
  5
16D7F5
  8
0
 10
-0.0000000000000214
 20
9.700000000000001
 30
29.7
 70
   192
  0
VERTEX
  5
16D7F6
  8
0
 10
0.0000000000000036
 20
0.0
 30
29.7
 70
   192
  0
VERTEX
  5
16D7F7
  8
0
 10
-14.85000000000002
 20
0.0
 30
25.72095449239782
 70
   192
  0
VERTEX
  5
16D7F8
  8
0
 10
-14.85000000000002
 20
9.700000000000001
 30
25.72095449239782
 70
   192
  0
VERTEX
  5
16D7F9
  8
0
 10
-29.7
 20
0.0
 30
-0.0000000000000115
 70
   192
  0
VERTEX
  5
16D7FA
  8
0
 10
-29.7
 20
9.700000000000001
 30
-0.0000000000000115
 70
   192
  0
VERTEX
  5
16D7FB
  8
0
 10
-25.72095449239784
 20
9.700000000000001
 30
14.84999999999999
 70
   192
  0
VERTEX
  5
16D7FC
  8
0
 10
-25.72095449239784
 20
0.0
 30
14.84999999999999
 70
   192
  0
VERTEX
  5
16D7FD
  8
0
 10
-25.72095449239783
 20
0.0
 30
-14.85000000000001
 70
   192
  0
VERTEX
  5
16D7FE
  8
0
 10
-25.72095449239783
 20
9.700000000000001
 30
-14.85000000000001
 70
   192
  0
VERTEX
  5
16D7FF
  8
0
 10
0.0000000000000036
 20
0.0
 30
-29.7
 70
   192
  0
VERTEX
  5
16D800
  8
0
 10
0.0000000000000036
 20
9.700000000000001
 30
-29.7
 70
   192
  0
VERTEX
  5
16D801
  8
0
 10
-14.84999999999999
 20
9.700000000000001
 30
-25.72095449239783
 70
   192
  0
VERTEX
  5
16D802
  8
0
 10
-14.84999999999999
 20
0.0
 30
-25.72095449239783
 70
   192
  0
VERTEX
  5
16D803
  8
0
 10
0.0
 20
0.0
 30
0.0
 70
   128
 71
     1
 72
     2
 73
    -3
  0
VERTEX
  5
16D804
  8
0
 10
0.0
 20
0.0
 30
0.0
 70
   128
 71
     4
 72
    -1
 73
     3
  0
VERTEX
  5
16D805
  8
0
 10
0.0
 20
0.0
 30
0.0
 70
   128
 71
     5
 72
     6
 73
    -7
  0
VERTEX
  5
16D806
  8
0
 10
0.0
 20
0.0
 30
0.0
 70
   128
 71
     8
 72
    -5
 73
     7
  0
VERTEX
  5
16D807
  8
0
 10
0.0
 20
0.0
 30
0.0
 70
   128
 71
     6
 72
     5
 73
    -9
  0
VERTEX
  5
16D808
  8
0
 10
0.0
 20
0.0
 30
0.0
 70
   128
 71
    10
 72
    -6
 73
     9
  0
VERTEX
  5
16D809
  8
0
 10
0.0
 20
0.0
 30
0.0
 70
   128
 71
    11
 72
    12
 73
   -13
  0
VERTEX
  5
16D80A
  8
0
 10
0.0
 20
0.0
 30
0.0
 70
   128
 71
    14
 72
   -11
 73
    13
  0
VERTEX
  5
16D80B
  8
0
 10
0.0
 20
0.0
 30
0.0
 70
   128
 71
     7
 72
     4
 73
    -3
  0
VERTEX
  5
16D80C
  8
0
 10
0.0
 20
0.0
 30
0.0
 70
   128
 71
     8
 72
    -7
 73
     3
  0
VERTEX
  5
16D80D
  8
0
 10
0.0
 20
0.0
 30
0.0
 70
   128
 71
    13
 72
    10
 73
    -9
  0
VERTEX
  5
16D80E
  8
0
 10
0.0
 20
0.0
 30
0.0
 70
   128
 71
    14
 72
   -13
 73
     9
  0
SEQEND
  5
16D997
  8
0
  0
POLYLINE
  5
16D80F
  8
0
 66
     1
 10
0.0
 20
0.0
 30
0.0
 70
    64
 71
    14
 72
    12
  0
VERTEX
  5
16D810
  8
0
 10
15.00000000000001
 20
0.0
 30
-25.98076211353315
 70
   192
  0
VERTEX
  5
16D811
  8
0
 10
0.00000000000001
 20
0.0
 30
-30.0
 70
   192
  0
VERTEX
  5
16D812
  8
0
 10
0.0
 20
10.0
 30
-30.0
 70
   192
  0
VERTEX
  5
16D813
  8
0
 10
15.00000000000001
 20
10.0
 30
-25.98076211353315
 70
   192
  0
VERTEX
  5
16D814
  8
0
 10
25.98076211353316
 20
10.0
 30
-14.99999999999999
 70
   192
  0
VERTEX
  5
16D815
  8
0
 10
30.0
 20
10.0
 30
0.0000000000000033
 70
   192
  0
VERTEX
  5
16D816
  8
0
 10
30.0
 20
0.0
 30
0.0000000000000033
 70
   192
  0
VERTEX
  5
16D817
  8
0
 10
25.98076211353316
 20
0.0
 30
-14.99999999999999
 70
   192
  0
VERTEX
  5
16D818
  8
0
 10
25.98076211353316
 20
0.0
 30
15.0
 70
   192
  0
VERTEX
  5
16D819
  8
0
 10
25.98076211353316
 20
10.0
 30
15.0
 70
   192
  0
VERTEX
  5
16D81A
  8
0
 10
15.0
 20
10.0
 30
25.98076211353316
 70
   192
  0
VERTEX
  5
16D81B
  8
0
 10
0.0000000000000037
 20
10.0
 30
30.0
 70
   192
  0
VERTEX
  5
16D81C
  8
0
 10
0.0000000000000037
 20
0.0
 30
30.0
 70
   192
  0
VERTEX
  5
16D81D
  8
0
 10
15.0
 20
0.0
 30
25.98076211353316
 70
   192
  0
VERTEX
  5
16D81E
  8
0
 10
0.0
 20
0.0
 30
0.0
 70
   128
 71
     1
 72
     2
 73
    -3
  0
VERTEX
  5
16D81F
  8
0
 10
0.0
 20
0.0
 30
0.0
 70
   128
 71
    -1
 72
     3
 73
     4
  0
VERTEX
  5
16D820
  8
0
 10
0.0
 20
0.0
 30
0.0
 70
   128
 71
     5
 72
     6
 73
    -7
  0
VERTEX
  5
16D821
  8
0
 10
0.0
 20
0.0
 30
0.0
 70
   128
 71
    -5
 72
     7
 73
     8
  0
VERTEX
  5
16D822
  8
0
 10
0.0
 20
0.0
 30
0.0
 70
   128
 71
     9
 72
     7
 73
    -6
  0
VERTEX
  5
16D823
  8
0
 10
0.0
 20
0.0
 30
0.0
 70
   128
 71
    -9
 72
     6
 73
    10
  0
VERTEX
  5
16D824
  8
0
 10
0.0
 20
0.0
 30
0.0
 70
   128
 71
    11
 72
    12
 73
   -13
  0
VERTEX
  5
16D825
  8
0
 10
0.0
 20
0.0
 30
0.0
 70
   128
 71
   -11
 72
    13
 73
    14
  0
VERTEX
  5
16D826
  8
0
 10
0.0
 20
0.0
 30
0.0
 70
   128
 71
     1
 72
     4
 73
    -5
  0
VERTEX
  5
16D827
  8
0
 10
0.0
 20
0.0
 30
0.0
 70
   128
 71
    -1
 72
     5
 73
     8
  0
VERTEX
  5
16D828
  8
0
 10
0.0
 20
0.0
 30
0.0
 70
   128
 71
     9
 72
    10
 73
   -11
  0
VERTEX
  5
16D829
  8
0
 10
0.0
 20
0.0
 30
0.0
 70
   128
 71
    -9
 72
    11
 73
    14
  0
SEQEND
  5
16D998
  8
0
  0
POLYLINE
  5
16D82A
  8
0
 66
     1
 10
0.0
 20
0.0
 30
0.0
 70
    64
 71
    14
 72
    12
  0
VERTEX
  5
16D82B
  8
0
 10
-15.00000000000002
 20
0.0
 30
25.98076211353315
 70
   192
  0
VERTEX
  5
16D82C
  8
0
 10
-0.0000000000000216
 20
0.0
 30
30.0
 70
   192
  0
VERTEX
  5
16D82D
  8
0
 10
0.0000000000000037
 20
10.0
 30
30.0
 70
   192
  0
VERTEX
  5
16D82E
  8
0
 10
-15.00000000000002
 20
10.0
 30
25.98076211353315
 70
   192
  0
VERTEX
  5
16D82F
  8
0
 10
-25.98076211353317
 20
10.0
 30
14.99999999999999
 70
   192
  0
VERTEX
  5
16D830
  8
0
 10
-30.0
 20
10.0
 30
-0.0000000000000117
 70
   192
  0
VERTEX
  5
16D831
  8
0
 10
-30.0
 20
0.0
 30
-0.0000000000000117
 70
   192
  0
VERTEX
  5
16D832
  8
0
 10
-25.98076211353317
 20
0.0
 30
14.99999999999999
 70
   192
  0
VERTEX
  5
16D833
  8
0
 10
-25.98076211353316
 20
0.0
 30
-15.00000000000001
 70
   192
  0
VERTEX
  5
16D834
  8
0
 10
-25.98076211353316
 20
10.0
 30
-15.00000000000001
 70
   192
  0
VERTEX
  5
16D835
  8
0
 10
-14.99999999999999
 20
10.0
 30
-25.98076211353316
 70
   192
  0
VERTEX
  5
16D836
  8
0
 10
0.0000000000000037
 20
10.0
 30
-30.0
 70
   192
  0
VERTEX
  5
16D837
  8
0
 10
0.0
 20
0.0
 30
-30.0
 70
   192
  0
VERTEX
  5
16D838
  8
0
 10
-14.99999999999999
 20
0.0
 30
-25.98076211353316
 70
   192
  0
VERTEX
  5
16D839
  8
0
 10
0.0
 20
0.0
 30
0.0
 70
   128
 71
     1
 72
     2
 73
    -3
  0
VERTEX
  5
16D83A
  8
0
 10
0.0
 20
0.0
 30
0.0
 70
   128
 71
    -1
 72
     3
 73
     4
  0
VERTEX
  5
16D83B
  8
0
 10
0.0
 20
0.0
 30
0.0
 70
   128
 71
     5
 72
     6
 73
    -7
  0
VERTEX
  5
16D83C
  8
0
 10
0.0
 20
0.0
 30
0.0
 70
   128
 71
    -5
 72
     7
 73
     8
  0
VERTEX
  5
16D83D
  8
0
 10
0.0
 20
0.0
 30
0.0
 70
   128
 71
     9
 72
     7
 73
    -6
  0
VERTEX
  5
16D83E
  8
0
 10
0.0
 20
0.0
 30
0.0
 70
   128
 71
    -9
 72
     6
 73
    10
  0
VERTEX
  5
16D83F
  8
0
 10
0.0
 20
0.0
 30
0.0
 70
   128
 71
    11
 72
    12
 73
   -13
  0
VERTEX
  5
16D840
  8
0
 10
0.0
 20
0.0
 30
0.0
 70
   128
 71
   -11
 72
    13
 73
    14
  0
VERTEX
  5
16D841
  8
0
 10
0.0
 20
0.0
 30
0.0
 70
   128
 71
     1
 72
     4
 73
    -5
  0
VERTEX
  5
16D842
  8
0
 10
0.0
 20
0.0
 30
0.0
 70
   128
 71
    -1
 72
     5
 73
     8
  0
VERTEX
  5
16D843
  8
0
 10
0.0
 20
0.0
 30
0.0
 70
   128
 71
     9
 72
    10
 73
   -11
  0
VERTEX
  5
16D844
  8
0
 10
0.0
 20
0.0
 30
0.0
 70
   128
 71
    -9
 72
    11
 73
    14
  0
SEQEND
  5
16D999
  8
0
  0
POLYLINE
  5
16D845
  8
0
 66
     1
 10
0.0
 20
0.0
 30
0.0
 70
    64
 71
    20
 72
    20
  0
VERTEX
  5
16D846
  8
0
 10
0.0000000000000037
 20
10.0
 30
-30.0
 70
   192
  0
VERTEX
  5
16D847
  8
0
 10
-14.99999999999999
 20
10.0
 30
-25.98076211353316
 70
   192
  0
VERTEX
  5
16D848
  8
0
 10
-25.98076211353316
 20
10.0
 30
-15.00000000000001
 70
   192
  0
VERTEX
  5
16D849
  8
0
 10
-30.0
 20
10.0
 30
-0.0000000000000117
 70
   192
  0
VERTEX
  5
16D84A
  8
0
 10
-25.98076211353317
 20
10.0
 30
14.99999999999999
 70
   192
  0
VERTEX
  5
16D84B
  8
0
 10
-15.00000000000002
 20
10.0
 30
25.98076211353315
 70
   192
  0
VERTEX
  5
16D84C
  8
0
 10
-0.0000000000000216
 20
10.0
 30
30.0
 70
   192
  0
VERTEX
  5
16D84D
  8
0
 10
15.0
 20
10.0
 30
25.98076211353316
 70
   192
  0
VERTEX
  5
16D84E
  8
0
 10
25.98076211353316
 20
10.0
 30
15.0
 70
   192
  0
VERTEX
  5
16D84F
  8
0
 10
30.0
 20
10.0
 30
0.0000000000000033
 70
   192
  0
VERTEX
  5
16D850
  8
0
 10
25.98076211353316
 20
10.0
 30
-14.99999999999999
 70
   192
  0
VERTEX
  5
16D851
  8
0
 10
15.00000000000001
 20
10.0
 30
-25.98076211353315
 70
   192
  0
VERTEX
  5
16D852
  8
0
 10
-0.0000000000000016
 20
10.0
 30
14.8
 70
   192
  0
VERTEX
  5
16D853
  8
0
 10
-10.46518036156091
 20
10.0
 30
10.4651803615609
 70
   192
  0
VERTEX
  5
16D854
  8
0
 10
-14.8
 20
10.0
 30
-0.0000000000000016
 70
   192
  0
VERTEX
  5
16D855
  8
0
 10
-10.4651803615609
 20
10.0
 30
-10.46518036156091
 70
   192
  0
VERTEX
  5
16D856
  8
0
 10
0.0000000000000018
 20
10.0
 30
-14.8
 70
   192
  0
VERTEX
  5
16D857
  8
0
 10
10.4651803615609
 20
10.0
 30
-10.46518036156091
 70
   192
  0
VERTEX
  5
16D858
  8
0
 10
14.8
 20
10.0
 30
-0.0000000000000016
 70
   192
  0
VERTEX
  5
16D859
  8
0
 10
10.46518036156091
 20
10.0
 30
10.4651803615609
 70
   192
  0
VERTEX
  5
16D85A
  8
0
 10
0.0
 20
0.0
 30
0.0
 70
   128
 71
    -7
 72
    13
 73
   -14
  0
VERTEX
  5
16D85B
  8
0
 10
0.0
 20
0.0
 30
0.0
 70
   128
 71
     6
 72
    -7
 73
   -14
  0
VERTEX
  5
16D85C
  8
0
 10
0.0
 20
0.0
 30
0.0
 70
   128
 71
     4
 72
     5
 73
    -6
  0
VERTEX
  5
16D85D
  8
0
 10
0.0
 20
0.0
 30
0.0
 70
   128
 71
   -15
 72
    -4
 73
    -6
  0
VERTEX
  5
16D85E
  8
0
 10
0.0
 20
0.0
 30
0.0
 70
   128
 71
    14
 72
   -15
 73
    -6
  0
VERTEX
  5
16D85F
  8
0
 10
0.0
 20
0.0
 30
0.0
 70
   128
 71
     2
 72
     3
 73
    -4
  0
VERTEX
  5
16D860
  8
0
 10
0.0
 20
0.0
 30
0.0
 70
   128
 71
   -16
 72
    -2
 73
    -4
  0
VERTEX
  5
16D861
  8
0
 10
0.0
 20
0.0
 30
0.0
 70
   128
 71
    15
 72
   -16
 73
    -4
  0
VERTEX
  5
16D862
  8
0
 10
0.0
 20
0.0
 30
0.0
 70
   128
 71
   -17
 72
     1
 73
    -2
  0
VERTEX
  5
16D863
  8
0
 10
0.0
 20
0.0
 30
0.0
 70
   128
 71
    16
 72
   -17
 73
    -2
  0
VERTEX
  5
16D864
  8
0
 10
0.0
 20
0.0
 30
0.0
 70
   128
 71
   -18
 72
    12
 73
    -1
  0
VERTEX
  5
16D865
  8
0
 10
0.0
 20
0.0
 30
0.0
 70
   128
 71
    17
 72
   -18
 73
    -1
  0
VERTEX
  5
16D866
  8
0
 10
0.0
 20
0.0
 30
0.0
 70
   128
 71
    10
 72
    11
 73
   -12
  0
VERTEX
  5
16D867
  8
0
 10
0.0
 20
0.0
 30
0.0
 70
   128
 71
   -19
 72
   -10
 73
   -12
  0
VERTEX
  5
16D868
  8
0
 10
0.0
 20
0.0
 30
0.0
 70
   128
 71
    18
 72
   -19
 73
   -12
  0
VERTEX
  5
16D869
  8
0
 10
0.0
 20
0.0
 30
0.0
 70
   128
 71
   -20
 72
     9
 73
   -10
  0
VERTEX
  5
16D86A
  8
0
 10
0.0
 20
0.0
 30
0.0
 70
   128
 71
    19
 72
   -20
 73
   -10
  0
VERTEX
  5
16D86B
  8
0
 10
0.0
 20
0.0
 30
0.0
 70
   128
 71
     7
 72
     8
 73
    -9
  0
VERTEX
  5
16D86C
  8
0
 10
0.0
 20
0.0
 30
0.0
 70
   128
 71
   -13
 72
    -7
 73
    -9
  0
VERTEX
  5
16D86D
  8
0
 10
0.0
 20
0.0
 30
0.0
 70
   128
 71
    20
 72
   -13
 73
    -9
  0
SEQEND
  5
16D99A
  8
0
  0
POLYLINE
  5
16D86E
  8
0
 66
     1
 10
0.0
 20
0.0
 30
0.0
 70
    64
 71
    24
 72
    24
  0
VERTEX
  5
16D86F
  8
0
 10
0.0000000000000037
 20
0.0
 30
30.0
 70
   192
  0
VERTEX
  5
16D870
  8
0
 10
15.0
 20
0.0
 30
25.98076211353316
 70
   192
  0
VERTEX
  5
16D871
  8
0
 10
25.98076211353316
 20
0.0
 30
15.0
 70
   192
  0
VERTEX
  5
16D872
  8
0
 10
30.0
 20
0.0
 30
0.0000000000000033
 70
   192
  0
VERTEX
  5
16D873
  8
0
 10
25.98076211353316
 20
0.0
 30
-14.99999999999999
 70
   192
  0
VERTEX
  5
16D874
  8
0
 10
15.00000000000001
 20
0.0
 30
-25.98076211353315
 70
   192
  0
VERTEX
  5
16D875
  8
0
 10
0.0000000000000037
 20
0.0
 30
-30.0
 70
   192
  0
VERTEX
  5
16D876
  8
0
 10
-14.99999999999999
 20
0.0
 30
-25.98076211353316
 70
   192
  0
VERTEX
  5
16D877
  8
0
 10
-25.98076211353316
 20
0.0
 30
-15.00000000000001
 70
   192
  0
VERTEX
  5
16D878
  8
0
 10
-30.0
 20
0.0
 30
-0.0000000000000117
 70
   192
  0
VERTEX
  5
16D879
  8
0
 10
-25.98076211353317
 20
0.0
 30
14.99999999999999
 70
   192
  0
VERTEX
  5
16D87A
  8
0
 10
-15.00000000000002
 20
0.0
 30
25.98076211353315
 70
   192
  0
VERTEX
  5
16D87B
  8
0
 10
0.0000000000000165
 20
0.0
 30
-29.7
 70
   192
  0
VERTEX
  5
16D87C
  8
0
 10
14.85000000000001
 20
0.0
 30
-25.72095449239782
 70
   192
  0
VERTEX
  5
16D87D
  8
0
 10
25.72095449239783
 20
0.0
 30
-14.84999999999999
 70
   192
  0
VERTEX
  5
16D87E
  8
0
 10
29.7
 20
0.0
 30
0.0000000000000082
 70
   192
  0
VERTEX
  5
16D87F
  8
0
 10
25.72095449239783
 20
0.0
 30
14.85000000000001
 70
   192
  0
VERTEX
  5
16D880
  8
0
 10
14.85
 20
0.0
 30
25.72095449239783
 70
   192
  0
VERTEX
  5
16D881
  8
0
 10
-0.0000000000000214
 20
0.0
 30
29.7
 70
   192
  0
VERTEX
  5
16D882
  8
0
 10
-14.85000000000002
 20
0.0
 30
25.72095449239782
 70
   192
  0
VERTEX
  5
16D883
  8
0
 10
-25.72095449239784
 20
0.0
 30
14.84999999999999
 70
   192
  0
VERTEX
  5
16D884
  8
0
 10
-29.7
 20
0.0
 30
-0.0000000000000115
 70
   192
  0
VERTEX
  5
16D885
  8
0
 10
-25.72095449239783
 20
0.0
 30
-14.85000000000001
 70
   192
  0
VERTEX
  5
16D886
  8
0
 10
-14.84999999999999
 20
0.0
 30
-25.72095449239783
 70
   192
  0
VERTEX
  5
16D887
  8
0
 10
0.0
 20
0.0
 30
0.0
 70
   128
 71
    14
 72
   -13
 73
    -7
  0
VERTEX
  5
16D888
  8
0
 10
0.0
 20
0.0
 30
0.0
 70
   128
 71
   -14
 72
     7
 73
    -6
  0
VERTEX
  5
16D889
  8
0
 10
0.0
 20
0.0
 30
0.0
 70
   128
 71
     6
 72
    -5
 73
   -15
  0
VERTEX
  5
16D88A
  8
0
 10
0.0
 20
0.0
 30
0.0
 70
   128
 71
    -6
 72
    15
 73
   -14
  0
VERTEX
  5
16D88B
  8
0
 10
0.0
 20
0.0
 30
0.0
 70
   128
 71
     5
 72
    -4
 73
   -16
  0
VERTEX
  5
16D88C
  8
0
 10
0.0
 20
0.0
 30
0.0
 70
   128
 71
    -5
 72
    16
 73
   -15
  0
VERTEX
  5
16D88D
  8
0
 10
0.0
 20
0.0
 30
0.0
 70
   128
 71
     4
 72
    -3
 73
   -17
  0
VERTEX
  5
16D88E
  8
0
 10
0.0
 20
0.0
 30
0.0
 70
   128
 71
    -4
 72
    17
 73
   -16
  0
VERTEX
  5
16D88F
  8
0
 10
0.0
 20
0.0
 30
0.0
 70
   128
 71
     3
 72
    -2
 73
   -18
  0
VERTEX
  5
16D890
  8
0
 10
0.0
 20
0.0
 30
0.0
 70
   128
 71
    -3
 72
    18
 73
   -17
  0
VERTEX
  5
16D891
  8
0
 10
0.0
 20
0.0
 30
0.0
 70
   128
 71
     2
 72
    -1
 73
   -19
  0
VERTEX
  5
16D892
  8
0
 10
0.0
 20
0.0
 30
0.0
 70
   128
 71
    -2
 72
    19
 73
   -18
  0
VERTEX
  5
16D893
  8
0
 10
0.0
 20
0.0
 30
0.0
 70
   128
 71
     1
 72
   -12
 73
   -20
  0
VERTEX
  5
16D894
  8
0
 10
0.0
 20
0.0
 30
0.0
 70
   128
 71
    -1
 72
    20
 73
   -19
  0
VERTEX
  5
16D895
  8
0
 10
0.0
 20
0.0
 30
0.0
 70
   128
 71
    12
 72
   -11
 73
   -21
  0
VERTEX
  5
16D896
  8
0
 10
0.0
 20
0.0
 30
0.0
 70
   128
 71
   -12
 72
    21
 73
   -20
  0
VERTEX
  5
16D897
  8
0
 10
0.0
 20
0.0
 30
0.0
 70
   128
 71
    11
 72
   -10
 73
   -22
  0
VERTEX
  5
16D898
  8
0
 10
0.0
 20
0.0
 30
0.0
 70
   128
 71
   -11
 72
    22
 73
   -21
  0
VERTEX
  5
16D899
  8
0
 10
0.0
 20
0.0
 30
0.0
 70
   128
 71
    10
 72
    -9
 73
   -23
  0
VERTEX
  5
16D89A
  8
0
 10
0.0
 20
0.0
 30
0.0
 70
   128
 71
   -10
 72
    23
 73
   -22
  0
VERTEX
  5
16D89B
  8
0
 10
0.0
 20
0.0
 30
0.0
 70
   128
 71
     9
 72
    -8
 73
   -24
  0
VERTEX
  5
16D89C
  8
0
 10
0.0
 20
0.0
 30
0.0
 70
   128
 71
    -9
 72
    24
 73
   -23
  0
VERTEX
  5
16D89D
  8
0
 10
0.0
 20
0.0
 30
0.0
 70
   128
 71
     8
 72
    -7
 73
   -13
  0
VERTEX
  5
16D89E
  8
0
 10
0.0
 20
0.0
 30
0.0
 70
   128
 71
    -8
 72
    13
 73
   -24
  0
SEQEND
  5
16D99B
  8
0
  0
POLYLINE
  5
16D89F
  8
0
 66
     1
 10
0.0
 20
0.0
 30
0.0
 70
    64
 71
    14
 72
    12
  0
VERTEX
  5
16D8A0
  8
0
 10
0.0000000000000165
 20
9.700000000000001
 30
-29.7
 70
   192
  0
VERTEX
  5
16D8A1
  8
0
 10
0.0
 20
0.0
 30
-29.7
 70
   192
  0
VERTEX
  5
16D8A2
  8
0
 10
14.85000000000001
 20
0.0
 30
-25.72095449239782
 70
   192
  0
VERTEX
  5
16D8A3
  8
0
 10
14.85000000000001
 20
9.700000000000001
 30
-25.72095449239782
 70
   192
  0
VERTEX
  5
16D8A4
  8
0
 10
29.7
 20
0.0
 30
0.0000000000000082
 70
   192
  0
VERTEX
  5
16D8A5
  8
0
 10
29.7
 20
9.700000000000001
 30
0.0000000000000082
 70
   192
  0
VERTEX
  5
16D8A6
  8
0
 10
25.72095449239783
 20
9.700000000000001
 30
-14.84999999999999
 70
   192
  0
VERTEX
  5
16D8A7
  8
0
 10
25.72095449239783
 20
0.0
 30
-14.84999999999999
 70
   192
  0
VERTEX
  5
16D8A8
  8
0
 10
25.72095449239783
 20
0.0
 30
14.85000000000001
 70
   192
  0
VERTEX
  5
16D8A9
  8
0
 10
25.72095449239783
 20
9.700000000000001
 30
14.85000000000001
 70
   192
  0
VERTEX
  5
16D8AA
  8
0
 10
0.0000000000000036
 20
0.0
 30
29.7
 70
   192
  0
VERTEX
  5
16D8AB
  8
0
 10
0.0000000000000036
 20
9.700000000000001
 30
29.7
 70
   192
  0
VERTEX
  5
16D8AC
  8
0
 10
14.85
 20
9.700000000000001
 30
25.72095449239783
 70
   192
  0
VERTEX
  5
16D8AD
  8
0
 10
14.85
 20
0.0
 30
25.72095449239783
 70
   192
  0
VERTEX
  5
16D8AE
  8
0
 10
0.0
 20
0.0
 30
0.0
 70
   128
 71
     1
 72
     2
 73
    -3
  0
VERTEX
  5
16D8AF
  8
0
 10
0.0
 20
0.0
 30
0.0
 70
   128
 71
     4
 72
    -1
 73
     3
  0
VERTEX
  5
16D8B0
  8
0
 10
0.0
 20
0.0
 30
0.0
 70
   128
 71
     5
 72
     6
 73
    -7
  0
VERTEX
  5
16D8B1
  8
0
 10
0.0
 20
0.0
 30
0.0
 70
   128
 71
     8
 72
    -5
 73
     7
  0
VERTEX
  5
16D8B2
  8
0
 10
0.0
 20
0.0
 30
0.0
 70
   128
 71
     6
 72
     5
 73
    -9
  0
VERTEX
  5
16D8B3
  8
0
 10
0.0
 20
0.0
 30
0.0
 70
   128
 71
    10
 72
    -6
 73
     9
  0
VERTEX
  5
16D8B4
  8
0
 10
0.0
 20
0.0
 30
0.0
 70
   128
 71
    11
 72
    12
 73
   -13
  0
VERTEX
  5
16D8B5
  8
0
 10
0.0
 20
0.0
 30
0.0
 70
   128
 71
    14
 72
   -11
 73
    13
  0
VERTEX
  5
16D8B6
  8
0
 10
0.0
 20
0.0
 30
0.0
 70
   128
 71
     7
 72
     4
 73
    -3
  0
VERTEX
  5
16D8B7
  8
0
 10
0.0
 20
0.0
 30
0.0
 70
   128
 71
     8
 72
    -7
 73
     3
  0
VERTEX
  5
16D8B8
  8
0
 10
0.0
 20
0.0
 30
0.0
 70
   128
 71
    13
 72
    10
 73
    -9
  0
VERTEX
  5
16D8B9
  8
0
 10
0.0
 20
0.0
 30
0.0
 70
   128
 71
    14
 72
   -13
 73
     9
  0
SEQEND
  5
16D99C
  8
0
  0
POLYLINE
  5
16D8BA
  8
0
 66
     1
 10
0.0
 20
0.0
 30
0.0
 70
    64
 71
    12
 72
    10
  0
VERTEX
  5
16D8BB
  8
0
 10
0.0
 20
9.700000000000001
 30
29.7
 70
   192
  0
VERTEX
  5
16D8BC
  8
0
 10
14.85
 20
9.700000000000001
 30
25.72095449239783
 70
   192
  0
VERTEX
  5
16D8BD
  8
0
 10
25.72095449239783
 20
9.700000000000001
 30
14.85000000000001
 70
   192
  0
VERTEX
  5
16D8BE
  8
0
 10
29.7
 20
9.700000000000001
 30
0.0000000000000082
 70
   192
  0
VERTEX
  5
16D8BF
  8
0
 10
25.72095449239783
 20
9.700000000000001
 30
-14.84999999999999
 70
   192
  0
VERTEX
  5
16D8C0
  8
0
 10
14.85000000000001
 20
9.700000000000001
 30
-25.72095449239782
 70
   192
  0
VERTEX
  5
16D8C1
  8
0
 10
0.0000000000000036
 20
9.700000000000001
 30
-29.7
 70
   192
  0
VERTEX
  5
16D8C2
  8
0
 10
-14.84999999999999
 20
9.700000000000001
 30
-25.72095449239783
 70
   192
  0
VERTEX
  5
16D8C3
  8
0
 10
-25.72095449239783
 20
9.700000000000001
 30
-14.85000000000001
 70
   192
  0
VERTEX
  5
16D8C4
  8
0
 10
-29.7
 20
9.700000000000001
 30
-0.0000000000000115
 70
   192
  0
VERTEX
  5
16D8C5
  8
0
 10
-25.72095449239784
 20
9.700000000000001
 30
14.84999999999999
 70
   192
  0
VERTEX
  5
16D8C6
  8
0
 10
-14.85000000000002
 20
9.700000000000001
 30
25.72095449239782
 70
   192
  0
VERTEX
  5
16D8C7
  8
0
 10
0.0
 20
0.0
 30
0.0
 70
   128
 71
     1
 72
    12
 73
   -11
  0
VERTEX
  5
16D8C8
  8
0
 10
0.0
 20
0.0
 30
0.0
 70
   128
 71
    -1
 72
    11
 73
   -10
  0
VERTEX
  5
16D8C9
  8
0
 10
0.0
 20
0.0
 30
0.0
 70
   128
 71
    -1
 72
    10
 73
    -9
  0
VERTEX
  5
16D8CA
  8
0
 10
0.0
 20
0.0
 30
0.0
 70
   128
 71
    -1
 72
     9
 73
    -8
  0
VERTEX
  5
16D8CB
  8
0
 10
0.0
 20
0.0
 30
0.0
 70
   128
 71
    -1
 72
     8
 73
    -7
  0
VERTEX
  5
16D8CC
  8
0
 10
0.0
 20
0.0
 30
0.0
 70
   128
 71
    -1
 72
     7
 73
    -6
  0
VERTEX
  5
16D8CD
  8
0
 10
0.0
 20
0.0
 30
0.0
 70
   128
 71
    -1
 72
     6
 73
    -5
  0
VERTEX
  5
16D8CE
  8
0
 10
0.0
 20
0.0
 30
0.0
 70
   128
 71
    -1
 72
     5
 73
    -4
  0
VERTEX
  5
16D8CF
  8
0
 10
0.0
 20
0.0
 30
0.0
 70
   128
 71
    -1
 72
     4
 73
    -3
  0
VERTEX
  5
16D8D0
  8
0
 10
0.0
 20
0.0
 30
0.0
 70
   128
 71
    -1
 72
     3
 73
     2
  0
SEQEND
  5
16D99D
  8
0
  0
POLYLINE
  5
16D8D1
  8
0
 66
     1
 10
0.0
 20
0.0
 30
0.0
 70
    64
 71
    10
 72
     8
  0
VERTEX
  5
16D8D2
  8
0
 10
0.0000000000000018
 20
60.00000000000001
 30
14.8
 70
   192
  0
VERTEX
  5
16D8D3
  8
0
 10
0.0000000000000018
 20
60.00000000000001
 30
-14.8
 70
   192
  0
VERTEX
  5
16D8D4
  8
0
 10
0.0
 20
10.0
 30
-14.8
 70
   192
  0
VERTEX
  5
16D8D5
  8
0
 10
-0.0000000000000016
 20
10.0
 30
14.8
 70
   192
  0
VERTEX
  5
16D8D6
  8
0
 10
-14.8
 20
10.0
 30
-0.0000000000000016
 70
   192
  0
VERTEX
  5
16D8D7
  8
0
 10
-14.8
 20
60.00000000000001
 30
-0.0000000000000016
 70
   192
  0
VERTEX
  5
16D8D8
  8
0
 10
-10.46518036156091
 20
10.0
 30
10.4651803615609
 70
   192
  0
VERTEX
  5
16D8D9
  8
0
 10
-10.46518036156091
 20
60.00000000000001
 30
10.4651803615609
 70
   192
  0
VERTEX
  5
16D8DA
  8
0
 10
-10.4651803615609
 20
10.0
 30
-10.46518036156091
 70
   192
  0
VERTEX
  5
16D8DB
  8
0
 10
-10.4651803615609
 20
60.00000000000001
 30
-10.46518036156091
 70
   192
  0
VERTEX
  5
16D8DC
  8
0
 10
0.0
 20
0.0
 30
0.0
 70
   128
 71
     8
 72
     7
 73
    -4
  0
VERTEX
  5
16D8DD
  8
0
 10
0.0
 20
0.0
 30
0.0
 70
   128
 71
    -8
 72
     4
 73
     1
  0
VERTEX
  5
16D8DE
  8
0
 10
0.0
 20
0.0
 30
0.0
 70
   128
 71
     6
 72
     5
 73
    -7
  0
VERTEX
  5
16D8DF
  8
0
 10
0.0
 20
0.0
 30
0.0
 70
   128
 71
    -6
 72
     7
 73
     8
  0
VERTEX
  5
16D8E0
  8
0
 10
0.0
 20
0.0
 30
0.0
 70
   128
 71
    10
 72
     9
 73
    -5
  0
VERTEX
  5
16D8E1
  8
0
 10
0.0
 20
0.0
 30
0.0
 70
   128
 71
   -10
 72
     5
 73
     6
  0
VERTEX
  5
16D8E2
  8
0
 10
0.0
 20
0.0
 30
0.0
 70
   128
 71
     2
 72
     3
 73
    -9
  0
VERTEX
  5
16D8E3
  8
0
 10
0.0
 20
0.0
 30
0.0
 70
   128
 71
    -2
 72
     9
 73
    10
  0
SEQEND
  5
16D99E
  8
0
  0
POLYLINE
  5
16D8E4
  8
0
 66
     1
 10
0.0
 20
0.0
 30
0.0
 70
    64
 71
     8
 72
     6
  0
VERTEX
  5
16D8E5
  8
0
 10
0.0000000000000018
 20
60.00000000000001
 30
-14.8
 70
   192
  0
VERTEX
  5
16D8E6
  8
0
 10
-10.4651803615609
 20
60.00000000000001
 30
-10.46518036156091
 70
   192
  0
VERTEX
  5
16D8E7
  8
0
 10
-14.8
 20
60.00000000000001
 30
-0.0000000000000016
 70
   192
  0
VERTEX
  5
16D8E8
  8
0
 10
-10.46518036156091
 20
60.00000000000001
 30
10.4651803615609
 70
   192
  0
VERTEX
  5
16D8E9
  8
0
 10
-0.0000000000000016
 20
60.00000000000001
 30
14.8
 70
   192
  0
VERTEX
  5
16D8EA
  8
0
 10
10.46518036156091
 20
60.00000000000001
 30
10.4651803615609
 70
   192
  0
VERTEX
  5
16D8EB
  8
0
 10
14.8
 20
60.00000000000001
 30
-0.0000000000000016
 70
   192
  0
VERTEX
  5
16D8EC
  8
0
 10
10.4651803615609
 20
60.00000000000001
 30
-10.46518036156091
 70
   192
  0
VERTEX
  5
16D8ED
  8
0
 10
0.0
 20
0.0
 30
0.0
 70
   128
 71
     7
 72
     8
 73
    -1
  0
VERTEX
  5
16D8EE
  8
0
 10
0.0
 20
0.0
 30
0.0
 70
   128
 71
     6
 72
    -7
 73
    -1
  0
VERTEX
  5
16D8EF
  8
0
 10
0.0
 20
0.0
 30
0.0
 70
   128
 71
     5
 72
    -6
 73
    -1
  0
VERTEX
  5
16D8F0
  8
0
 10
0.0
 20
0.0
 30
0.0
 70
   128
 71
     4
 72
    -5
 73
    -1
  0
VERTEX
  5
16D8F1
  8
0
 10
0.0
 20
0.0
 30
0.0
 70
   128
 71
     3
 72
    -4
 73
    -1
  0
VERTEX
  5
16D8F2
  8
0
 10
0.0
 20
0.0
 30
0.0
 70
   128
 71
     2
 72
    -3
 73
     1
  0
SEQEND
  5
16D99F
  8
0
  0
POLYLINE
  5
16D8F3
  8
0
 66
     1
 10
0.0
 20
0.0
 30
0.0
 70
    64
 71
    10
 72
     8
  0
VERTEX
  5
16D8F4
  8
0
 10
20.80000000000001
 20
52.6317279836453
 30
-8.131727983645318
 70
   192
  0
VERTEX
  5
16D8F5
  8
0
 10
14.80000000000001
 20
55.99999999999999
 30
0.0000000000000009
 70
   192
  0
VERTEX
  5
16D8F6
  8
0
 10
20.8
 20
55.99999999999999
 30
0.0000000000000014
 70
   192
  0
VERTEX
  5
16D8F7
  8
0
 10
9.31611528982576
 20
44.5025403885493
 30
-11.49999966657591
 70
   192
  0
VERTEX
  5
16D8F8
  8
0
 10
12.32665719266216
 20
52.57195624030567
 30
-8.191063572857322
 70
   192
  0
VERTEX
  5
16D8F9
  8
0
 10
12.32836062013886
 20
36.42544270066826
 30
-8.188499521878803
 70
   192
  0
VERTEX
  5
16D8FA
  8
0
 10
20.80000000000002
 20
44.49999999999998
 30
-11.50000000000003
 70
   192
  0
VERTEX
  5
16D8FB
  8
0
 10
20.80000000000003
 20
36.36827201635466
 30
-8.13172798364532
 70
   192
  0
VERTEX
  5
16D8FC
  8
0
 10
20.80000000000004
 20
32.99999999999995
 30
-0.0000000000000013
 70
   192
  0
VERTEX
  5
16D8FD
  8
0
 10
14.8
 20
32.99999999999994
 30
0.0
 70
   192
  0
VERTEX
  5
16D8FE
  8
0
 10
0.0
 20
0.0
 30
0.0
 70
   128
 71
     1
 72
     2
 73
     3
  0
VERTEX
  5
16D8FF
  8
0
 10
0.0
 20
0.0
 30
0.0
 70
   128
 71
     1
 72
     4
 73
     5
  0
VERTEX
  5
16D900
  8
0
 10
0.0
 20
0.0
 30
0.0
 70
   128
 71
     6
 72
     7
 73
     8
  0
VERTEX
  5
16D901
  8
0
 10
0.0
 20
0.0
 30
0.0
 70
   128
 71
     2
 72
     1
 73
     5
  0
VERTEX
  5
16D902
  8
0
 10
0.0
 20
0.0
 30
0.0
 70
   128
 71
     4
 72
     1
 73
     7
  0
VERTEX
  5
16D903
  8
0
 10
0.0
 20
0.0
 30
0.0
 70
   128
 71
     4
 72
     7
 73
     6
  0
VERTEX
  5
16D904
  8
0
 10
0.0
 20
0.0
 30
0.0
 70
   128
 71
     6
 72
     8
 73
     9
  0
VERTEX
  5
16D905
  8
0
 10
0.0
 20
0.0
 30
0.0
 70
   128
 71
     6
 72
     9
 73
    10
  0
SEQEND
  5
16D9A0
  8
0
  0
POLYLINE
  5
16D906
  8
0
 66
     1
 10
0.0
 20
0.0
 30
0.0
 70
    64
 71
     8
 72
     6
  0
VERTEX
  5
16D907
  8
0
 10
29.8
 20
53.59999999999999
 30
0.0
 70
   192
  0
VERTEX
  5
16D908
  8
0
 10
29.8
 20
50.93467170879757
 30
6.434671708797582
 70
   192
  0
VERTEX
  5
16D909
  8
0
 10
29.80000000000001
 20
44.49999999999999
 30
9.1
 70
   192
  0
VERTEX
  5
16D90A
  8
0
 10
29.80000000000002
 20
38.06532829120241
 30
6.434671708797581
 70
   192
  0
VERTEX
  5
16D90B
  8
0
 10
29.80000000000003
 20
35.39999999999999
 30
0.0
 70
   192
  0
VERTEX
  5
16D90C
  8
0
 10
29.80000000000002
 20
38.06532829120241
 30
-6.434671708797582
 70
   192
  0
VERTEX
  5
16D90D
  8
0
 10
29.80000000000001
 20
44.49999999999999
 30
-9.099999999999998
 70
   192
  0
VERTEX
  5
16D90E
  8
0
 10
29.8
 20
50.93467170879757
 30
-6.43467170879758
 70
   192
  0
VERTEX
  5
16D90F
  8
0
 10
0.0
 20
0.0
 30
0.0
 70
   128
 71
     7
 72
     8
 73
    -1
  0
VERTEX
  5
16D910
  8
0
 10
0.0
 20
0.0
 30
0.0
 70
   128
 71
     6
 72
    -7
 73
    -1
  0
VERTEX
  5
16D911
  8
0
 10
0.0
 20
0.0
 30
0.0
 70
   128
 71
     5
 72
    -6
 73
    -1
  0
VERTEX
  5
16D912
  8
0
 10
0.0
 20
0.0
 30
0.0
 70
   128
 71
     4
 72
    -5
 73
    -1
  0
VERTEX
  5
16D913
  8
0
 10
0.0
 20
0.0
 30
0.0
 70
   128
 71
     3
 72
    -4
 73
    -1
  0
VERTEX
  5
16D914
  8
0
 10
0.0
 20
0.0
 30
0.0
 70
   128
 71
     2
 72
    -3
 73
     1
  0
SEQEND
  5
16D9A1
  8
0
  0
POLYLINE
  5
16D915
  8
0
 66
     1
 10
0.0
 20
0.0
 30
0.0
 70
    64
 71
    10
 72
     8
  0
VERTEX
  5
16D916
  8
0
 10
29.8
 20
53.59999999999999
 30
0.0000000000000011
 70
   192
  0
VERTEX
  5
16D917
  8
0
 10
29.80000000000003
 20
35.39999999999999
 30
-0.000000000000001
 70
   192
  0
VERTEX
  5
16D918
  8
0
 10
28.60000000000004
 20
34.2
 30
0.0
 70
   192
  0
VERTEX
  5
16D919
  8
0
 10
28.6
 20
54.79999999999998
 30
0.0000000000000013
 70
   192
  0
VERTEX
  5
16D91A
  8
0
 10
28.60000000000002
 20
44.49999999999999
 30
-10.29999999999999
 70
   192
  0
VERTEX
  5
16D91B
  8
0
 10
29.80000000000001
 20
44.49999999999999
 30
-9.099999999999998
 70
   192
  0
VERTEX
  5
16D91C
  8
0
 10
28.60000000000001
 20
51.78319984622143
 30
-7.283199846221432
 70
   192
  0
VERTEX
  5
16D91D
  8
0
 10
29.8
 20
50.93467170879757
 30
-6.43467170879758
 70
   192
  0
VERTEX
  5
16D91E
  8
0
 10
28.60000000000003
 20
37.21680015377856
 30
-7.283199846221434
 70
   192
  0
VERTEX
  5
16D91F
  8
0
 10
29.80000000000002
 20
38.06532829120241
 30
-6.434671708797582
 70
   192
  0
VERTEX
  5
16D920
  8
0
 10
0.0
 20
0.0
 30
0.0
 70
   128
 71
     8
 72
     7
 73
    -4
  0
VERTEX
  5
16D921
  8
0
 10
0.0
 20
0.0
 30
0.0
 70
   128
 71
    -8
 72
     4
 73
     1
  0
VERTEX
  5
16D922
  8
0
 10
0.0
 20
0.0
 30
0.0
 70
   128
 71
     6
 72
     5
 73
    -7
  0
VERTEX
  5
16D923
  8
0
 10
0.0
 20
0.0
 30
0.0
 70
   128
 71
    -6
 72
     7
 73
     8
  0
VERTEX
  5
16D924
  8
0
 10
0.0
 20
0.0
 30
0.0
 70
   128
 71
    10
 72
     9
 73
    -5
  0
VERTEX
  5
16D925
  8
0
 10
0.0
 20
0.0
 30
0.0
 70
   128
 71
   -10
 72
     5
 73
     6
  0
VERTEX
  5
16D926
  8
0
 10
0.0
 20
0.0
 30
0.0
 70
   128
 71
     2
 72
     3
 73
    -9
  0
VERTEX
  5
16D927
  8
0
 10
0.0
 20
0.0
 30
0.0
 70
   128
 71
    -2
 72
     9
 73
    10
  0
SEQEND
  5
16D9A2
  8
0
  0
POLYLINE
  5
16D928
  8
0
 66
     1
 10
0.0
 20
0.0
 30
0.0
 70
    64
 71
    10
 72
     8
  0
VERTEX
  5
16D929
  8
0
 10
28.60000000000001
 20
54.8
 30
0.0000000000000013
 70
   192
  0
VERTEX
  5
16D92A
  8
0
 10
28.60000000000004
 20
34.2
 30
-0.0000000000000011
 70
   192
  0
VERTEX
  5
16D92B
  8
0
 10
22.80000000000004
 20
34.19999999999997
 30
0.0
 70
   192
  0
VERTEX
  5
16D92C
  8
0
 10
22.8
 20
54.79999999999999
 30
0.0000000000000013
 70
   192
  0
VERTEX
  5
16D92D
  8
0
 10
22.80000000000002
 20
44.49999999999998
 30
-10.30000000000001
 70
   192
  0
VERTEX
  5
16D92E
  8
0
 10
28.60000000000002
 20
44.49999999999999
 30
-10.29999999999999
 70
   192
  0
VERTEX
  5
16D92F
  8
0
 10
22.80000000000001
 20
51.78319984622143
 30
-7.283199846221447
 70
   192
  0
VERTEX
  5
16D930
  8
0
 10
28.60000000000001
 20
51.78319984622143
 30
-7.283199846221432
 70
   192
  0
VERTEX
  5
16D931
  8
0
 10
22.80000000000003
 20
37.21680015377853
 30
-7.283199846221449
 70
   192
  0
VERTEX
  5
16D932
  8
0
 10
28.60000000000003
 20
37.21680015377856
 30
-7.283199846221434
 70
   192
  0
VERTEX
  5
16D933
  8
0
 10
0.0
 20
0.0
 30
0.0
 70
   128
 71
     8
 72
     7
 73
    -4
  0
VERTEX
  5
16D934
  8
0
 10
0.0
 20
0.0
 30
0.0
 70
   128
 71
    -8
 72
     4
 73
     1
  0
VERTEX
  5
16D935
  8
0
 10
0.0
 20
0.0
 30
0.0
 70
   128
 71
     6
 72
     5
 73
    -7
  0
VERTEX
  5
16D936
  8
0
 10
0.0
 20
0.0
 30
0.0
 70
   128
 71
    -6
 72
     7
 73
     8
  0
VERTEX
  5
16D937
  8
0
 10
0.0
 20
0.0
 30
0.0
 70
   128
 71
    10
 72
     9
 73
    -5
  0
VERTEX
  5
16D938
  8
0
 10
0.0
 20
0.0
 30
0.0
 70
   128
 71
   -10
 72
     5
 73
     6
  0
VERTEX
  5
16D939
  8
0
 10
0.0
 20
0.0
 30
0.0
 70
   128
 71
     2
 72
     3
 73
    -9
  0
VERTEX
  5
16D93A
  8
0
 10
0.0
 20
0.0
 30
0.0
 70
   128
 71
    -2
 72
     9
 73
    10
  0
SEQEND
  5
16D9A3
  8
0
  0
POLYLINE
  5
16D93B
  8
0
 66
     1
 10
0.0
 20
0.0
 30
0.0
 70
    64
 71
    16
 72
    16
  0
VERTEX
  5
16D93C
  8
0
 10
22.80000000000004
 20
34.19999999999997
 30
0.0
 70
   192
  0
VERTEX
  5
16D93D
  8
0
 10
22.80000000000003
 20
37.21680015377853
 30
7.283199846221448
 70
   192
  0
VERTEX
  5
16D93E
  8
0
 10
22.80000000000002
 20
44.49999999999998
 30
10.30000000000001
 70
   192
  0
VERTEX
  5
16D93F
  8
0
 10
22.80000000000001
 20
51.78319984622143
 30
7.283199846221449
 70
   192
  0
VERTEX
  5
16D940
  8
0
 10
22.8
 20
54.79999999999999
 30
0.0
 70
   192
  0
VERTEX
  5
16D941
  8
0
 10
22.80000000000001
 20
51.78319984622143
 30
-7.283199846221447
 70
   192
  0
VERTEX
  5
16D942
  8
0
 10
22.80000000000002
 20
44.49999999999998
 30
-10.30000000000001
 70
   192
  0
VERTEX
  5
16D943
  8
0
 10
22.80000000000003
 20
37.21680015377853
 30
-7.283199846221449
 70
   192
  0
VERTEX
  5
16D944
  8
0
 10
22.8
 20
53.49999999999999
 30
0.0
 70
   192
  0
VERTEX
  5
16D945
  8
0
 10
22.8
 20
50.86396103067891
 30
6.36396103067893
 70
   192
  0
VERTEX
  5
16D946
  8
0
 10
22.80000000000001
 20
44.49999999999998
 30
9.000000000000004
 70
   192
  0
VERTEX
  5
16D947
  8
0
 10
22.80000000000003
 20
38.13603896932105
 30
6.363961030678929
 70
   192
  0
VERTEX
  5
16D948
  8
0
 10
22.80000000000003
 20
35.49999999999998
 30
0.0
 70
   192
  0
VERTEX
  5
16D949
  8
0
 10
22.80000000000003
 20
38.13603896932105
 30
-6.36396103067893
 70
   192
  0
VERTEX
  5
16D94A
  8
0
 10
22.80000000000001
 20
44.49999999999998
 30
-9.000000000000002
 70
   192
  0
VERTEX
  5
16D94B
  8
0
 10
22.8
 20
50.86396103067891
 30
-6.363961030678928
 70
   192
  0
VERTEX
  5
16D94C
  8
0
 10
0.0
 20
0.0
 30
0.0
 70
   128
 71
    -5
 72
     9
 73
   -10
  0
VERTEX
  5
16D94D
  8
0
 10
0.0
 20
0.0
 30
0.0
 70
   128
 71
     4
 72
    -5
 73
   -10
  0
VERTEX
  5
16D94E
  8
0
 10
0.0
 20
0.0
 30
0.0
 70
   128
 71
   -11
 72
     3
 73
    -4
  0
VERTEX
  5
16D94F
  8
0
 10
0.0
 20
0.0
 30
0.0
 70
   128
 71
    10
 72
   -11
 73
    -4
  0
VERTEX
  5
16D950
  8
0
 10
0.0
 20
0.0
 30
0.0
 70
   128
 71
   -12
 72
     2
 73
    -3
  0
VERTEX
  5
16D951
  8
0
 10
0.0
 20
0.0
 30
0.0
 70
   128
 71
    11
 72
   -12
 73
    -3
  0
VERTEX
  5
16D952
  8
0
 10
0.0
 20
0.0
 30
0.0
 70
   128
 71
   -13
 72
     1
 73
    -2
  0
VERTEX
  5
16D953
  8
0
 10
0.0
 20
0.0
 30
0.0
 70
   128
 71
    12
 72
   -13
 73
    -2
  0
VERTEX
  5
16D954
  8
0
 10
0.0
 20
0.0
 30
0.0
 70
   128
 71
   -14
 72
     8
 73
    -1
  0
VERTEX
  5
16D955
  8
0
 10
0.0
 20
0.0
 30
0.0
 70
   128
 71
    13
 72
   -14
 73
    -1
  0
VERTEX
  5
16D956
  8
0
 10
0.0
 20
0.0
 30
0.0
 70
   128
 71
   -15
 72
     7
 73
    -8
  0
VERTEX
  5
16D957
  8
0
 10
0.0
 20
0.0
 30
0.0
 70
   128
 71
    14
 72
   -15
 73
    -8
  0
VERTEX
  5
16D958
  8
0
 10
0.0
 20
0.0
 30
0.0
 70
   128
 71
   -16
 72
     6
 73
    -7
  0
VERTEX
  5
16D959
  8
0
 10
0.0
 20
0.0
 30
0.0
 70
   128
 71
    15
 72
   -16
 73
    -7
  0
VERTEX
  5
16D95A
  8
0
 10
0.0
 20
0.0
 30
0.0
 70
   128
 71
    -9
 72
     5
 73
    -6
  0
VERTEX
  5
16D95B
  8
0
 10
0.0
 20
0.0
 30
0.0
 70
   128
 71
    16
 72
    -9
 73
    -6
  0
SEQEND
  5
16D9A4
  8
0
  0
POLYLINE
  5
16D95C
  8
0
 66
     1
 10
0.0
 20
0.0
 30
0.0
 70
    64
 71
    10
 72
     8
  0
VERTEX
  5
16D95D
  8
0
 10
22.8
 20
53.49999999999998
 30
0.0000000000000011
 70
   192
  0
VERTEX
  5
16D95E
  8
0
 10
22.80000000000003
 20
35.49999999999998
 30
-0.000000000000001
 70
   192
  0
VERTEX
  5
16D95F
  8
0
 10
20.80000000000003
 20
35.49999999999998
 30
0.0
 70
   192
  0
VERTEX
  5
16D960
  8
0
 10
20.8
 20
53.49999999999998
 30
0.0000000000000011
 70
   192
  0
VERTEX
  5
16D961
  8
0
 10
20.80000000000001
 20
44.49999999999998
 30
-9.000000000000002
 70
   192
  0
VERTEX
  5
16D962
  8
0
 10
22.80000000000001
 20
44.49999999999998
 30
-9.000000000000002
 70
   192
  0
VERTEX
  5
16D963
  8
0
 10
20.8
 20
50.86396103067891
 30
-6.363961030678928
 70
   192
  0
VERTEX
  5
16D964
  8
0
 10
22.8
 20
50.86396103067891
 30
-6.363961030678928
 70
   192
  0
VERTEX
  5
16D965
  8
0
 10
20.80000000000002
 20
38.13603896932105
 30
-6.36396103067893
 70
   192
  0
VERTEX
  5
16D966
  8
0
 10
22.80000000000003
 20
38.13603896932105
 30
-6.36396103067893
 70
   192
  0
VERTEX
  5
16D967
  8
0
 10
0.0
 20
0.0
 30
0.0
 70
   128
 71
     8
 72
     7
 73
    -4
  0
VERTEX
  5
16D968
  8
0
 10
0.0
 20
0.0
 30
0.0
 70
   128
 71
    -8
 72
     4
 73
     1
  0
VERTEX
  5
16D969
  8
0
 10
0.0
 20
0.0
 30
0.0
 70
   128
 71
     6
 72
     5
 73
    -7
  0
VERTEX
  5
16D96A
  8
0
 10
0.0
 20
0.0
 30
0.0
 70
   128
 71
    -6
 72
     7
 73
     8
  0
VERTEX
  5
16D96B
  8
0
 10
0.0
 20
0.0
 30
0.0
 70
   128
 71
    10
 72
     9
 73
    -5
  0
VERTEX
  5
16D96C
  8
0
 10
0.0
 20
0.0
 30
0.0
 70
   128
 71
   -10
 72
     5
 73
     6
  0
VERTEX
  5
16D96D
  8
0
 10
0.0
 20
0.0
 30
0.0
 70
   128
 71
     2
 72
     3
 73
    -9
  0
VERTEX
  5
16D96E
  8
0
 10
0.0
 20
0.0
 30
0.0
 70
   128
 71
    -2
 72
     9
 73
    10
  0
SEQEND
  5
16D9A5
  8
0
  0
POLYLINE
  5
16D96F
  8
0
 66
     1
 10
0.0
 20
0.0
 30
0.0
 70
    64
 71
    16
 72
    16
  0
VERTEX
  5
16D970
  8
0
 10
20.8
 20
56.00000000000001
 30
0.0
 70
   192
  0
VERTEX
  5
16D971
  8
0
 10
20.80000000000001
 20
52.6317279836453
 30
8.13172798364532
 70
   192
  0
VERTEX
  5
16D972
  8
0
 10
20.80000000000002
 20
44.49999999999998
 30
11.50000000000003
 70
   192
  0
VERTEX
  5
16D973
  8
0
 10
20.80000000000003
 20
36.36827201635466
 30
8.131727983645318
 70
   192
  0
VERTEX
  5
16D974
  8
0
 10
20.80000000000004
 20
32.99999999999995
 30
0.0
 70
   192
  0
VERTEX
  5
16D975
  8
0
 10
20.80000000000003
 20
36.36827201635466
 30
-8.13172798364532
 70
   192
  0
VERTEX
  5
16D976
  8
0
 10
20.80000000000002
 20
44.49999999999998
 30
-11.50000000000003
 70
   192
  0
VERTEX
  5
16D977
  8
0
 10
20.80000000000001
 20
52.6317279836453
 30
-8.131727983645318
 70
   192
  0
VERTEX
  5
16D978
  8
0
 10
20.80000000000003
 20
35.49999999999998
 30
0.0
 70
   192
  0
VERTEX
  5
16D979
  8
0
 10
20.80000000000002
 20
38.13603896932105
 30
6.363961030678929
 70
   192
  0
VERTEX
  5
16D97A
  8
0
 10
20.80000000000001
 20
44.49999999999998
 30
9.000000000000004
 70
   192
  0
VERTEX
  5
16D97B
  8
0
 10
20.8
 20
50.86396103067891
 30
6.36396103067893
 70
   192
  0
VERTEX
  5
16D97C
  8
0
 10
20.8
 20
53.49999999999999
 30
0.0
 70
   192
  0
VERTEX
  5
16D97D
  8
0
 10
20.8
 20
50.86396103067891
 30
-6.363961030678928
 70
   192
  0
VERTEX
  5
16D97E
  8
0
 10
20.80000000000001
 20
44.49999999999998
 30
-9.000000000000002
 70
   192
  0
VERTEX
  5
16D97F
  8
0
 10
20.80000000000002
 20
38.13603896932105
 30
-6.36396103067893
 70
   192
  0
VERTEX
  5
16D980
  8
0
 10
0.0
 20
0.0
 30
0.0
 70
   128
 71
    -5
 72
     9
 73
   -10
  0
VERTEX
  5
16D981
  8
0
 10
0.0
 20
0.0
 30
0.0
 70
   128
 71
     4
 72
    -5
 73
   -10
  0
VERTEX
  5
16D982
  8
0
 10
0.0
 20
0.0
 30
0.0
 70
   128
 71
   -11
 72
     3
 73
    -4
  0
VERTEX
  5
16D983
  8
0
 10
0.0
 20
0.0
 30
0.0
 70
   128
 71
    10
 72
   -11
 73
    -4
  0
VERTEX
  5
16D984
  8
0
 10
0.0
 20
0.0
 30
0.0
 70
   128
 71
   -12
 72
     2
 73
    -3
  0
VERTEX
  5
16D985
  8
0
 10
0.0
 20
0.0
 30
0.0
 70
   128
 71
    11
 72
   -12
 73
    -3
  0
VERTEX
  5
16D986
  8
0
 10
0.0
 20
0.0
 30
0.0
 70
   128
 71
   -13
 72
     1
 73
    -2
  0
VERTEX
  5
16D987
  8
0
 10
0.0
 20
0.0
 30
0.0
 70
   128
 71
    12
 72
   -13
 73
    -2
  0
VERTEX
  5
16D988
  8
0
 10
0.0
 20
0.0
 30
0.0
 70
   128
 71
   -14
 72
     8
 73
    -1
  0
VERTEX
  5
16D989
  8
0
 10
0.0
 20
0.0
 30
0.0
 70
   128
 71
    13
 72
   -14
 73
    -1
  0
VERTEX
  5
16D98A
  8
0
 10
0.0
 20
0.0
 30
0.0
 70
   128
 71
   -15
 72
     7
 73
    -8
  0
VERTEX
  5
16D98B
  8
0
 10
0.0
 20
0.0
 30
0.0
 70
   128
 71
    14
 72
   -15
 73
    -8
  0
VERTEX
  5
16D98C
  8
0
 10
0.0
 20
0.0
 30
0.0
 70
   128
 71
   -16
 72
     6
 73
    -7
  0
VERTEX
  5
16D98D
  8
0
 10
0.0
 20
0.0
 30
0.0
 70
   128
 71
    15
 72
   -16
 73
    -7
  0
VERTEX
  5
16D98E
  8
0
 10
0.0
 20
0.0
 30
0.0
 70
   128
 71
    -9
 72
     5
 73
    -6
  0
VERTEX
  5
16D98F
  8
0
 10
0.0
 20
0.0
 30
0.0
 70
   128
 71
    16
 72
    -9
 73
    -6
  0
SEQEND
  5
16D9A6
  8
0
  0
ENDBLK
  5
16D991
  8
0
  0
ENDSEC
  0
SECTION
  2
ENTITIES
  0
INSERT
  5
16D555
  8
0
  2
*X1
 10
0.0
 20
0.0
 30
0.0
  0
ENDSEC
  0
EOF
