  0
SECTION
  2
HEADER
  9
$ACADVER
  1
AC1009
  9
$DWGCODEPAGE
  3
ansi_1250
  9
$INSBASE
 10
0.0
 20
0.0
 30
0.0
  9
$EXTMIN
 10
-35.0
 20
-25.0
 30
-11.00000000000049
  9
$EXTMAX
 10
35.00000000000003
 20
25.0
 30
161.0
  9
$LIMMIN
 10
0.0
 20
0.0
  9
$LIMMAX
 10
420.0
 20
297.0
  9
$ORTHOMODE
 70
     0
  9
$REGENMODE
 70
     1
  9
$FILLMODE
 70
     1
  9
$QTEXTMODE
 70
     0
  9
$MIRRTEXT
 70
     0
  9
$DRAGMODE
 70
     2
  9
$LTSCALE
 40
1.0
  9
$OSMODE
 70
   511
  9
$ATTMODE
 70
     1
  9
$TEXTSIZE
 40
2.5
  9
$TRACEWID
 40
1.0
  9
$TEXTSTYLE
  7
STANDARD
  9
$CLAYER
  8
0
  9
$CELTYPE
  6
BYLAYER
  9
$CECOLOR
 62
   256
  9
$DIMSCALE
 40
1.0
  9
$DIMASZ
 40
2.5
  9
$DIMEXO
 40
0.625
  9
$DIMDLI
 40
3.75
  9
$DIMRND
 40
0.0
  9
$DIMDLE
 40
0.0
  9
$DIMEXE
 40
1.25
  9
$DIMTP
 40
0.0
  9
$DIMTM
 40
0.0
  9
$DIMTXT
 40
2.5
  9
$DIMCEN
 40
-2.5
  9
$DIMTSZ
 40
0.0
  9
$DIMTOL
 70
     0
  9
$DIMLIM
 70
     0
  9
$DIMTIH
 70
     0
  9
$DIMTOH
 70
     0
  9
$DIMSE1
 70
     0
  9
$DIMSE2
 70
     0
  9
$DIMTAD
 70
     1
  9
$DIMZIN
 70
     8
  9
$DIMBLK
  1

  9
$DIMASO
 70
     1
  9
$DIMSHO
 70
     1
  9
$DIMPOST
  1

  9
$DIMAPOST
  1

  9
$DIMALT
 70
     0
  9
$DIMALTD
 70
     3
  9
$DIMALTF
 40
0.03937007874016
  9
$DIMLFAC
 40
1.0
  9
$DIMTOFL
 70
     1
  9
$DIMTVP
 40
0.0
  9
$DIMTIX
 70
     0
  9
$DIMSOXD
 70
     0
  9
$DIMSAH
 70
     0
  9
$DIMBLK1
  1

  9
$DIMBLK2
  1

  9
$DIMSTYLE
  2
ISO-25
  9
$DIMCLRD
 70
     0
  9
$DIMCLRE
 70
     0
  9
$DIMCLRT
 70
     0
  9
$DIMTFAC
 40
1.0
  9
$DIMGAP
 40
0.625
  9
$LUNITS
 70
     2
  9
$LUPREC
 70
     3
  9
$SKETCHINC
 40
1.0
  9
$FILLETRAD
 40
10.0
  9
$AUNITS
 70
     0
  9
$AUPREC
 70
     0
  9
$MENU
  1
.
  9
$ELEVATION
 40
0.0
  9
$PELEVATION
 40
0.0
  9
$THICKNESS
 40
0.0
  9
$LIMCHECK
 70
     0
  9
$CHAMFERA
 40
10.0
  9
$CHAMFERB
 40
10.0
  9
$SKPOLY
 70
     0
  9
$TDCREATE
 40
2455022.720692848
  9
$TDUPDATE
 40
2460528.534997535
  9
$TDINDWG
 40
0.0700871412
  9
$TDUSRTIMER
 40
0.1446436921
  9
$USRTIMER
 70
     1
  9
$ANGBASE
 50
0.0
  9
$ANGDIR
 70
     0
  9
$PDMODE
 70
     0
  9
$PDSIZE
 40
0.0
  9
$PLINEWID
 40
0.0
  9
$COORDS
 70
     1
  9
$SPLFRAME
 70
     0
  9
$SPLINETYPE
 70
     6
  9
$SPLINESEGS
 70
     8
  9
$ATTDIA
 70
     0
  9
$ATTREQ
 70
     1
  9
$HANDLING
 70
     1
  9
$HANDSEED
  5
13464E
  9
$SURFTAB1
 70
     6
  9
$SURFTAB2
 70
     6
  9
$SURFTYPE
 70
     6
  9
$SURFU
 70
     6
  9
$SURFV
 70
     6
  9
$UCSNAME
  2

  9
$UCSORG
 10
0.0
 20
0.0
 30
0.0
  9
$UCSXDIR
 10
1.0
 20
0.0
 30
0.0
  9
$UCSYDIR
 10
0.0
 20
1.0
 30
0.0
  9
$PUCSNAME
  2

  9
$PUCSORG
 10
0.0
 20
0.0
 30
0.0
  9
$PUCSXDIR
 10
1.0
 20
0.0
 30
0.0
  9
$PUCSYDIR
 10
0.0
 20
1.0
 30
0.0
  9
$USERI1
 70
     0
  9
$USERI2
 70
     0
  9
$USERI3
 70
     0
  9
$USERI4
 70
     0
  9
$USERI5
 70
     0
  9
$USERR1
 40
0.0
  9
$USERR2
 40
0.0
  9
$USERR3
 40
0.0
  9
$USERR4
 40
0.0
  9
$USERR5
 40
0.0
  9
$WORLDVIEW
 70
     1
  9
$SHADEDGE
 70
     3
  9
$SHADEDIF
 70
    70
  9
$TILEMODE
 70
     1
  9
$MAXACTVP
 70
    64
  9
$PLIMCHECK
 70
     0
  9
$PEXTMIN
 10
1.000000000000000E+20
 20
1.000000000000000E+20
 30
1.000000000000000E+20
  9
$PEXTMAX
 10
-1.000000000000000E+20
 20
-1.000000000000000E+20
 30
-1.000000000000000E+20
  9
$PLIMMIN
 10
0.0
 20
0.0
  9
$PLIMMAX
 10
0.0
 20
0.0
  9
$UNITMODE
 70
     0
  9
$VISRETAIN
 70
     1
  9
$PLINEGEN
 70
     0
  9
$PSLTSCALE
 70
     1
  0
ENDSEC
  0
SECTION
  2
TABLES
  0
TABLE
  2
VPORT
 70
     1
  0
VPORT
  2
*ACTIVE
 70
     0
 10
0.0
 20
0.0
 11
1.0
 21
1.0
 12
-94.55631148420709
 22
6.261540118245883
 13
0.0
 23
0.0
 14
10.0
 24
10.0
 15
10.0
 25
10.0
 16
0.5773502691896226
 26
0.5773502691896226
 36
0.5773502691896262
 17
-134.0401322861792
 27
-0.3173141772386803
 37
0.1524876214564763
 40
193.2157509107375
 41
1.89041095890411
 42
50.0
 43
0.0
 44
0.0
 50
0.0
 51
0.0
 71
    16
 72
  1000
 73
     1
 74
     3
 75
     0
 76
     0
 77
     0
 78
     0
  0
ENDTAB
  0
TABLE
  2
LTYPE
 70
     1
  0
LTYPE
  2
CONTINUOUS
 70
     0
  3
Solid line
 72
    65
 73
     0
 40
0.0
  0
ENDTAB
  0
TABLE
  2
LAYER
 70
     1
  0
LAYER
  2
0
 70
     0
 62
     7
  6
CONTINUOUS
  0
ENDTAB
  0
TABLE
  2
STYLE
 70
     2
  0
STYLE
  2
STANDARD
 70
     0
 40
0.0
 41
1.0
 50
0.0
 71
     0
 42
2.5
  3
arial.ttf
  4

  0
STYLE
  2
ANNOTATIVE
 70
     0
 40
0.0
 41
1.0
 50
0.0
 71
     0
 42
2.5
  3
arial.ttf
  4

  0
ENDTAB
  0
TABLE
  2
VIEW
 70
     0
  0
ENDTAB
  0
TABLE
  2
UCS
 70
     0
  0
ENDTAB
  0
TABLE
  2
APPID
 70
     2
  0
APPID
  2
ACAD
 70
     0
  0
APPID
  2
ACADANNOTATIVE
 70
     0
  0
ENDTAB
  0
TABLE
  2
DIMSTYLE
 70
     2
  0
DIMSTYLE
  2
ISO-25
 70
     0
  3

  4

  5

  6

  7

 40
1.0
 41
2.5
 42
0.625
 43
3.75
 44
1.25
 45
0.0
 46
0.0
 47
0.0
 48
0.0
140
2.5
141
-2.5
142
0.0
143
0.03937007874016
144
1.0
145
0.0
146
1.0
147
0.625
 71
     0
 72
     0
 73
     0
 74
     0
 75
     0
 76
     0
 77
     1
 78
     8
170
     0
171
     3
172
     1
173
     0
174
     0
175
     0
176
     0
177
     0
178
     0
  0
DIMSTYLE
  2
ANNOTATIVE
 70
     0
  3

  4

  5

  6

  7

 40
0.0
 41
2.5
 42
0.625
 43
3.75
 44
1.25
 45
0.0
 46
0.0
 47
0.0
 48
0.0
140
2.5
141
-2.5
142
0.0
143
0.03937007874016
144
1.0
145
0.0
146
1.0
147
0.625
 71
     0
 72
     0
 73
     0
 74
     0
 75
     0
 76
     0
 77
     1
 78
     8
170
     0
171
     3
172
     1
173
     0
174
     0
175
     0
176
     0
177
     0
178
     0
  0
ENDTAB
  0
ENDSEC
  0
SECTION
  2
BLOCKS
  0
BLOCK
  8
0
  2
$MODEL_SPACE
 70
     0
 10
0.0
 20
0.0
 30
0.0
  3
$MODEL_SPACE
  1

  0
ENDBLK
  5
21
  8
0
  0
BLOCK
 67
     1
  8
0
  2
$PAPER_SPACE
 70
     0
 10
0.0
 20
0.0
 30
0.0
  3
$PAPER_SPACE
  1

  0
ENDBLK
  5
1D
 67
     1
  8
0
  0
BLOCK
  8
0
  2
*X1
 70
     1
 10
0.0
 20
0.0
 30
0.0
  3
*X1
  1

  0
POLYLINE
  5
133B50
  8
0
 66
     1
 10
0.0
 20
0.0
 30
0.0
 70
    64
 71
     8
 72
     6
  0
VERTEX
  5
133B51
  8
0
 10
-5.997272035826733
 20
-7.5
 30
125.3184714606665
 70
   192
  0
VERTEX
  5
133B52
  8
0
 10
-5.623973449465091
 20
-6.750032511001712
 30
125.9690051803187
 70
   192
  0
VERTEX
  5
133B53
  8
0
 10
-10.03097150264204
 20
-6.750049998462841
 30
130.3760207212748
 70
   192
  0
VERTEX
  5
133B54
  8
0
 10
-11.49995436606474
 20
-6.750072314953016
 30
135.9999999999997
 70
   192
  0
VERTEX
  5
133B55
  8
0
 10
-12.24987456710438
 20
-7.500048713520596
 30
136.0
 70
   192
  0
VERTEX
  5
133B56
  8
0
 10
-10.68131362006529
 20
-7.500000000000001
 30
130.0023114941989
 70
   192
  0
VERTEX
  5
133B57
  8
0
 10
-0.0000000000000023
 20
-6.750026681848
 30
124.5
 70
   192
  0
VERTEX
  5
133B58
  8
0
 10
-0.0000000000000023
 20
-7.50009742705
 30
123.7501254329
 70
   192
  0
VERTEX
  5
133B59
  8
0
 10
0.0
 20
0.0
 30
0.0
 70
   128
 71
     1
 72
     2
 73
     3
  0
VERTEX
  5
133B5A
  8
0
 10
0.0
 20
0.0
 30
0.0
 70
   128
 71
     3
 72
     4
 73
     5
  0
VERTEX
  5
133B5B
  8
0
 10
0.0
 20
0.0
 30
0.0
 70
   128
 71
     6
 72
     3
 73
     5
  0
VERTEX
  5
133B5C
  8
0
 10
0.0
 20
0.0
 30
0.0
 70
   128
 71
     1
 72
     3
 73
     6
  0
VERTEX
  5
133B5D
  8
0
 10
0.0
 20
0.0
 30
0.0
 70
   128
 71
     7
 72
     2
 73
     1
  0
VERTEX
  5
133B5E
  8
0
 10
0.0
 20
0.0
 30
0.0
 70
   128
 71
     8
 72
     7
 73
     1
  0
SEQEND
  5
1345C8
  8
0
  0
POLYLINE
  5
133B5F
  8
0
 66
     1
 10
0.0
 20
0.0
 30
0.0
 70
    64
 71
     8
 72
     6
  0
VERTEX
  5
133B60
  8
0
 10
5.997272035768577
 20
-7.500000000000002
 30
146.6815285393564
 70
   192
  0
VERTEX
  5
133B61
  8
0
 10
5.623940474192164
 20
-6.750065485674661
 30
146.0309618444085
 70
   192
  0
VERTEX
  5
133B62
  8
0
 10
10.03093852736909
 20
-6.750082973135798
 30
141.6239463034524
 70
   192
  0
VERTEX
  5
133B63
  8
0
 10
11.49995436606471
 20
-6.750072314953037
 30
136.0000000000005
 70
   192
  0
VERTEX
  5
133B64
  8
0
 10
12.24987456710432
 20
-7.500048713520598
 30
136.0
 70
   192
  0
VERTEX
  5
133B65
  8
0
 10
10.68131362011738
 20
-7.500000000000003
 30
141.997688505707
 70
   192
  0
VERTEX
  5
133B66
  8
0
 10
-0.0000000000000026
 20
-6.750026681848001
 30
147.5
 70
   192
  0
VERTEX
  5
133B67
  8
0
 10
-0.0000000000000033
 20
-7.50009742705
 30
148.2498745671
 70
   192
  0
VERTEX
  5
133B68
  8
0
 10
0.0
 20
0.0
 30
0.0
 70
   128
 71
     1
 72
     2
 73
     3
  0
VERTEX
  5
133B69
  8
0
 10
0.0
 20
0.0
 30
0.0
 70
   128
 71
     3
 72
     4
 73
     5
  0
VERTEX
  5
133B6A
  8
0
 10
0.0
 20
0.0
 30
0.0
 70
   128
 71
     6
 72
     3
 73
     5
  0
VERTEX
  5
133B6B
  8
0
 10
0.0
 20
0.0
 30
0.0
 70
   128
 71
     1
 72
     3
 73
     6
  0
VERTEX
  5
133B6C
  8
0
 10
0.0
 20
0.0
 30
0.0
 70
   128
 71
     7
 72
     2
 73
     1
  0
VERTEX
  5
133B6D
  8
0
 10
0.0
 20
0.0
 30
0.0
 70
   128
 71
     8
 72
     7
 73
     1
  0
SEQEND
  5
1345C9
  8
0
  0
POLYLINE
  5
133B6E
  8
0
 66
     1
 10
0.0
 20
0.0
 30
0.0
 70
    64
 71
     4
 72
     2
  0
VERTEX
  5
133B6F
  8
0
 10
17.5
 20
6.999999999999999
 30
160.5
 70
   192
  0
VERTEX
  5
133B70
  8
0
 10
17.5
 20
-7.000000000000001
 30
160.5
 70
   192
  0
VERTEX
  5
133B71
  8
0
 10
17.5
 20
-7.000000000000001
 30
0.0000000000000002
 70
   192
  0
VERTEX
  5
133B72
  8
0
 10
17.5
 20
6.999999999999999
 30
0.0000000000000287
 70
   192
  0
VERTEX
  5
133B73
  8
0
 10
0.0
 20
0.0
 30
0.0
 70
   128
 71
     3
 72
     4
 73
    -1
  0
VERTEX
  5
133B74
  8
0
 10
0.0
 20
0.0
 30
0.0
 70
   128
 71
     2
 72
    -3
 73
     1
  0
SEQEND
  5
1345CA
  8
0
  0
POLYLINE
  5
133B75
  8
0
 66
     1
 10
0.0
 20
0.0
 30
0.0
 70
    64
 71
     8
 72
     6
  0
VERTEX
  5
133B76
  8
0
 10
17.5
 20
6.999999999999999
 30
0.0000000000000287
 70
   192
  0
VERTEX
  5
133B77
  8
0
 10
17.43613020955137
 20
7.244520838205434
 30
0.0000000000000287
 70
   192
  0
VERTEX
  5
133B78
  8
0
 10
17.24452083820544
 20
7.436130209551356
 30
0.0000000000000287
 70
   192
  0
VERTEX
  5
133B79
  8
0
 10
17.0
 20
7.499999999999999
 30
0.0000000000000287
 70
   192
  0
VERTEX
  5
133B7A
  8
0
 10
17.0
 20
7.499999999999999
 30
160.5
 70
   192
  0
VERTEX
  5
133B7B
  8
0
 10
17.24452083820544
 20
7.436130209551357
 30
160.5
 70
   192
  0
VERTEX
  5
133B7C
  8
0
 10
17.43613020955136
 20
7.244520838205433
 30
160.5
 70
   192
  0
VERTEX
  5
133B7D
  8
0
 10
17.5
 20
6.999999999999999
 30
160.5
 70
   192
  0
VERTEX
  5
133B7E
  8
0
 10
0.0
 20
0.0
 30
0.0
 70
   128
 71
     4
 72
     5
 73
    -6
  0
VERTEX
  5
133B7F
  8
0
 10
0.0
 20
0.0
 30
0.0
 70
   128
 71
     3
 72
    -4
 73
     6
  0
VERTEX
  5
133B80
  8
0
 10
0.0
 20
0.0
 30
0.0
 70
   128
 71
     7
 72
     2
 73
    -3
  0
VERTEX
  5
133B81
  8
0
 10
0.0
 20
0.0
 30
0.0
 70
   128
 71
     6
 72
    -7
 73
     3
  0
VERTEX
  5
133B82
  8
0
 10
0.0
 20
0.0
 30
0.0
 70
   128
 71
     8
 72
     1
 73
    -2
  0
VERTEX
  5
133B83
  8
0
 10
0.0
 20
0.0
 30
0.0
 70
   128
 71
     7
 72
    -8
 73
     2
  0
SEQEND
  5
1345CB
  8
0
  0
POLYLINE
  5
133B84
  8
0
 66
     1
 10
0.0
 20
0.0
 30
0.0
 70
    64
 71
    22
 72
    22
  0
VERTEX
  5
133B85
  8
0
 10
-17.0
 20
-7.499999999999999
 30
0.0000000000000282
 70
   192
  0
VERTEX
  5
133B86
  8
0
 10
-17.24452083820544
 20
-7.436130209551356
 30
0.0000000000000282
 70
   192
  0
VERTEX
  5
133B87
  8
0
 10
-17.43613020955136
 20
-7.244520838205433
 30
0.0000000000000282
 70
   192
  0
VERTEX
  5
133B88
  8
0
 10
-17.5
 20
-6.999999999999999
 30
0.0000000000000282
 70
   192
  0
VERTEX
  5
133B89
  8
0
 10
-17.5
 20
7.000000000000001
 30
-0.0000000000000002
 70
   192
  0
VERTEX
  5
133B8A
  8
0
 10
-17.43613020955136
 20
7.244520838205434
 30
-0.0000000000000002
 70
   192
  0
VERTEX
  5
133B8B
  8
0
 10
-17.24452083820544
 20
7.436130209551359
 30
-0.0000000000000002
 70
   192
  0
VERTEX
  5
133B8C
  8
0
 10
-17.0
 20
7.500000000000001
 30
-0.0000000000000002
 70
   192
  0
VERTEX
  5
133B8D
  8
0
 10
17.0
 20
7.499999999999999
 30
0.0000000000000287
 70
   192
  0
VERTEX
  5
133B8E
  8
0
 10
17.24452083820544
 20
7.436130209551356
 30
0.0000000000000287
 70
   192
  0
VERTEX
  5
133B8F
  8
0
 10
17.43613020955137
 20
7.244520838205434
 30
0.0000000000000287
 70
   192
  0
VERTEX
  5
133B90
  8
0
 10
17.5
 20
6.999999999999999
 30
0.0000000000000287
 70
   192
  0
VERTEX
  5
133B91
  8
0
 10
17.5
 20
-7.000000000000001
 30
0.0000000000000002
 70
   192
  0
VERTEX
  5
133B92
  8
0
 10
17.43613020955136
 20
-7.244520838205434
 30
0.0000000000000002
 70
   192
  0
VERTEX
  5
133B93
  8
0
 10
17.24452083820544
 20
-7.436130209551359
 30
0.0000000000000002
 70
   192
  0
VERTEX
  5
133B94
  8
0
 10
17.0
 20
-7.500000000000001
 30
0.0000000000000002
 70
   192
  0
VERTEX
  5
133B95
  8
0
 10
-0.0000000000000005
 20
-6.6
 30
0.0
 70
   192
  0
VERTEX
  5
133B96
  8
0
 10
5.756918766077935
 20
-3.227675064311733
 30
0.0000000000000001
 70
   192
  0
VERTEX
  5
133B97
  8
0
 10
5.756918766077934
 20
3.227675064311734
 30
0.0000000000000001
 70
   192
  0
VERTEX
  5
133B98
  8
0
 10
0.0000000000000005
 20
6.6
 30
0.0
 70
   192
  0
VERTEX
  5
133B99
  8
0
 10
-5.756918766077935
 20
3.227675064311733
 30
-0.0000000000000001
 70
   192
  0
VERTEX
  5
133B9A
  8
0
 10
-5.756918766077934
 20
-3.227675064311734
 30
-0.0000000000000001
 70
   192
  0
VERTEX
  5
133B9B
  8
0
 10
0.0
 20
0.0
 30
0.0
 70
   128
 71
   -16
 72
    17
 73
   -18
  0
VERTEX
  5
133B9C
  8
0
 10
0.0
 20
0.0
 30
0.0
 70
   128
 71
    14
 72
    15
 73
   -16
  0
VERTEX
  5
133B9D
  8
0
 10
0.0
 20
0.0
 30
0.0
 70
   128
 71
    13
 72
   -14
 73
   -16
  0
VERTEX
  5
133B9E
  8
0
 10
0.0
 20
0.0
 30
0.0
 70
   128
 71
    12
 72
   -13
 73
   -16
  0
VERTEX
  5
133B9F
  8
0
 10
0.0
 20
0.0
 30
0.0
 70
   128
 71
    11
 72
   -12
 73
   -16
  0
VERTEX
  5
133BA0
  8
0
 10
0.0
 20
0.0
 30
0.0
 70
   128
 71
    10
 72
   -11
 73
   -16
  0
VERTEX
  5
133BA1
  8
0
 10
0.0
 20
0.0
 30
0.0
 70
   128
 71
     9
 72
   -10
 73
   -16
  0
VERTEX
  5
133BA2
  8
0
 10
0.0
 20
0.0
 30
0.0
 70
   128
 71
   -19
 72
    -9
 73
   -16
  0
VERTEX
  5
133BA3
  8
0
 10
0.0
 20
0.0
 30
0.0
 70
   128
 71
    18
 72
   -19
 73
   -16
  0
VERTEX
  5
133BA4
  8
0
 10
0.0
 20
0.0
 30
0.0
 70
   128
 71
    19
 72
   -20
 73
    -9
  0
VERTEX
  5
133BA5
  8
0
 10
0.0
 20
0.0
 30
0.0
 70
   128
 71
     8
 72
    -9
 73
   -20
  0
VERTEX
  5
133BA6
  8
0
 10
0.0
 20
0.0
 30
0.0
 70
   128
 71
    20
 72
   -21
 73
    -8
  0
VERTEX
  5
133BA7
  8
0
 10
0.0
 20
0.0
 30
0.0
 70
   128
 71
     6
 72
     7
 73
    -8
  0
VERTEX
  5
133BA8
  8
0
 10
0.0
 20
0.0
 30
0.0
 70
   128
 71
     5
 72
    -6
 73
    -8
  0
VERTEX
  5
133BA9
  8
0
 10
0.0
 20
0.0
 30
0.0
 70
   128
 71
     4
 72
    -5
 73
    -8
  0
VERTEX
  5
133BAA
  8
0
 10
0.0
 20
0.0
 30
0.0
 70
   128
 71
     3
 72
    -4
 73
    -8
  0
VERTEX
  5
133BAB
  8
0
 10
0.0
 20
0.0
 30
0.0
 70
   128
 71
     2
 72
    -3
 73
    -8
  0
VERTEX
  5
133BAC
  8
0
 10
0.0
 20
0.0
 30
0.0
 70
   128
 71
     1
 72
    -2
 73
    -8
  0
VERTEX
  5
133BAD
  8
0
 10
0.0
 20
0.0
 30
0.0
 70
   128
 71
   -22
 72
    -1
 73
    -8
  0
VERTEX
  5
133BAE
  8
0
 10
0.0
 20
0.0
 30
0.0
 70
   128
 71
    21
 72
   -22
 73
    -8
  0
VERTEX
  5
133BAF
  8
0
 10
0.0
 20
0.0
 30
0.0
 70
   128
 71
    22
 72
   -17
 73
    -1
  0
VERTEX
  5
133BB0
  8
0
 10
0.0
 20
0.0
 30
0.0
 70
   128
 71
   -17
 72
    16
 73
    -1
  0
SEQEND
  5
1345CC
  8
0
  0
POLYLINE
  5
133BB1
  8
0
 66
     1
 10
0.0
 20
0.0
 30
0.0
 70
    64
 71
     8
 72
     6
  0
VERTEX
  5
133BB2
  8
0
 10
0.0000000000000005
 20
6.6
 30
0.0
 70
   192
  0
VERTEX
  5
133BB3
  8
0
 10
0.0000000000000005
 20
6.6
 30
-2.5
 70
   192
  0
VERTEX
  5
133BB4
  8
0
 10
-5.756918766077935
 20
3.227675064311731
 30
-2.5
 70
   192
  0
VERTEX
  5
133BB5
  8
0
 10
-5.756918766077935
 20
3.227675064311733
 30
-0.0000000000000001
 70
   192
  0
VERTEX
  5
133BB6
  8
0
 10
-0.0000000000000004
 20
-6.6
 30
-2.5
 70
   192
  0
VERTEX
  5
133BB7
  8
0
 10
-0.0000000000000005
 20
-6.6
 30
0.0
 70
   192
  0
VERTEX
  5
133BB8
  8
0
 10
-5.756918766077934
 20
-3.227675064311734
 30
-0.0000000000000001
 70
   192
  0
VERTEX
  5
133BB9
  8
0
 10
-5.756918766077932
 20
-3.227675064311734
 30
-2.5
 70
   192
  0
VERTEX
  5
133BBA
  8
0
 10
0.0
 20
0.0
 30
0.0
 70
   128
 71
     1
 72
     2
 73
    -3
  0
VERTEX
  5
133BBB
  8
0
 10
0.0
 20
0.0
 30
0.0
 70
   128
 71
     4
 72
    -1
 73
     3
  0
VERTEX
  5
133BBC
  8
0
 10
0.0
 20
0.0
 30
0.0
 70
   128
 71
     5
 72
     6
 73
    -7
  0
VERTEX
  5
133BBD
  8
0
 10
0.0
 20
0.0
 30
0.0
 70
   128
 71
     8
 72
    -5
 73
     7
  0
VERTEX
  5
133BBE
  8
0
 10
0.0
 20
0.0
 30
0.0
 70
   128
 71
     7
 72
    -4
 73
     8
  0
VERTEX
  5
133BBF
  8
0
 10
0.0
 20
0.0
 30
0.0
 70
   128
 71
    -8
 72
     4
 73
     3
  0
SEQEND
  5
1345CD
  8
0
  0
POLYLINE
  5
133BC0
  8
0
 66
     1
 10
0.0
 20
0.0
 30
0.0
 70
    64
 71
     8
 72
     6
  0
VERTEX
  5
133BC1
  8
0
 10
-0.0000000000000005
 20
-6.6
 30
0.0
 70
   192
  0
VERTEX
  5
133BC2
  8
0
 10
-0.0000000000000004
 20
-6.6
 30
-2.5
 70
   192
  0
VERTEX
  5
133BC3
  8
0
 10
5.756918766077936
 20
-3.227675064311731
 30
-2.5
 70
   192
  0
VERTEX
  5
133BC4
  8
0
 10
5.756918766077935
 20
-3.227675064311733
 30
0.0000000000000001
 70
   192
  0
VERTEX
  5
133BC5
  8
0
 10
0.0000000000000005
 20
6.6
 30
-2.5
 70
   192
  0
VERTEX
  5
133BC6
  8
0
 10
0.0000000000000005
 20
6.6
 30
0.0
 70
   192
  0
VERTEX
  5
133BC7
  8
0
 10
5.756918766077934
 20
3.227675064311734
 30
0.0000000000000001
 70
   192
  0
VERTEX
  5
133BC8
  8
0
 10
5.756918766077934
 20
3.227675064311734
 30
-2.5
 70
   192
  0
VERTEX
  5
133BC9
  8
0
 10
0.0
 20
0.0
 30
0.0
 70
   128
 71
     1
 72
     2
 73
    -3
  0
VERTEX
  5
133BCA
  8
0
 10
0.0
 20
0.0
 30
0.0
 70
   128
 71
     4
 72
    -1
 73
     3
  0
VERTEX
  5
133BCB
  8
0
 10
0.0
 20
0.0
 30
0.0
 70
   128
 71
     5
 72
     6
 73
    -7
  0
VERTEX
  5
133BCC
  8
0
 10
0.0
 20
0.0
 30
0.0
 70
   128
 71
     8
 72
    -5
 73
     7
  0
VERTEX
  5
133BCD
  8
0
 10
0.0
 20
0.0
 30
0.0
 70
   128
 71
     7
 72
    -4
 73
     8
  0
VERTEX
  5
133BCE
  8
0
 10
0.0
 20
0.0
 30
0.0
 70
   128
 71
    -8
 72
     4
 73
     3
  0
SEQEND
  5
1345CE
  8
0
  0
POLYLINE
  5
133BCF
  8
0
 66
     1
 10
0.0
 20
0.0
 30
0.0
 70
    64
 71
    12
 72
    12
  0
VERTEX
  5
133BD0
  8
0
 10
-0.0000000000000004
 20
-6.6
 30
-2.5
 70
   192
  0
VERTEX
  5
133BD1
  8
0
 10
-5.756918766077932
 20
-3.227675064311734
 30
-2.5
 70
   192
  0
VERTEX
  5
133BD2
  8
0
 10
-5.756918766077935
 20
3.227675064311731
 30
-2.5
 70
   192
  0
VERTEX
  5
133BD3
  8
0
 10
0.0000000000000005
 20
6.6
 30
-2.5
 70
   192
  0
VERTEX
  5
133BD4
  8
0
 10
5.756918766077934
 20
3.227675064311734
 30
-2.5
 70
   192
  0
VERTEX
  5
133BD5
  8
0
 10
5.756918766077936
 20
-3.227675064311731
 30
-2.5
 70
   192
  0
VERTEX
  5
133BD6
  8
0
 10
0.0000000000000004
 20
5.5
 30
-2.5
 70
   192
  0
VERTEX
  5
133BD7
  8
0
 10
-4.797432305064952
 20
2.689729220259764
 30
-2.5
 70
   192
  0
VERTEX
  5
133BD8
  8
0
 10
-4.797432305064937
 20
-2.689729220259788
 30
-2.5
 70
   192
  0
VERTEX
  5
133BD9
  8
0
 10
-0.0000000000000003
 20
-5.5
 30
-2.5
 70
   192
  0
VERTEX
  5
133BDA
  8
0
 10
4.797432305064952
 20
-2.689729220259764
 30
-2.5
 70
   192
  0
VERTEX
  5
133BDB
  8
0
 10
4.797432305064937
 20
2.689729220259789
 30
-2.5
 70
   192
  0
VERTEX
  5
133BDC
  8
0
 10
0.0
 20
0.0
 30
0.0
 70
   128
 71
    -4
 72
     7
 73
    -8
  0
VERTEX
  5
133BDD
  8
0
 10
0.0
 20
0.0
 30
0.0
 70
   128
 71
     3
 72
    -4
 73
    -8
  0
VERTEX
  5
133BDE
  8
0
 10
0.0
 20
0.0
 30
0.0
 70
   128
 71
    -9
 72
     2
 73
    -3
  0
VERTEX
  5
133BDF
  8
0
 10
0.0
 20
0.0
 30
0.0
 70
   128
 71
     8
 72
    -9
 73
    -3
  0
VERTEX
  5
133BE0
  8
0
 10
0.0
 20
0.0
 30
0.0
 70
   128
 71
   -10
 72
     1
 73
    -2
  0
VERTEX
  5
133BE1
  8
0
 10
0.0
 20
0.0
 30
0.0
 70
   128
 71
     9
 72
   -10
 73
    -2
  0
VERTEX
  5
133BE2
  8
0
 10
0.0
 20
0.0
 30
0.0
 70
   128
 71
   -11
 72
     6
 73
    -1
  0
VERTEX
  5
133BE3
  8
0
 10
0.0
 20
0.0
 30
0.0
 70
   128
 71
    10
 72
   -11
 73
    -1
  0
VERTEX
  5
133BE4
  8
0
 10
0.0
 20
0.0
 30
0.0
 70
   128
 71
   -12
 72
     5
 73
    -6
  0
VERTEX
  5
133BE5
  8
0
 10
0.0
 20
0.0
 30
0.0
 70
   128
 71
    11
 72
   -12
 73
    -6
  0
VERTEX
  5
133BE6
  8
0
 10
0.0
 20
0.0
 30
0.0
 70
   128
 71
    -7
 72
     4
 73
    -5
  0
VERTEX
  5
133BE7
  8
0
 10
0.0
 20
0.0
 30
0.0
 70
   128
 71
    12
 72
    -7
 73
    -5
  0
SEQEND
  5
1345CF
  8
0
  0
POLYLINE
  5
133BE8
  8
0
 66
     1
 10
0.0
 20
0.0
 30
0.0
 70
    64
 71
     8
 72
     6
  0
VERTEX
  5
133BE9
  8
0
 10
0.0000000000000004
 20
5.5
 30
-2.5
 70
   192
  0
VERTEX
  5
133BEA
  8
0
 10
0.0000000000000004
 20
5.5
 30
-4.5
 70
   192
  0
VERTEX
  5
133BEB
  8
0
 10
-4.797432305064937
 20
2.68972922025979
 30
-4.499999999999999
 70
   192
  0
VERTEX
  5
133BEC
  8
0
 10
-4.797432305064952
 20
2.689729220259764
 30
-2.5
 70
   192
  0
VERTEX
  5
133BED
  8
0
 10
-0.0000000000000003
 20
-5.5
 30
-4.5
 70
   192
  0
VERTEX
  5
133BEE
  8
0
 10
-0.0000000000000003
 20
-5.5
 30
-2.5
 70
   192
  0
VERTEX
  5
133BEF
  8
0
 10
-4.797432305064937
 20
-2.689729220259788
 30
-2.5
 70
   192
  0
VERTEX
  5
133BF0
  8
0
 10
-4.797432305064952
 20
-2.689729220259764
 30
-4.499999999999999
 70
   192
  0
VERTEX
  5
133BF1
  8
0
 10
0.0
 20
0.0
 30
0.0
 70
   128
 71
     1
 72
     2
 73
    -3
  0
VERTEX
  5
133BF2
  8
0
 10
0.0
 20
0.0
 30
0.0
 70
   128
 71
     4
 72
    -1
 73
     3
  0
VERTEX
  5
133BF3
  8
0
 10
0.0
 20
0.0
 30
0.0
 70
   128
 71
     5
 72
     6
 73
    -7
  0
VERTEX
  5
133BF4
  8
0
 10
0.0
 20
0.0
 30
0.0
 70
   128
 71
     8
 72
    -5
 73
     7
  0
VERTEX
  5
133BF5
  8
0
 10
0.0
 20
0.0
 30
0.0
 70
   128
 71
     7
 72
    -4
 73
     8
  0
VERTEX
  5
133BF6
  8
0
 10
0.0
 20
0.0
 30
0.0
 70
   128
 71
    -8
 72
     4
 73
     3
  0
SEQEND
  5
1345D0
  8
0
  0
POLYLINE
  5
133BF7
  8
0
 66
     1
 10
0.0
 20
0.0
 30
0.0
 70
    64
 71
     8
 72
     6
  0
VERTEX
  5
133BF8
  8
0
 10
-0.0000000000000003
 20
-5.5
 30
-2.5
 70
   192
  0
VERTEX
  5
133BF9
  8
0
 10
-0.0000000000000003
 20
-5.5
 30
-4.5
 70
   192
  0
VERTEX
  5
133BFA
  8
0
 10
4.797432305064937
 20
-2.689729220259789
 30
-4.499999999999999
 70
   192
  0
VERTEX
  5
133BFB
  8
0
 10
4.797432305064952
 20
-2.689729220259764
 30
-2.5
 70
   192
  0
VERTEX
  5
133BFC
  8
0
 10
0.0000000000000004
 20
5.5
 30
-4.5
 70
   192
  0
VERTEX
  5
133BFD
  8
0
 10
0.0000000000000004
 20
5.5
 30
-2.5
 70
   192
  0
VERTEX
  5
133BFE
  8
0
 10
4.797432305064937
 20
2.689729220259789
 30
-2.5
 70
   192
  0
VERTEX
  5
133BFF
  8
0
 10
4.797432305064952
 20
2.689729220259764
 30
-4.499999999999999
 70
   192
  0
VERTEX
  5
133C00
  8
0
 10
0.0
 20
0.0
 30
0.0
 70
   128
 71
     1
 72
     2
 73
    -3
  0
VERTEX
  5
133C01
  8
0
 10
0.0
 20
0.0
 30
0.0
 70
   128
 71
     4
 72
    -1
 73
     3
  0
VERTEX
  5
133C02
  8
0
 10
0.0
 20
0.0
 30
0.0
 70
   128
 71
     5
 72
     6
 73
    -7
  0
VERTEX
  5
133C03
  8
0
 10
0.0
 20
0.0
 30
0.0
 70
   128
 71
     8
 72
    -5
 73
     7
  0
VERTEX
  5
133C04
  8
0
 10
0.0
 20
0.0
 30
0.0
 70
   128
 71
     7
 72
    -4
 73
     8
  0
VERTEX
  5
133C05
  8
0
 10
0.0
 20
0.0
 30
0.0
 70
   128
 71
    -8
 72
     4
 73
     3
  0
SEQEND
  5
1345D1
  8
0
  0
POLYLINE
  5
133C06
  8
0
 66
     1
 10
0.0
 20
0.0
 30
0.0
 70
    64
 71
    12
 72
    12
  0
VERTEX
  5
133C07
  8
0
 10
0.0000000000000005
 20
6.5
 30
-4.5
 70
   192
  0
VERTEX
  5
133C08
  8
0
 10
-5.669692724167676
 20
3.178770896670615
 30
-4.5
 70
   192
  0
VERTEX
  5
133C09
  8
0
 10
-5.669692724167644
 20
-3.178770896670672
 30
-4.5
 70
   192
  0
VERTEX
  5
133C0A
  8
0
 10
-0.0000000000000004
 20
-6.5
 30
-4.5
 70
   192
  0
VERTEX
  5
133C0B
  8
0
 10
5.669692724167676
 20
-3.178770896670614
 30
-4.5
 70
   192
  0
VERTEX
  5
133C0C
  8
0
 10
5.669692724167644
 20
3.178770896670673
 30
-4.5
 70
   192
  0
VERTEX
  5
133C0D
  8
0
 10
-0.0000000000000003
 20
-5.5
 30
-4.5
 70
   192
  0
VERTEX
  5
133C0E
  8
0
 10
-4.797432305064952
 20
-2.689729220259764
 30
-4.499999999999999
 70
   192
  0
VERTEX
  5
133C0F
  8
0
 10
-4.797432305064937
 20
2.68972922025979
 30
-4.499999999999999
 70
   192
  0
VERTEX
  5
133C10
  8
0
 10
0.0000000000000004
 20
5.5
 30
-4.5
 70
   192
  0
VERTEX
  5
133C11
  8
0
 10
4.797432305064952
 20
2.689729220259764
 30
-4.499999999999999
 70
   192
  0
VERTEX
  5
133C12
  8
0
 10
4.797432305064937
 20
-2.689729220259789
 30
-4.499999999999999
 70
   192
  0
VERTEX
  5
133C13
  8
0
 10
0.0
 20
0.0
 30
0.0
 70
   128
 71
    -4
 72
     7
 73
    -8
  0
VERTEX
  5
133C14
  8
0
 10
0.0
 20
0.0
 30
0.0
 70
   128
 71
     3
 72
    -4
 73
    -8
  0
VERTEX
  5
133C15
  8
0
 10
0.0
 20
0.0
 30
0.0
 70
   128
 71
    -9
 72
     2
 73
    -3
  0
VERTEX
  5
133C16
  8
0
 10
0.0
 20
0.0
 30
0.0
 70
   128
 71
     8
 72
    -9
 73
    -3
  0
VERTEX
  5
133C17
  8
0
 10
0.0
 20
0.0
 30
0.0
 70
   128
 71
   -10
 72
     1
 73
    -2
  0
VERTEX
  5
133C18
  8
0
 10
0.0
 20
0.0
 30
0.0
 70
   128
 71
     9
 72
   -10
 73
    -2
  0
VERTEX
  5
133C19
  8
0
 10
0.0
 20
0.0
 30
0.0
 70
   128
 71
   -11
 72
     6
 73
    -1
  0
VERTEX
  5
133C1A
  8
0
 10
0.0
 20
0.0
 30
0.0
 70
   128
 71
    10
 72
   -11
 73
    -1
  0
VERTEX
  5
133C1B
  8
0
 10
0.0
 20
0.0
 30
0.0
 70
   128
 71
   -12
 72
     5
 73
    -6
  0
VERTEX
  5
133C1C
  8
0
 10
0.0
 20
0.0
 30
0.0
 70
   128
 71
    11
 72
   -12
 73
    -6
  0
VERTEX
  5
133C1D
  8
0
 10
0.0
 20
0.0
 30
0.0
 70
   128
 71
    -7
 72
     4
 73
    -5
  0
VERTEX
  5
133C1E
  8
0
 10
0.0
 20
0.0
 30
0.0
 70
   128
 71
    12
 72
    -7
 73
    -5
  0
SEQEND
  5
1345D2
  8
0
  0
POLYLINE
  5
133C1F
  8
0
 66
     1
 10
0.0
 20
0.0
 30
0.0
 70
    64
 71
     8
 72
     6
  0
VERTEX
  5
133C20
  8
0
 10
0.0000000000000005
 20
6.5
 30
-4.5
 70
   192
  0
VERTEX
  5
133C21
  8
0
 10
0.0000000000000006
 20
6.5
 30
-10.5
 70
   192
  0
VERTEX
  5
133C22
  8
0
 10
-5.669692724167643
 20
3.178770896670674
 30
-10.5
 70
   192
  0
VERTEX
  5
133C23
  8
0
 10
-5.669692724167676
 20
3.178770896670615
 30
-4.5
 70
   192
  0
VERTEX
  5
133C24
  8
0
 10
-0.0000000000000003
 20
-6.5
 30
-10.5
 70
   192
  0
VERTEX
  5
133C25
  8
0
 10
-0.0000000000000004
 20
-6.5
 30
-4.5
 70
   192
  0
VERTEX
  5
133C26
  8
0
 10
-5.669692724167644
 20
-3.178770896670672
 30
-4.5
 70
   192
  0
VERTEX
  5
133C27
  8
0
 10
-5.669692724167678
 20
-3.178770896670613
 30
-10.5
 70
   192
  0
VERTEX
  5
133C28
  8
0
 10
0.0
 20
0.0
 30
0.0
 70
   128
 71
     1
 72
     2
 73
    -3
  0
VERTEX
  5
133C29
  8
0
 10
0.0
 20
0.0
 30
0.0
 70
   128
 71
     4
 72
    -1
 73
     3
  0
VERTEX
  5
133C2A
  8
0
 10
0.0
 20
0.0
 30
0.0
 70
   128
 71
     5
 72
     6
 73
    -7
  0
VERTEX
  5
133C2B
  8
0
 10
0.0
 20
0.0
 30
0.0
 70
   128
 71
     8
 72
    -5
 73
     7
  0
VERTEX
  5
133C2C
  8
0
 10
0.0
 20
0.0
 30
0.0
 70
   128
 71
     7
 72
    -4
 73
     8
  0
VERTEX
  5
133C2D
  8
0
 10
0.0
 20
0.0
 30
0.0
 70
   128
 71
    -8
 72
     4
 73
     3
  0
SEQEND
  5
1345D3
  8
0
  0
POLYLINE
  5
133C2E
  8
0
 66
     1
 10
0.0
 20
0.0
 30
0.0
 70
    64
 71
     8
 72
     6
  0
VERTEX
  5
133C2F
  8
0
 10
0.0000000000000006
 20
6.5
 30
-10.5
 70
   192
  0
VERTEX
  5
133C30
  8
0
 10
0.0000000000000006
 20
6.0
 30
-11.0
 70
   192
  0
VERTEX
  5
133C31
  8
0
 10
-5.233562514616296
 20
2.934250058465224
 30
-11.0
 70
   192
  0
VERTEX
  5
133C32
  8
0
 10
-5.669692724167643
 20
3.178770896670674
 30
-10.5
 70
   192
  0
VERTEX
  5
133C33
  8
0
 10
-0.0000000000000003
 20
-6.0
 30
-11.0
 70
   192
  0
VERTEX
  5
133C34
  8
0
 10
-0.0000000000000003
 20
-6.5
 30
-10.5
 70
   192
  0
VERTEX
  5
133C35
  8
0
 10
-5.669692724167678
 20
-3.178770896670613
 30
-10.5
 70
   192
  0
VERTEX
  5
133C36
  8
0
 10
-5.233562514616311
 20
-2.934250058465198
 30
-11.0
 70
   192
  0
VERTEX
  5
133C37
  8
0
 10
0.0
 20
0.0
 30
0.0
 70
   128
 71
     1
 72
     2
 73
    -3
  0
VERTEX
  5
133C38
  8
0
 10
0.0
 20
0.0
 30
0.0
 70
   128
 71
     4
 72
    -1
 73
     3
  0
VERTEX
  5
133C39
  8
0
 10
0.0
 20
0.0
 30
0.0
 70
   128
 71
     5
 72
     6
 73
    -7
  0
VERTEX
  5
133C3A
  8
0
 10
0.0
 20
0.0
 30
0.0
 70
   128
 71
     8
 72
    -5
 73
     7
  0
VERTEX
  5
133C3B
  8
0
 10
0.0
 20
0.0
 30
0.0
 70
   128
 71
     7
 72
    -4
 73
     8
  0
VERTEX
  5
133C3C
  8
0
 10
0.0
 20
0.0
 30
0.0
 70
   128
 71
    -8
 72
     4
 73
     3
  0
SEQEND
  5
1345D4
  8
0
  0
POLYLINE
  5
133C3D
  8
0
 66
     1
 10
0.0
 20
0.0
 30
0.0
 70
    64
 71
    12
 72
    12
  0
VERTEX
  5
133C3E
  8
0
 10
-0.0000000000000003
 20
-6.0
 30
-11.0
 70
   192
  0
VERTEX
  5
133C3F
  8
0
 10
-5.233562514616311
 20
-2.934250058465198
 30
-11.0
 70
   192
  0
VERTEX
  5
133C40
  8
0
 10
-5.233562514616296
 20
2.934250058465224
 30
-11.0
 70
   192
  0
VERTEX
  5
133C41
  8
0
 10
0.0000000000000006
 20
6.0
 30
-11.0
 70
   192
  0
VERTEX
  5
133C42
  8
0
 10
5.233562514616311
 20
2.934250058465198
 30
-11.0
 70
   192
  0
VERTEX
  5
133C43
  8
0
 10
5.233562514616296
 20
-2.934250058465224
 30
-11.0
 70
   192
  0
VERTEX
  5
133C44
  8
0
 10
-0.0000000000000002
 20
-4.5
 30
-11.0
 70
   192
  0
VERTEX
  5
133C45
  8
0
 10
3.925171885962234
 20
-2.200687543848896
 30
-11.0
 70
   192
  0
VERTEX
  5
133C46
  8
0
 10
3.92517188596222
 20
2.20068754384892
 30
-11.0
 70
   192
  0
VERTEX
  5
133C47
  8
0
 10
0.0000000000000005
 20
4.5
 30
-11.0
 70
   192
  0
VERTEX
  5
133C48
  8
0
 10
-3.925171885962233
 20
2.200687543848896
 30
-11.0
 70
   192
  0
VERTEX
  5
133C49
  8
0
 10
-3.92517188596222
 20
-2.20068754384892
 30
-11.0
 70
   192
  0
VERTEX
  5
133C4A
  8
0
 10
0.0
 20
0.0
 30
0.0
 70
   128
 71
    -1
 72
     7
 73
    -8
  0
VERTEX
  5
133C4B
  8
0
 10
0.0
 20
0.0
 30
0.0
 70
   128
 71
     6
 72
    -1
 73
    -8
  0
VERTEX
  5
133C4C
  8
0
 10
0.0
 20
0.0
 30
0.0
 70
   128
 71
    -9
 72
     5
 73
    -6
  0
VERTEX
  5
133C4D
  8
0
 10
0.0
 20
0.0
 30
0.0
 70
   128
 71
     8
 72
    -9
 73
    -6
  0
VERTEX
  5
133C4E
  8
0
 10
0.0
 20
0.0
 30
0.0
 70
   128
 71
   -10
 72
     4
 73
    -5
  0
VERTEX
  5
133C4F
  8
0
 10
0.0
 20
0.0
 30
0.0
 70
   128
 71
     9
 72
   -10
 73
    -5
  0
VERTEX
  5
133C50
  8
0
 10
0.0
 20
0.0
 30
0.0
 70
   128
 71
   -11
 72
     3
 73
    -4
  0
VERTEX
  5
133C51
  8
0
 10
0.0
 20
0.0
 30
0.0
 70
   128
 71
    10
 72
   -11
 73
    -4
  0
VERTEX
  5
133C52
  8
0
 10
0.0
 20
0.0
 30
0.0
 70
   128
 71
   -12
 72
     2
 73
    -3
  0
VERTEX
  5
133C53
  8
0
 10
0.0
 20
0.0
 30
0.0
 70
   128
 71
    11
 72
   -12
 73
    -3
  0
VERTEX
  5
133C54
  8
0
 10
0.0
 20
0.0
 30
0.0
 70
   128
 71
    -7
 72
     1
 73
    -2
  0
VERTEX
  5
133C55
  8
0
 10
0.0
 20
0.0
 30
0.0
 70
   128
 71
    12
 72
    -7
 73
    -2
  0
SEQEND
  5
1345D5
  8
0
  0
POLYLINE
  5
133C56
  8
0
 66
     1
 10
0.0
 20
0.0
 30
0.0
 70
    64
 71
     8
 72
     6
  0
VERTEX
  5
133C57
  8
0
 10
-0.0000000000000003
 20
-6.5
 30
-10.5
 70
   192
  0
VERTEX
  5
133C58
  8
0
 10
-0.0000000000000003
 20
-6.0
 30
-11.0
 70
   192
  0
VERTEX
  5
133C59
  8
0
 10
5.233562514616296
 20
-2.934250058465224
 30
-11.0
 70
   192
  0
VERTEX
  5
133C5A
  8
0
 10
5.669692724167678
 20
-3.178770896670614
 30
-10.5
 70
   192
  0
VERTEX
  5
133C5B
  8
0
 10
0.0000000000000006
 20
6.0
 30
-11.0
 70
   192
  0
VERTEX
  5
133C5C
  8
0
 10
0.0000000000000006
 20
6.5
 30
-10.5
 70
   192
  0
VERTEX
  5
133C5D
  8
0
 10
5.669692724167643
 20
3.178770896670674
 30
-10.5
 70
   192
  0
VERTEX
  5
133C5E
  8
0
 10
5.233562514616311
 20
2.934250058465198
 30
-11.0
 70
   192
  0
VERTEX
  5
133C5F
  8
0
 10
0.0
 20
0.0
 30
0.0
 70
   128
 71
     1
 72
     2
 73
    -3
  0
VERTEX
  5
133C60
  8
0
 10
0.0
 20
0.0
 30
0.0
 70
   128
 71
     4
 72
    -1
 73
     3
  0
VERTEX
  5
133C61
  8
0
 10
0.0
 20
0.0
 30
0.0
 70
   128
 71
     5
 72
     6
 73
    -7
  0
VERTEX
  5
133C62
  8
0
 10
0.0
 20
0.0
 30
0.0
 70
   128
 71
     8
 72
    -5
 73
     7
  0
VERTEX
  5
133C63
  8
0
 10
0.0
 20
0.0
 30
0.0
 70
   128
 71
     7
 72
    -4
 73
     8
  0
VERTEX
  5
133C64
  8
0
 10
0.0
 20
0.0
 30
0.0
 70
   128
 71
    -8
 72
     4
 73
     3
  0
SEQEND
  5
1345D6
  8
0
  0
POLYLINE
  5
133C65
  8
0
 66
     1
 10
0.0
 20
0.0
 30
0.0
 70
    64
 71
     8
 72
     6
  0
VERTEX
  5
133C66
  8
0
 10
-0.0000000000000004
 20
-6.5
 30
-4.5
 70
   192
  0
VERTEX
  5
133C67
  8
0
 10
-0.0000000000000003
 20
-6.5
 30
-10.5
 70
   192
  0
VERTEX
  5
133C68
  8
0
 10
5.669692724167678
 20
-3.178770896670614
 30
-10.5
 70
   192
  0
VERTEX
  5
133C69
  8
0
 10
5.669692724167676
 20
-3.178770896670614
 30
-4.5
 70
   192
  0
VERTEX
  5
133C6A
  8
0
 10
0.0000000000000006
 20
6.5
 30
-10.5
 70
   192
  0
VERTEX
  5
133C6B
  8
0
 10
0.0000000000000005
 20
6.5
 30
-4.5
 70
   192
  0
VERTEX
  5
133C6C
  8
0
 10
5.669692724167644
 20
3.178770896670673
 30
-4.5
 70
   192
  0
VERTEX
  5
133C6D
  8
0
 10
5.669692724167643
 20
3.178770896670674
 30
-10.5
 70
   192
  0
VERTEX
  5
133C6E
  8
0
 10
0.0
 20
0.0
 30
0.0
 70
   128
 71
     1
 72
     2
 73
    -3
  0
VERTEX
  5
133C6F
  8
0
 10
0.0
 20
0.0
 30
0.0
 70
   128
 71
     4
 72
    -1
 73
     3
  0
VERTEX
  5
133C70
  8
0
 10
0.0
 20
0.0
 30
0.0
 70
   128
 71
     5
 72
     6
 73
    -7
  0
VERTEX
  5
133C71
  8
0
 10
0.0
 20
0.0
 30
0.0
 70
   128
 71
     8
 72
    -5
 73
     7
  0
VERTEX
  5
133C72
  8
0
 10
0.0
 20
0.0
 30
0.0
 70
   128
 71
     7
 72
    -4
 73
     8
  0
VERTEX
  5
133C73
  8
0
 10
0.0
 20
0.0
 30
0.0
 70
   128
 71
    -8
 72
     4
 73
     3
  0
SEQEND
  5
1345D7
  8
0
  0
POLYLINE
  5
133C74
  8
0
 66
     1
 10
0.0
 20
0.0
 30
0.0
 70
    64
 71
     8
 72
     6
  0
VERTEX
  5
133C75
  8
0
 10
0.0000000000000004
 20
4.0
 30
-10.5
 70
   192
  0
VERTEX
  5
133C76
  8
0
 10
0.0000000000000005
 20
4.5
 30
-11.0
 70
   192
  0
VERTEX
  5
133C77
  8
0
 10
3.92517188596222
 20
2.20068754384892
 30
-11.0
 70
   192
  0
VERTEX
  5
133C78
  8
0
 10
3.925171885962234
 20
-2.200687543848896
 30
-11.0
 70
   192
  0
VERTEX
  5
133C79
  8
0
 10
-0.0000000000000002
 20
-4.5
 30
-11.0
 70
   192
  0
VERTEX
  5
133C7A
  8
0
 10
-0.0000000000000001
 20
-4.0
 30
-10.5
 70
   192
  0
VERTEX
  5
133C7B
  8
0
 10
3.489041676410864
 20
-1.956166705643478
 30
-10.5
 70
   192
  0
VERTEX
  5
133C7C
  8
0
 10
3.48904167641087
 20
1.956166705643467
 30
-10.5
 70
   192
  0
VERTEX
  5
133C7D
  8
0
 10
0.0
 20
0.0
 30
0.0
 70
   128
 71
     5
 72
     6
 73
    -7
  0
VERTEX
  5
133C7E
  8
0
 10
0.0
 20
0.0
 30
0.0
 70
   128
 71
     4
 72
    -5
 73
     7
  0
VERTEX
  5
133C7F
  8
0
 10
0.0
 20
0.0
 30
0.0
 70
   128
 71
     8
 72
     3
 73
    -4
  0
VERTEX
  5
133C80
  8
0
 10
0.0
 20
0.0
 30
0.0
 70
   128
 71
     7
 72
    -8
 73
     4
  0
VERTEX
  5
133C81
  8
0
 10
0.0
 20
0.0
 30
0.0
 70
   128
 71
     1
 72
     2
 73
    -3
  0
VERTEX
  5
133C82
  8
0
 10
0.0
 20
0.0
 30
0.0
 70
   128
 71
     8
 72
    -1
 73
     3
  0
SEQEND
  5
1345D8
  8
0
  0
POLYLINE
  5
133C83
  8
0
 66
     1
 10
0.0
 20
0.0
 30
0.0
 70
    64
 71
    16
 72
    14
  0
VERTEX
  5
133C84
  8
0
 10
-1.956166705643473
 20
-3.489041676410868
 30
0.0
 70
   192
  0
VERTEX
  5
133C85
  8
0
 10
-1.956166705643478
 20
-3.489041676410864
 30
0.9999999999999999
 70
   192
  0
VERTEX
  5
133C86
  8
0
 10
1.956166705643467
 20
-3.48904167641087
 30
0.9999999999999999
 70
   192
  0
VERTEX
  5
133C87
  8
0
 10
-0.0000000000000003
 20
-4.0
 30
0.0
 70
   192
  0
VERTEX
  5
133C88
  8
0
 10
-3.489041676410867
 20
-1.956166705643472
 30
-0.0000000000000001
 70
   192
  0
VERTEX
  5
133C89
  8
0
 10
-4.0
 20
0.0000000000000003
 30
1.0
 70
   192
  0
VERTEX
  5
133C8A
  8
0
 10
-4.0
 20
0.0000000000000003
 30
-0.0000000000000001
 70
   192
  0
VERTEX
  5
133C8B
  8
0
 10
3.48904167641087
 20
1.956166705643467
 30
-10.5
 70
   192
  0
VERTEX
  5
133C8C
  8
0
 10
3.489041676410868
 20
1.956166705643472
 30
0.0000000000000001
 70
   192
  0
VERTEX
  5
133C8D
  8
0
 10
1.956166705643473
 20
3.489041676410867
 30
0.0
 70
   192
  0
VERTEX
  5
133C8E
  8
0
 10
0.0000000000000004
 20
4.0
 30
-10.5
 70
   192
  0
VERTEX
  5
133C8F
  8
0
 10
0.0000000000000003
 20
4.0
 30
0.0
 70
   192
  0
VERTEX
  5
133C90
  8
0
 10
3.489041676410864
 20
-1.956166705643478
 30
-10.5
 70
   192
  0
VERTEX
  5
133C91
  8
0
 10
4.0
 20
-0.0000000000000003
 30
0.0000000000000001
 70
   192
  0
VERTEX
  5
133C92
  8
0
 10
4.0
 20
-0.0000000000000003
 30
1.0
 70
   192
  0
VERTEX
  5
133C93
  8
0
 10
-0.0000000000000001
 20
-4.0
 30
-10.5
 70
   192
  0
VERTEX
  5
133C94
  8
0
 10
0.0
 20
0.0
 30
0.0
 70
   128
 71
     1
 72
     2
 73
     3
  0
VERTEX
  5
133C95
  8
0
 10
0.0
 20
0.0
 30
0.0
 70
   128
 71
     4
 72
     1
 73
     3
  0
VERTEX
  5
133C96
  8
0
 10
0.0
 20
0.0
 30
0.0
 70
   128
 71
     2
 72
     1
 73
     5
  0
VERTEX
  5
133C97
  8
0
 10
0.0
 20
0.0
 30
0.0
 70
   128
 71
     6
 72
     2
 73
     5
  0
VERTEX
  5
133C98
  8
0
 10
0.0
 20
0.0
 30
0.0
 70
   128
 71
     5
 72
     7
 73
     6
  0
VERTEX
  5
133C99
  8
0
 10
0.0
 20
0.0
 30
0.0
 70
   128
 71
     8
 72
     9
 73
    10
  0
VERTEX
  5
133C9A
  8
0
 10
0.0
 20
0.0
 30
0.0
 70
   128
 71
    11
 72
     8
 73
    10
  0
VERTEX
  5
133C9B
  8
0
 10
0.0
 20
0.0
 30
0.0
 70
   128
 71
    10
 72
    12
 73
    11
  0
VERTEX
  5
133C9C
  8
0
 10
0.0
 20
0.0
 30
0.0
 70
   128
 71
    13
 72
    14
 73
     9
  0
VERTEX
  5
133C9D
  8
0
 10
0.0
 20
0.0
 30
0.0
 70
   128
 71
     8
 72
    13
 73
     9
  0
VERTEX
  5
133C9E
  8
0
 10
0.0
 20
0.0
 30
0.0
 70
   128
 71
     3
 72
    15
 73
    14
  0
VERTEX
  5
133C9F
  8
0
 10
0.0
 20
0.0
 30
0.0
 70
   128
 71
    16
 72
     4
 73
     3
  0
VERTEX
  5
133CA0
  8
0
 10
0.0
 20
0.0
 30
0.0
 70
   128
 71
    13
 72
    16
 73
     3
  0
VERTEX
  5
133CA1
  8
0
 10
0.0
 20
0.0
 30
0.0
 70
   128
 71
    14
 72
    13
 73
     3
  0
SEQEND
  5
1345D9
  8
0
  0
POLYLINE
  5
133CA2
  8
0
 66
     1
 10
0.0
 20
0.0
 30
0.0
 70
    64
 71
    12
 72
    10
  0
VERTEX
  5
133CA3
  8
0
 10
0.0000000000000003
 20
4.0
 30
0.0
 70
   192
  0
VERTEX
  5
133CA4
  8
0
 10
1.956166705643473
 20
3.489041676410867
 30
0.0
 70
   192
  0
VERTEX
  5
133CA5
  8
0
 10
3.489041676410868
 20
1.956166705643472
 30
0.0000000000000001
 70
   192
  0
VERTEX
  5
133CA6
  8
0
 10
4.0
 20
-0.0000000000000003
 30
0.0000000000000001
 70
   192
  0
VERTEX
  5
133CA7
  8
0
 10
4.0
 20
-0.0000000000000003
 30
1.0
 70
   192
  0
VERTEX
  5
133CA8
  8
0
 10
2.391262837163306
 20
3.206534272949794
 30
0.9999999999999999
 70
   192
  0
VERTEX
  5
133CA9
  8
0
 10
-1.042935962675121
 20
3.861642730465742
 30
1.0
 70
   192
  0
VERTEX
  5
133CAA
  8
0
 10
-3.719105943553
 20
1.47249821073872
 30
1.0
 70
   192
  0
VERTEX
  5
133CAB
  8
0
 10
-3.719105943553
 20
1.47249821073872
 30
-10.5
 70
   192
  0
VERTEX
  5
133CAC
  8
0
 10
-2.872993724398822
 20
2.783146970529042
 30
-10.5
 70
   192
  0
VERTEX
  5
133CAD
  8
0
 10
-1.530085080308813
 20
3.695786742632261
 30
-10.5
 70
   192
  0
VERTEX
  5
133CAE
  8
0
 10
0.0000000000000004
 20
4.0
 30
-10.5
 70
   192
  0
VERTEX
  5
133CAF
  8
0
 10
0.0
 20
0.0
 30
0.0
 70
   128
 71
     8
 72
     9
 73
    10
  0
VERTEX
  5
133CB0
  8
0
 10
0.0
 20
0.0
 30
0.0
 70
   128
 71
    11
 72
     7
 73
     8
  0
VERTEX
  5
133CB1
  8
0
 10
0.0
 20
0.0
 30
0.0
 70
   128
 71
    10
 72
    11
 73
     8
  0
VERTEX
  5
133CB2
  8
0
 10
0.0
 20
0.0
 30
0.0
 70
   128
 71
    12
 72
     1
 73
     7
  0
VERTEX
  5
133CB3
  8
0
 10
0.0
 20
0.0
 30
0.0
 70
   128
 71
    11
 72
    12
 73
     7
  0
VERTEX
  5
133CB4
  8
0
 10
0.0
 20
0.0
 30
0.0
 70
   128
 71
     6
 72
     2
 73
     3
  0
VERTEX
  5
133CB5
  8
0
 10
0.0
 20
0.0
 30
0.0
 70
   128
 71
     4
 72
     5
 73
     6
  0
VERTEX
  5
133CB6
  8
0
 10
0.0
 20
0.0
 30
0.0
 70
   128
 71
     3
 72
     4
 73
     6
  0
VERTEX
  5
133CB7
  8
0
 10
0.0
 20
0.0
 30
0.0
 70
   128
 71
     7
 72
     1
 73
     2
  0
VERTEX
  5
133CB8
  8
0
 10
0.0
 20
0.0
 30
0.0
 70
   128
 71
     6
 72
     7
 73
     2
  0
SEQEND
  5
1345DA
  8
0
  0
POLYLINE
  5
133CB9
  8
0
 66
     1
 10
0.0
 20
0.0
 30
0.0
 70
    64
 71
    12
 72
    10
  0
VERTEX
  5
133CBA
  8
0
 10
-3.719105943553
 20
1.47249821073872
 30
-10.5
 70
   192
  0
VERTEX
  5
133CBB
  8
0
 10
-3.719105943553
 20
1.47249821073872
 30
0.9999999999999987
 70
   192
  0
VERTEX
  5
133CBC
  8
0
 10
-3.874167602598945
 20
0.9954021232510661
 30
1.0
 70
   192
  0
VERTEX
  5
133CBD
  8
0
 10
-3.968541900649736
 20
0.5006747275301355
 30
1.0
 70
   192
  0
VERTEX
  5
133CBE
  8
0
 10
-4.0
 20
0.0000000000000003
 30
1.0
 70
   192
  0
VERTEX
  5
133CBF
  8
0
 10
-4.0
 20
0.0000000000000003
 30
-0.0000000000000001
 70
   192
  0
VERTEX
  5
133CC0
  8
0
 10
-3.489041676410867
 20
-1.956166705643472
 30
-0.0000000000000001
 70
   192
  0
VERTEX
  5
133CC1
  8
0
 10
-1.956166705643473
 20
-3.489041676410868
 30
0.0
 70
   192
  0
VERTEX
  5
133CC2
  8
0
 10
-0.0000000000000003
 20
-4.0
 30
0.0
 70
   192
  0
VERTEX
  5
133CC3
  8
0
 10
-0.0000000000000001
 20
-4.0
 30
-10.5
 70
   192
  0
VERTEX
  5
133CC4
  8
0
 10
-2.427652541167428
 20
-3.179072685448277
 30
-10.5
 70
   192
  0
VERTEX
  5
133CC5
  8
0
 10
-3.849505535650507
 20
-1.086879538401615
 30
-10.5
 70
   192
  0
VERTEX
  5
133CC6
  8
0
 10
0.0
 20
0.0
 30
0.0
 70
   128
 71
     9
 72
    10
 73
    11
  0
VERTEX
  5
133CC7
  8
0
 10
0.0
 20
0.0
 30
0.0
 70
   128
 71
     8
 72
     9
 73
    11
  0
VERTEX
  5
133CC8
  8
0
 10
0.0
 20
0.0
 30
0.0
 70
   128
 71
    12
 72
     7
 73
     8
  0
VERTEX
  5
133CC9
  8
0
 10
0.0
 20
0.0
 30
0.0
 70
   128
 71
    11
 72
    12
 73
     8
  0
VERTEX
  5
133CCA
  8
0
 10
0.0
 20
0.0
 30
0.0
 70
   128
 71
     2
 72
     3
 73
     4
  0
VERTEX
  5
133CCB
  8
0
 10
0.0
 20
0.0
 30
0.0
 70
   128
 71
     6
 72
     2
 73
     4
  0
VERTEX
  5
133CCC
  8
0
 10
0.0
 20
0.0
 30
0.0
 70
   128
 71
     4
 72
     5
 73
     6
  0
VERTEX
  5
133CCD
  8
0
 10
0.0
 20
0.0
 30
0.0
 70
   128
 71
     1
 72
     2
 73
     6
  0
VERTEX
  5
133CCE
  8
0
 10
0.0
 20
0.0
 30
0.0
 70
   128
 71
     7
 72
    12
 73
     1
  0
VERTEX
  5
133CCF
  8
0
 10
0.0
 20
0.0
 30
0.0
 70
   128
 71
     6
 72
     7
 73
     1
  0
SEQEND
  5
1345DB
  8
0
  0
POLYLINE
  5
133CD0
  8
0
 66
     1
 10
0.0
 20
0.0
 30
0.0
 70
    64
 71
    11
 72
     9
  0
VERTEX
  5
133CD1
  8
0
 10
-0.0000000000000001
 20
-4.0
 30
-10.5
 70
   192
  0
VERTEX
  5
133CD2
  8
0
 10
-0.0000000000000002
 20
-4.5
 30
-11.0
 70
   192
  0
VERTEX
  5
133CD3
  8
0
 10
-3.92517188596222
 20
-2.20068754384892
 30
-11.0
 70
   192
  0
VERTEX
  5
133CD4
  8
0
 10
-3.925171885962233
 20
2.200687543848896
 30
-11.0
 70
   192
  0
VERTEX
  5
133CD5
  8
0
 10
0.0000000000000005
 20
4.5
 30
-11.0
 70
   192
  0
VERTEX
  5
133CD6
  8
0
 10
0.0000000000000004
 20
4.0
 30
-10.5
 70
   192
  0
VERTEX
  5
133CD7
  8
0
 10
-1.530085080308813
 20
3.695786742632261
 30
-10.5
 70
   192
  0
VERTEX
  5
133CD8
  8
0
 10
-2.872993724398822
 20
2.783146970529042
 30
-10.5
 70
   192
  0
VERTEX
  5
133CD9
  8
0
 10
-3.719105943553
 20
1.47249821073872
 30
-10.5
 70
   192
  0
VERTEX
  5
133CDA
  8
0
 10
-3.849505535650507
 20
-1.086879538401615
 30
-10.5
 70
   192
  0
VERTEX
  5
133CDB
  8
0
 10
-2.427652541167428
 20
-3.179072685448277
 30
-10.5
 70
   192
  0
VERTEX
  5
133CDC
  8
0
 10
0.0
 20
0.0
 30
0.0
 70
   128
 71
     5
 72
     6
 73
     7
  0
VERTEX
  5
133CDD
  8
0
 10
0.0
 20
0.0
 30
0.0
 70
   128
 71
     8
 72
     4
 73
     5
  0
VERTEX
  5
133CDE
  8
0
 10
0.0
 20
0.0
 30
0.0
 70
   128
 71
     7
 72
     8
 73
     5
  0
VERTEX
  5
133CDF
  8
0
 10
0.0
 20
0.0
 30
0.0
 70
   128
 71
     8
 72
     9
 73
     4
  0
VERTEX
  5
133CE0
  8
0
 10
0.0
 20
0.0
 30
0.0
 70
   128
 71
    10
 72
     3
 73
     4
  0
VERTEX
  5
133CE1
  8
0
 10
0.0
 20
0.0
 30
0.0
 70
   128
 71
     9
 72
    10
 73
     4
  0
VERTEX
  5
133CE2
  8
0
 10
0.0
 20
0.0
 30
0.0
 70
   128
 71
    10
 72
    11
 73
     3
  0
VERTEX
  5
133CE3
  8
0
 10
0.0
 20
0.0
 30
0.0
 70
   128
 71
     1
 72
     2
 73
     3
  0
VERTEX
  5
133CE4
  8
0
 10
0.0
 20
0.0
 30
0.0
 70
   128
 71
    11
 72
     1
 73
     3
  0
SEQEND
  5
1345DC
  8
0
  0
POLYLINE
  5
133CE5
  8
0
 66
     1
 10
0.0
 20
0.0
 30
0.0
 70
    64
 71
    13
 72
    13
  0
VERTEX
  5
133CE6
  8
0
 10
16.5
 20
6.499999999999999
 30
1.0
 70
   192
  0
VERTEX
  5
133CE7
  8
0
 10
-16.5
 20
6.500000000000001
 30
0.9999999999999998
 70
   192
  0
VERTEX
  5
133CE8
  8
0
 10
-16.5
 20
-6.499999999999999
 30
0.9999999999999998
 70
   192
  0
VERTEX
  5
133CE9
  8
0
 10
16.5
 20
-6.500000000000001
 30
1.0
 70
   192
  0
VERTEX
  5
133CEA
  8
0
 10
-4.0
 20
0.0000000000000003
 30
1.0
 70
   192
  0
VERTEX
  5
133CEB
  8
0
 10
-3.968541900649736
 20
0.5006747275301355
 30
1.0
 70
   192
  0
VERTEX
  5
133CEC
  8
0
 10
-3.874167602598945
 20
0.9954021232510661
 30
1.0
 70
   192
  0
VERTEX
  5
133CED
  8
0
 10
-3.719105943553
 20
1.47249821073872
 30
1.0
 70
   192
  0
VERTEX
  5
133CEE
  8
0
 10
-1.042935962675121
 20
3.861642730465742
 30
1.0
 70
   192
  0
VERTEX
  5
133CEF
  8
0
 10
2.391262837163306
 20
3.206534272949794
 30
0.9999999999999999
 70
   192
  0
VERTEX
  5
133CF0
  8
0
 10
4.0
 20
-0.0000000000000003
 30
1.0
 70
   192
  0
VERTEX
  5
133CF1
  8
0
 10
1.956166705643467
 20
-3.48904167641087
 30
0.9999999999999999
 70
   192
  0
VERTEX
  5
133CF2
  8
0
 10
-1.956166705643478
 20
-3.489041676410864
 30
0.9999999999999999
 70
   192
  0
VERTEX
  5
133CF3
  8
0
 10
0.0
 20
0.0
 30
0.0
 70
   128
 71
    -2
 72
     5
 73
    -6
  0
VERTEX
  5
133CF4
  8
0
 10
0.0
 20
0.0
 30
0.0
 70
   128
 71
     6
 72
    -7
 73
    -2
  0
VERTEX
  5
133CF5
  8
0
 10
0.0
 20
0.0
 30
0.0
 70
   128
 71
     7
 72
    -8
 73
    -2
  0
VERTEX
  5
133CF6
  8
0
 10
0.0
 20
0.0
 30
0.0
 70
   128
 71
     8
 72
    -9
 73
    -2
  0
VERTEX
  5
133CF7
  8
0
 10
0.0
 20
0.0
 30
0.0
 70
   128
 71
     1
 72
    -2
 73
    -9
  0
VERTEX
  5
133CF8
  8
0
 10
0.0
 20
0.0
 30
0.0
 70
   128
 71
     9
 72
   -10
 73
    -1
  0
VERTEX
  5
133CF9
  8
0
 10
0.0
 20
0.0
 30
0.0
 70
   128
 71
    10
 72
   -11
 73
    -1
  0
VERTEX
  5
133CFA
  8
0
 10
0.0
 20
0.0
 30
0.0
 70
   128
 71
   -12
 72
     4
 73
    -1
  0
VERTEX
  5
133CFB
  8
0
 10
0.0
 20
0.0
 30
0.0
 70
   128
 71
    11
 72
   -12
 73
    -1
  0
VERTEX
  5
133CFC
  8
0
 10
0.0
 20
0.0
 30
0.0
 70
   128
 71
   -13
 72
     3
 73
    -4
  0
VERTEX
  5
133CFD
  8
0
 10
0.0
 20
0.0
 30
0.0
 70
   128
 71
    12
 72
   -13
 73
    -4
  0
VERTEX
  5
133CFE
  8
0
 10
0.0
 20
0.0
 30
0.0
 70
   128
 71
    -5
 72
     2
 73
    -3
  0
VERTEX
  5
133CFF
  8
0
 10
0.0
 20
0.0
 30
0.0
 70
   128
 71
    13
 72
    -5
 73
    -3
  0
SEQEND
  5
1345DD
  8
0
  0
POLYLINE
  5
133D00
  8
0
 66
     1
 10
0.0
 20
0.0
 30
0.0
 70
    64
 71
     4
 72
     2
  0
VERTEX
  5
133D01
  8
0
 10
16.5
 20
6.499999999999999
 30
1.0
 70
   192
  0
VERTEX
  5
133D02
  8
0
 10
16.5
 20
-6.500000000000001
 30
1.0
 70
   192
  0
VERTEX
  5
133D03
  8
0
 10
16.5
 20
-6.500000000000001
 30
160.0
 70
   192
  0
VERTEX
  5
133D04
  8
0
 10
16.5
 20
6.499999999999999
 30
160.0
 70
   192
  0
VERTEX
  5
133D05
  8
0
 10
0.0
 20
0.0
 30
0.0
 70
   128
 71
     3
 72
     4
 73
    -1
  0
VERTEX
  5
133D06
  8
0
 10
0.0
 20
0.0
 30
0.0
 70
   128
 71
     2
 72
    -3
 73
     1
  0
SEQEND
  5
1345DE
  8
0
  0
POLYLINE
  5
133D07
  8
0
 66
     1
 10
0.0
 20
0.0
 30
0.0
 70
    64
 71
     4
 72
     2
  0
VERTEX
  5
133D08
  8
0
 10
16.5
 20
6.499999999999999
 30
1.0
 70
   192
  0
VERTEX
  5
133D09
  8
0
 10
16.5
 20
6.499999999999999
 30
160.0
 70
   192
  0
VERTEX
  5
133D0A
  8
0
 10
-16.5
 20
6.500000000000001
 30
160.0
 70
   192
  0
VERTEX
  5
133D0B
  8
0
 10
-16.5
 20
6.500000000000001
 30
0.9999999999999998
 70
   192
  0
VERTEX
  5
133D0C
  8
0
 10
0.0
 20
0.0
 30
0.0
 70
   128
 71
     3
 72
     4
 73
    -1
  0
VERTEX
  5
133D0D
  8
0
 10
0.0
 20
0.0
 30
0.0
 70
   128
 71
     2
 72
    -3
 73
     1
  0
SEQEND
  5
1345DF
  8
0
  0
POLYLINE
  5
133D0E
  8
0
 66
     1
 10
0.0
 20
0.0
 30
0.0
 70
    64
 71
     4
 72
     2
  0
VERTEX
  5
133D0F
  8
0
 10
-16.5
 20
6.500000000000001
 30
0.9999999999999998
 70
   192
  0
VERTEX
  5
133D10
  8
0
 10
-16.5
 20
6.500000000000001
 30
160.0
 70
   192
  0
VERTEX
  5
133D11
  8
0
 10
-16.5
 20
-6.499999999999999
 30
160.0
 70
   192
  0
VERTEX
  5
133D12
  8
0
 10
-16.5
 20
-6.499999999999999
 30
0.9999999999999998
 70
   192
  0
VERTEX
  5
133D13
  8
0
 10
0.0
 20
0.0
 30
0.0
 70
   128
 71
     3
 72
     4
 73
    -1
  0
VERTEX
  5
133D14
  8
0
 10
0.0
 20
0.0
 30
0.0
 70
   128
 71
     2
 72
    -3
 73
     1
  0
SEQEND
  5
1345E0
  8
0
  0
POLYLINE
  5
133D15
  8
0
 66
     1
 10
0.0
 20
0.0
 30
0.0
 70
    64
 71
    12
 72
    12
  0
VERTEX
  5
133D16
  8
0
 10
-16.5
 20
-6.499999999999999
 30
0.9999999999999998
 70
   192
  0
VERTEX
  5
133D17
  8
0
 10
-16.5
 20
-6.499999999999999
 30
160.0
 70
   192
  0
VERTEX
  5
133D18
  8
0
 10
16.5
 20
-6.500000000000001
 30
160.0
 70
   192
  0
VERTEX
  5
133D19
  8
0
 10
16.5
 20
-6.500000000000001
 30
1.0
 70
   192
  0
VERTEX
  5
133D1A
  8
0
 10
-0.0000000000000046
 20
-6.500000000000001
 30
149.0
 70
   192
  0
VERTEX
  5
133D1B
  8
0
 10
-9.192388155425105
 20
-6.499999999999997
 30
145.1923881554251
 70
   192
  0
VERTEX
  5
133D1C
  8
0
 10
-13.0
 20
-6.499999999999999
 30
136.0000000000001
 70
   192
  0
VERTEX
  5
133D1D
  8
0
 10
-9.192388155425144
 20
-6.499999999999997
 30
126.8076118445749
 70
   192
  0
VERTEX
  5
133D1E
  8
0
 10
-0.0000000000000022
 20
-6.5
 30
123.0
 70
   192
  0
VERTEX
  5
133D1F
  8
0
 10
9.192388155425101
 20
-6.499999999999998
 30
126.8076118445749
 70
   192
  0
VERTEX
  5
133D20
  8
0
 10
13.0
 20
-6.500000000000001
 30
136.0
 70
   192
  0
VERTEX
  5
133D21
  8
0
 10
9.192388155425139
 20
-6.499999999999998
 30
145.1923881554251
 70
   192
  0
VERTEX
  5
133D22
  8
0
 10
0.0
 20
0.0
 30
0.0
 70
   128
 71
    -2
 72
     5
 73
    -6
  0
VERTEX
  5
133D23
  8
0
 10
0.0
 20
0.0
 30
0.0
 70
   128
 71
     6
 72
    -7
 73
    -2
  0
VERTEX
  5
133D24
  8
0
 10
0.0
 20
0.0
 30
0.0
 70
   128
 71
     1
 72
    -2
 73
    -7
  0
VERTEX
  5
133D25
  8
0
 10
0.0
 20
0.0
 30
0.0
 70
   128
 71
     7
 72
    -8
 73
    -1
  0
VERTEX
  5
133D26
  8
0
 10
0.0
 20
0.0
 30
0.0
 70
   128
 71
    -9
 72
     4
 73
    -1
  0
VERTEX
  5
133D27
  8
0
 10
0.0
 20
0.0
 30
0.0
 70
   128
 71
     8
 72
    -9
 73
    -1
  0
VERTEX
  5
133D28
  8
0
 10
0.0
 20
0.0
 30
0.0
 70
   128
 71
     9
 72
   -10
 73
    -4
  0
VERTEX
  5
133D29
  8
0
 10
0.0
 20
0.0
 30
0.0
 70
   128
 71
    10
 72
   -11
 73
    -4
  0
VERTEX
  5
133D2A
  8
0
 10
0.0
 20
0.0
 30
0.0
 70
   128
 71
   -11
 72
     3
 73
    -4
  0
VERTEX
  5
133D2B
  8
0
 10
0.0
 20
0.0
 30
0.0
 70
   128
 71
    11
 72
   -12
 73
    -3
  0
VERTEX
  5
133D2C
  8
0
 10
0.0
 20
0.0
 30
0.0
 70
   128
 71
    -5
 72
     2
 73
    -3
  0
VERTEX
  5
133D2D
  8
0
 10
0.0
 20
0.0
 30
0.0
 70
   128
 71
    12
 72
    -5
 73
    -3
  0
SEQEND
  5
1345E1
  8
0
  0
POLYLINE
  5
133D2E
  8
0
 66
     1
 10
0.0
 20
0.0
 30
0.0
 70
    64
 71
    10
 72
     8
  0
VERTEX
  5
133D2F
  8
0
 10
-0.0000000000000021
 20
0.4999999999999998
 30
149.0
 70
   192
  0
VERTEX
  5
133D30
  8
0
 10
-0.0000000000000046
 20
-6.500000000000001
 30
149.0
 70
   192
  0
VERTEX
  5
133D31
  8
0
 10
-0.0000000000000022
 20
-6.5
 30
123.0
 70
   192
  0
VERTEX
  5
133D32
  8
0
 10
-0.0000000000000038
 20
0.4999999999999999
 30
123.0
 70
   192
  0
VERTEX
  5
133D33
  8
0
 10
-13.0
 20
-6.499999999999999
 30
136.0000000000001
 70
   192
  0
VERTEX
  5
133D34
  8
0
 10
-13.0
 20
0.5000000000000007
 30
136.0
 70
   192
  0
VERTEX
  5
133D35
  8
0
 10
-9.192388155425144
 20
0.5000000000000003
 30
145.1923881554251
 70
   192
  0
VERTEX
  5
133D36
  8
0
 10
-9.192388155425105
 20
-6.499999999999997
 30
145.1923881554251
 70
   192
  0
VERTEX
  5
133D37
  8
0
 10
-9.192388155425103
 20
0.5000000000000004
 30
126.8076118445749
 70
   192
  0
VERTEX
  5
133D38
  8
0
 10
-9.192388155425144
 20
-6.499999999999997
 30
126.8076118445749
 70
   192
  0
VERTEX
  5
133D39
  8
0
 10
0.0
 20
0.0
 30
0.0
 70
   128
 71
     6
 72
     5
 73
    -8
  0
VERTEX
  5
133D3A
  8
0
 10
0.0
 20
0.0
 30
0.0
 70
   128
 71
     7
 72
    -6
 73
     8
  0
VERTEX
  5
133D3B
  8
0
 10
0.0
 20
0.0
 30
0.0
 70
   128
 71
     2
 72
     1
 73
    -7
  0
VERTEX
  5
133D3C
  8
0
 10
0.0
 20
0.0
 30
0.0
 70
   128
 71
     8
 72
    -2
 73
     7
  0
VERTEX
  5
133D3D
  8
0
 10
0.0
 20
0.0
 30
0.0
 70
   128
 71
     4
 72
     3
 73
   -10
  0
VERTEX
  5
133D3E
  8
0
 10
0.0
 20
0.0
 30
0.0
 70
   128
 71
     9
 72
    -4
 73
    10
  0
VERTEX
  5
133D3F
  8
0
 10
0.0
 20
0.0
 30
0.0
 70
   128
 71
     5
 72
     6
 73
    -9
  0
VERTEX
  5
133D40
  8
0
 10
0.0
 20
0.0
 30
0.0
 70
   128
 71
    10
 72
    -5
 73
     9
  0
SEQEND
  5
1345E2
  8
0
  0
POLYLINE
  5
133D41
  8
0
 66
     1
 10
0.0
 20
0.0
 30
0.0
 70
    64
 71
    10
 72
     8
  0
VERTEX
  5
133D42
  8
0
 10
-0.0000000000000017
 20
0.4999999999999999
 30
123.0
 70
   192
  0
VERTEX
  5
133D43
  8
0
 10
-0.0000000000000002
 20
-6.500000000000001
 30
123.0
 70
   192
  0
VERTEX
  5
133D44
  8
0
 10
-0.0000000000000026
 20
-6.5
 30
149.0
 70
   192
  0
VERTEX
  5
133D45
  8
0
 10
-0.0000000000000001
 20
0.4999999999999998
 30
149.0
 70
   192
  0
VERTEX
  5
133D46
  8
0
 10
13.0
 20
-6.500000000000001
 30
136.0
 70
   192
  0
VERTEX
  5
133D47
  8
0
 10
13.0
 20
0.499999999999999
 30
136.0000000000001
 70
   192
  0
VERTEX
  5
133D48
  8
0
 10
9.192388155425139
 20
0.4999999999999992
 30
126.8076118445749
 70
   192
  0
VERTEX
  5
133D49
  8
0
 10
9.192388155425101
 20
-6.499999999999998
 30
126.8076118445749
 70
   192
  0
VERTEX
  5
133D4A
  8
0
 10
9.192388155425101
 20
0.4999999999999992
 30
145.1923881554251
 70
   192
  0
VERTEX
  5
133D4B
  8
0
 10
9.192388155425139
 20
-6.499999999999998
 30
145.1923881554251
 70
   192
  0
VERTEX
  5
133D4C
  8
0
 10
0.0
 20
0.0
 30
0.0
 70
   128
 71
     6
 72
     5
 73
    -8
  0
VERTEX
  5
133D4D
  8
0
 10
0.0
 20
0.0
 30
0.0
 70
   128
 71
     7
 72
    -6
 73
     8
  0
VERTEX
  5
133D4E
  8
0
 10
0.0
 20
0.0
 30
0.0
 70
   128
 71
     2
 72
     1
 73
    -7
  0
VERTEX
  5
133D4F
  8
0
 10
0.0
 20
0.0
 30
0.0
 70
   128
 71
     8
 72
    -2
 73
     7
  0
VERTEX
  5
133D50
  8
0
 10
0.0
 20
0.0
 30
0.0
 70
   128
 71
     4
 72
     3
 73
   -10
  0
VERTEX
  5
133D51
  8
0
 10
0.0
 20
0.0
 30
0.0
 70
   128
 71
     9
 72
    -4
 73
    10
  0
VERTEX
  5
133D52
  8
0
 10
0.0
 20
0.0
 30
0.0
 70
   128
 71
     5
 72
     6
 73
    -9
  0
VERTEX
  5
133D53
  8
0
 10
0.0
 20
0.0
 30
0.0
 70
   128
 71
    10
 72
    -5
 73
     9
  0
SEQEND
  5
1345E3
  8
0
  0
POLYLINE
  5
133D54
  8
0
 66
     1
 10
0.0
 20
0.0
 30
0.0
 70
    64
 71
    16
 72
    16
  0
VERTEX
  5
133D55
  8
0
 10
-0.0000000000000001
 20
0.4999999999999998
 30
149.0
 70
   192
  0
VERTEX
  5
133D56
  8
0
 10
9.192388155425101
 20
0.4999999999999992
 30
145.1923881554251
 70
   192
  0
VERTEX
  5
133D57
  8
0
 10
13.0
 20
0.499999999999999
 30
136.0000000000001
 70
   192
  0
VERTEX
  5
133D58
  8
0
 10
9.192388155425139
 20
0.4999999999999992
 30
126.8076118445749
 70
   192
  0
VERTEX
  5
133D59
  8
0
 10
-0.0000000000000017
 20
0.4999999999999999
 30
123.0
 70
   192
  0
VERTEX
  5
133D5A
  8
0
 10
-9.192388155425103
 20
0.5000000000000004
 30
126.8076118445749
 70
   192
  0
VERTEX
  5
133D5B
  8
0
 10
-13.0
 20
0.5000000000000007
 30
136.0
 70
   192
  0
VERTEX
  5
133D5C
  8
0
 10
-9.192388155425144
 20
0.5000000000000003
 30
145.1923881554251
 70
   192
  0
VERTEX
  5
133D5D
  8
0
 10
-0.0000000000000018
 20
0.4999999999999998
 30
128.0
 70
   192
  0
VERTEX
  5
133D5E
  8
0
 10
5.656854249492358
 20
0.4999999999999994
 30
130.3431457505076
 70
   192
  0
VERTEX
  5
133D5F
  8
0
 10
7.999999999999999
 20
0.4999999999999993
 30
136.0
 70
   192
  0
VERTEX
  5
133D60
  8
0
 10
5.656854249492395
 20
0.4999999999999994
 30
141.6568542494924
 70
   192
  0
VERTEX
  5
133D61
  8
0
 10
-0.000000000000002
 20
0.4999999999999998
 30
144.0
 70
   192
  0
VERTEX
  5
133D62
  8
0
 10
-5.656854249492362
 20
0.5000000000000001
 30
141.6568542494924
 70
   192
  0
VERTEX
  5
133D63
  8
0
 10
-8.000000000000002
 20
0.5000000000000003
 30
136.0000000000001
 70
   192
  0
VERTEX
  5
133D64
  8
0
 10
-5.656854249492397
 20
0.5000000000000001
 30
130.3431457505077
 70
   192
  0
VERTEX
  5
133D65
  8
0
 10
0.0
 20
0.0
 30
0.0
 70
   128
 71
    -5
 72
     9
 73
   -10
  0
VERTEX
  5
133D66
  8
0
 10
0.0
 20
0.0
 30
0.0
 70
   128
 71
     4
 72
    -5
 73
   -10
  0
VERTEX
  5
133D67
  8
0
 10
0.0
 20
0.0
 30
0.0
 70
   128
 71
   -11
 72
     3
 73
    -4
  0
VERTEX
  5
133D68
  8
0
 10
0.0
 20
0.0
 30
0.0
 70
   128
 71
    10
 72
   -11
 73
    -4
  0
VERTEX
  5
133D69
  8
0
 10
0.0
 20
0.0
 30
0.0
 70
   128
 71
   -12
 72
     2
 73
    -3
  0
VERTEX
  5
133D6A
  8
0
 10
0.0
 20
0.0
 30
0.0
 70
   128
 71
    11
 72
   -12
 73
    -3
  0
VERTEX
  5
133D6B
  8
0
 10
0.0
 20
0.0
 30
0.0
 70
   128
 71
   -13
 72
     1
 73
    -2
  0
VERTEX
  5
133D6C
  8
0
 10
0.0
 20
0.0
 30
0.0
 70
   128
 71
    12
 72
   -13
 73
    -2
  0
VERTEX
  5
133D6D
  8
0
 10
0.0
 20
0.0
 30
0.0
 70
   128
 71
   -14
 72
     8
 73
    -1
  0
VERTEX
  5
133D6E
  8
0
 10
0.0
 20
0.0
 30
0.0
 70
   128
 71
    13
 72
   -14
 73
    -1
  0
VERTEX
  5
133D6F
  8
0
 10
0.0
 20
0.0
 30
0.0
 70
   128
 71
   -15
 72
     7
 73
    -8
  0
VERTEX
  5
133D70
  8
0
 10
0.0
 20
0.0
 30
0.0
 70
   128
 71
    14
 72
   -15
 73
    -8
  0
VERTEX
  5
133D71
  8
0
 10
0.0
 20
0.0
 30
0.0
 70
   128
 71
   -16
 72
     6
 73
    -7
  0
VERTEX
  5
133D72
  8
0
 10
0.0
 20
0.0
 30
0.0
 70
   128
 71
    15
 72
   -16
 73
    -7
  0
VERTEX
  5
133D73
  8
0
 10
0.0
 20
0.0
 30
0.0
 70
   128
 71
    -9
 72
     5
 73
    -6
  0
VERTEX
  5
133D74
  8
0
 10
0.0
 20
0.0
 30
0.0
 70
   128
 71
    16
 72
    -9
 73
    -6
  0
SEQEND
  5
1345E4
  8
0
  0
POLYLINE
  5
133D75
  8
0
 66
     1
 10
0.0
 20
0.0
 30
0.0
 70
    64
 71
    10
 72
     8
  0
VERTEX
  5
133D76
  8
0
 10
-0.0000000000000021
 20
-1.0
 30
144.0
 70
   192
  0
VERTEX
  5
133D77
  8
0
 10
-0.0000000000000019
 20
-1.0
 30
128.0
 70
   192
  0
VERTEX
  5
133D78
  8
0
 10
-0.0000000000000018
 20
0.4999999999999998
 30
128.0
 70
   192
  0
VERTEX
  5
133D79
  8
0
 10
-0.000000000000002
 20
0.4999999999999998
 30
144.0
 70
   192
  0
VERTEX
  5
133D7A
  8
0
 10
7.999999999999999
 20
0.4999999999999993
 30
136.0
 70
   192
  0
VERTEX
  5
133D7B
  8
0
 10
7.999999999999998
 20
-1.000000000000001
 30
136.0
 70
   192
  0
VERTEX
  5
133D7C
  8
0
 10
5.656854249492395
 20
0.4999999999999994
 30
141.6568542494924
 70
   192
  0
VERTEX
  5
133D7D
  8
0
 10
5.656854249492359
 20
-1.000000000000001
 30
141.6568542494925
 70
   192
  0
VERTEX
  5
133D7E
  8
0
 10
5.656854249492396
 20
-1.000000000000001
 30
130.3431457505077
 70
   192
  0
VERTEX
  5
133D7F
  8
0
 10
5.656854249492358
 20
0.4999999999999994
 30
130.3431457505076
 70
   192
  0
VERTEX
  5
133D80
  8
0
 10
0.0
 20
0.0
 30
0.0
 70
   128
 71
     1
 72
     4
 73
    -7
  0
VERTEX
  5
133D81
  8
0
 10
0.0
 20
0.0
 30
0.0
 70
   128
 71
     8
 72
    -1
 73
     7
  0
VERTEX
  5
133D82
  8
0
 10
0.0
 20
0.0
 30
0.0
 70
   128
 71
     5
 72
     6
 73
    -8
  0
VERTEX
  5
133D83
  8
0
 10
0.0
 20
0.0
 30
0.0
 70
   128
 71
     7
 72
    -5
 73
     8
  0
VERTEX
  5
133D84
  8
0
 10
0.0
 20
0.0
 30
0.0
 70
   128
 71
     6
 72
     5
 73
   -10
  0
VERTEX
  5
133D85
  8
0
 10
0.0
 20
0.0
 30
0.0
 70
   128
 71
     9
 72
    -6
 73
    10
  0
VERTEX
  5
133D86
  8
0
 10
0.0
 20
0.0
 30
0.0
 70
   128
 71
     3
 72
     2
 73
    -9
  0
VERTEX
  5
133D87
  8
0
 10
0.0
 20
0.0
 30
0.0
 70
   128
 71
    10
 72
    -3
 73
     9
  0
SEQEND
  5
1345E5
  8
0
  0
POLYLINE
  5
133D88
  8
0
 66
     1
 10
0.0
 20
0.0
 30
0.0
 70
    64
 71
    14
 72
    12
  0
VERTEX
  5
133D89
  8
0
 10
-0.0000000000000021
 20
-1.0
 30
144.0
 70
   192
  0
VERTEX
  5
133D8A
  8
0
 10
-0.0000000000000596
 20
-1.499999999994
 30
144.4999976154
 70
   192
  0
VERTEX
  5
133D8B
  8
0
 10
-0.0000000000000017
 20
-1.499999999994
 30
127.5000023846
 70
   192
  0
VERTEX
  5
133D8C
  8
0
 10
-0.0000000000000006
 20
-1.0
 30
128.0
 70
   192
  0
VERTEX
  5
133D8D
  8
0
 10
8.49999761540002
 20
-1.499999999994001
 30
136.0
 70
   192
  0
VERTEX
  5
133D8E
  8
0
 10
7.999999999999998
 20
-1.000000000000001
 30
136.0
 70
   192
  0
VERTEX
  5
133D8F
  8
0
 10
0.0000000018971681
 20
-1.244520196754827
 30
144.0638694308136
 70
   192
  0
VERTEX
  5
133D90
  8
0
 10
5.656854249492359
 20
-1.000000000000001
 30
141.6568542494925
 70
   192
  0
VERTEX
  5
133D91
  8
0
 10
6.010405953918804
 20
-1.499999999994001
 30
142.0104059539188
 70
   192
  0
VERTEX
  5
133D92
  8
0
 10
0.0000000018971461
 20
-1.436129403015654
 30
144.255477723254
 70
   192
  0
VERTEX
  5
133D93
  8
0
 10
-0.0000000018971784
 20
-1.24452019675483
 30
127.9361305691865
 70
   192
  0
VERTEX
  5
133D94
  8
0
 10
-0.0000000018971783
 20
-1.436129403015658
 30
127.744522276746
 70
   192
  0
VERTEX
  5
133D95
  8
0
 10
6.010405953918848
 20
-1.499999999994001
 30
129.9895940460812
 70
   192
  0
VERTEX
  5
133D96
  8
0
 10
5.656854249492396
 20
-1.000000000000001
 30
130.3431457505077
 70
   192
  0
VERTEX
  5
133D97
  8
0
 10
0.0
 20
0.0
 30
0.0
 70
   128
 71
    10
 72
     5
 73
     9
  0
VERTEX
  5
133D98
  8
0
 10
0.0
 20
0.0
 30
0.0
 70
   128
 71
     9
 72
     2
 73
    10
  0
VERTEX
  5
133D99
  8
0
 10
0.0
 20
0.0
 30
0.0
 70
   128
 71
     7
 72
     6
 73
     5
  0
VERTEX
  5
133D9A
  8
0
 10
0.0
 20
0.0
 30
0.0
 70
   128
 71
    10
 72
     7
 73
     5
  0
VERTEX
  5
133D9B
  8
0
 10
0.0
 20
0.0
 30
0.0
 70
   128
 71
     7
 72
     1
 73
     8
  0
VERTEX
  5
133D9C
  8
0
 10
0.0
 20
0.0
 30
0.0
 70
   128
 71
     8
 72
     6
 73
     7
  0
VERTEX
  5
133D9D
  8
0
 10
0.0
 20
0.0
 30
0.0
 70
   128
 71
     5
 72
     6
 73
   -14
  0
VERTEX
  5
133D9E
  8
0
 10
0.0
 20
0.0
 30
0.0
 70
   128
 71
    13
 72
    -5
 73
    14
  0
VERTEX
  5
133D9F
  8
0
 10
0.0
 20
0.0
 30
0.0
 70
   128
 71
    14
 72
     4
 73
    11
  0
VERTEX
  5
133DA0
  8
0
 10
0.0
 20
0.0
 30
0.0
 70
   128
 71
    12
 72
    13
 73
    14
  0
VERTEX
  5
133DA1
  8
0
 10
0.0
 20
0.0
 30
0.0
 70
   128
 71
    11
 72
    12
 73
    14
  0
VERTEX
  5
133DA2
  8
0
 10
0.0
 20
0.0
 30
0.0
 70
   128
 71
    12
 72
     3
 73
    13
  0
SEQEND
  5
1345E6
  8
0
  0
POLYLINE
  5
133DA3
  8
0
 66
     1
 10
0.0
 20
0.0
 30
0.0
 70
    64
 71
    14
 72
    12
  0
VERTEX
  5
133DA4
  8
0
 10
-0.0000000000000019
 20
-1.0
 30
128.0
 70
   192
  0
VERTEX
  5
133DA5
  8
0
 10
-0.0000000000000017
 20
-1.499999999994
 30
127.5000023846
 70
   192
  0
VERTEX
  5
133DA6
  8
0
 10
-0.0000000000000596
 20
-1.499999999994
 30
144.4999976154
 70
   192
  0
VERTEX
  5
133DA7
  8
0
 10
-0.0000000000000034
 20
-1.0
 30
144.0
 70
   192
  0
VERTEX
  5
133DA8
  8
0
 10
-8.499997615399991
 20
-1.499999999994
 30
136.0
 70
   192
  0
VERTEX
  5
133DA9
  8
0
 10
-8.000000000000002
 20
-0.9999999999999996
 30
135.9999999999999
 70
   192
  0
VERTEX
  5
133DAA
  8
0
 10
-6.010405953918809
 20
-1.499999999993999
 30
129.9895940460811
 70
   192
  0
VERTEX
  5
133DAB
  8
0
 10
-0.0000000018971783
 20
-1.436129403015658
 30
127.744522276746
 70
   192
  0
VERTEX
  5
133DAC
  8
0
 10
-0.0000000018971784
 20
-1.24452019675483
 30
127.9361305691865
 70
   192
  0
VERTEX
  5
133DAD
  8
0
 10
-5.656854249492362
 20
-0.9999999999999996
 30
130.3431457505076
 70
   192
  0
VERTEX
  5
133DAE
  8
0
 10
0.0000000018971681
 20
-1.244520196754827
 30
144.0638694308136
 70
   192
  0
VERTEX
  5
133DAF
  8
0
 10
0.0000000018971461
 20
-1.436129403015654
 30
144.255477723254
 70
   192
  0
VERTEX
  5
133DB0
  8
0
 10
-6.010405953918849
 20
-1.499999999993999
 30
142.0104059539187
 70
   192
  0
VERTEX
  5
133DB1
  8
0
 10
-5.656854249492401
 20
-0.9999999999999999
 30
141.6568542494924
 70
   192
  0
VERTEX
  5
133DB2
  8
0
 10
0.0
 20
0.0
 30
0.0
 70
   128
 71
     7
 72
     2
 73
     8
  0
VERTEX
  5
133DB3
  8
0
 10
0.0
 20
0.0
 30
0.0
 70
   128
 71
     9
 72
    10
 73
     7
  0
VERTEX
  5
133DB4
  8
0
 10
0.0
 20
0.0
 30
0.0
 70
   128
 71
     8
 72
     9
 73
     7
  0
VERTEX
  5
133DB5
  8
0
 10
0.0
 20
0.0
 30
0.0
 70
   128
 71
     9
 72
     1
 73
    10
  0
VERTEX
  5
133DB6
  8
0
 10
0.0
 20
0.0
 30
0.0
 70
   128
 71
     6
 72
     5
 73
    -7
  0
VERTEX
  5
133DB7
  8
0
 10
0.0
 20
0.0
 30
0.0
 70
   128
 71
    10
 72
    -6
 73
     7
  0
VERTEX
  5
133DB8
  8
0
 10
0.0
 20
0.0
 30
0.0
 70
   128
 71
     5
 72
     6
 73
   -14
  0
VERTEX
  5
133DB9
  8
0
 10
0.0
 20
0.0
 30
0.0
 70
   128
 71
    13
 72
    -5
 73
    14
  0
VERTEX
  5
133DBA
  8
0
 10
0.0
 20
0.0
 30
0.0
 70
   128
 71
    14
 72
     4
 73
    11
  0
VERTEX
  5
133DBB
  8
0
 10
0.0
 20
0.0
 30
0.0
 70
   128
 71
    12
 72
    13
 73
    14
  0
VERTEX
  5
133DBC
  8
0
 10
0.0
 20
0.0
 30
0.0
 70
   128
 71
    11
 72
    12
 73
    14
  0
VERTEX
  5
133DBD
  8
0
 10
0.0
 20
0.0
 30
0.0
 70
   128
 71
    12
 72
     3
 73
    13
  0
SEQEND
  5
1345E7
  8
0
  0
POLYLINE
  5
133DBE
  8
0
 66
     1
 10
0.0
 20
0.0
 30
0.0
 70
    64
 71
    10
 72
     8
  0
VERTEX
  5
133DBF
  8
0
 10
-0.0000000000000019
 20
-1.0
 30
128.0
 70
   192
  0
VERTEX
  5
133DC0
  8
0
 10
-0.0000000000000021
 20
-1.0
 30
144.0
 70
   192
  0
VERTEX
  5
133DC1
  8
0
 10
-0.000000000000002
 20
0.4999999999999998
 30
144.0
 70
   192
  0
VERTEX
  5
133DC2
  8
0
 10
-0.0000000000000018
 20
0.4999999999999998
 30
128.0
 70
   192
  0
VERTEX
  5
133DC3
  8
0
 10
-8.000000000000002
 20
0.5000000000000003
 30
136.0000000000001
 70
   192
  0
VERTEX
  5
133DC4
  8
0
 10
-8.000000000000002
 20
-0.9999999999999996
 30
135.9999999999999
 70
   192
  0
VERTEX
  5
133DC5
  8
0
 10
-5.656854249492397
 20
0.5000000000000001
 30
130.3431457505077
 70
   192
  0
VERTEX
  5
133DC6
  8
0
 10
-5.656854249492362
 20
-0.9999999999999996
 30
130.3431457505076
 70
   192
  0
VERTEX
  5
133DC7
  8
0
 10
-5.656854249492401
 20
-0.9999999999999999
 30
141.6568542494924
 70
   192
  0
VERTEX
  5
133DC8
  8
0
 10
-5.656854249492362
 20
0.5000000000000001
 30
141.6568542494924
 70
   192
  0
VERTEX
  5
133DC9
  8
0
 10
0.0
 20
0.0
 30
0.0
 70
   128
 71
     1
 72
     4
 73
    -7
  0
VERTEX
  5
133DCA
  8
0
 10
0.0
 20
0.0
 30
0.0
 70
   128
 71
     8
 72
    -1
 73
     7
  0
VERTEX
  5
133DCB
  8
0
 10
0.0
 20
0.0
 30
0.0
 70
   128
 71
     5
 72
     6
 73
    -8
  0
VERTEX
  5
133DCC
  8
0
 10
0.0
 20
0.0
 30
0.0
 70
   128
 71
     7
 72
    -5
 73
     8
  0
VERTEX
  5
133DCD
  8
0
 10
0.0
 20
0.0
 30
0.0
 70
   128
 71
     6
 72
     5
 73
   -10
  0
VERTEX
  5
133DCE
  8
0
 10
0.0
 20
0.0
 30
0.0
 70
   128
 71
     9
 72
    -6
 73
    10
  0
VERTEX
  5
133DCF
  8
0
 10
0.0
 20
0.0
 30
0.0
 70
   128
 71
     3
 72
     2
 73
    -9
  0
VERTEX
  5
133DD0
  8
0
 10
0.0
 20
0.0
 30
0.0
 70
   128
 71
    10
 72
    -3
 73
     9
  0
SEQEND
  5
1345E8
  8
0
  0
POLYLINE
  5
133DD1
  8
0
 66
     1
 10
0.0
 20
0.0
 30
0.0
 70
    64
 71
    16
 72
    16
  0
VERTEX
  5
133DD2
  8
0
 10
-0.0000000000000022
 20
-1.5
 30
147.5
 70
   192
  0
VERTEX
  5
133DD3
  8
0
 10
-8.1317279836453
 20
-1.5
 30
144.1317279836453
 70
   192
  0
VERTEX
  5
133DD4
  8
0
 10
-11.5
 20
-1.499999999999999
 30
136.0
 70
   192
  0
VERTEX
  5
133DD5
  8
0
 10
-8.131727983645298
 20
-1.5
 30
127.8682720163547
 70
   192
  0
VERTEX
  5
133DD6
  8
0
 10
-0.0000000000000019
 20
-1.5
 30
124.5
 70
   192
  0
VERTEX
  5
133DD7
  8
0
 10
8.131727983645293
 20
-1.500000000000001
 30
127.8682720163547
 70
   192
  0
VERTEX
  5
133DD8
  8
0
 10
11.5
 20
-1.500000000000001
 30
136.0
 70
   192
  0
VERTEX
  5
133DD9
  8
0
 10
8.131727983645295
 20
-1.500000000000001
 30
144.1317279836453
 70
   192
  0
VERTEX
  5
133DDA
  8
0
 10
-0.0000000000000596
 20
-1.499999999994
 30
144.4999976154
 70
   192
  0
VERTEX
  5
133DDB
  8
0
 10
6.010405953918804
 20
-1.499999999994001
 30
142.0104059539188
 70
   192
  0
VERTEX
  5
133DDC
  8
0
 10
8.49999761540002
 20
-1.499999999994001
 30
136.0
 70
   192
  0
VERTEX
  5
133DDD
  8
0
 10
6.010405953918848
 20
-1.499999999994001
 30
129.9895940460812
 70
   192
  0
VERTEX
  5
133DDE
  8
0
 10
-0.0000000000000017
 20
-1.499999999994
 30
127.5000023846
 70
   192
  0
VERTEX
  5
133DDF
  8
0
 10
-6.010405953918809
 20
-1.499999999993999
 30
129.9895940460811
 70
   192
  0
VERTEX
  5
133DE0
  8
0
 10
-8.499997615399991
 20
-1.499999999994
 30
136.0
 70
   192
  0
VERTEX
  5
133DE1
  8
0
 10
-6.010405953918849
 20
-1.499999999993999
 30
142.0104059539187
 70
   192
  0
VERTEX
  5
133DE2
  8
0
 10
0.0
 20
0.0
 30
0.0
 70
   128
 71
    -1
 72
     9
 73
   -10
  0
VERTEX
  5
133DE3
  8
0
 10
0.0
 20
0.0
 30
0.0
 70
   128
 71
     8
 72
    -1
 73
   -10
  0
VERTEX
  5
133DE4
  8
0
 10
0.0
 20
0.0
 30
0.0
 70
   128
 71
   -11
 72
     7
 73
    -8
  0
VERTEX
  5
133DE5
  8
0
 10
0.0
 20
0.0
 30
0.0
 70
   128
 71
    10
 72
   -11
 73
    -8
  0
VERTEX
  5
133DE6
  8
0
 10
0.0
 20
0.0
 30
0.0
 70
   128
 71
   -12
 72
     6
 73
    -7
  0
VERTEX
  5
133DE7
  8
0
 10
0.0
 20
0.0
 30
0.0
 70
   128
 71
    11
 72
   -12
 73
    -7
  0
VERTEX
  5
133DE8
  8
0
 10
0.0
 20
0.0
 30
0.0
 70
   128
 71
   -13
 72
     5
 73
    -6
  0
VERTEX
  5
133DE9
  8
0
 10
0.0
 20
0.0
 30
0.0
 70
   128
 71
    12
 72
   -13
 73
    -6
  0
VERTEX
  5
133DEA
  8
0
 10
0.0
 20
0.0
 30
0.0
 70
   128
 71
   -14
 72
     4
 73
    -5
  0
VERTEX
  5
133DEB
  8
0
 10
0.0
 20
0.0
 30
0.0
 70
   128
 71
    13
 72
   -14
 73
    -5
  0
VERTEX
  5
133DEC
  8
0
 10
0.0
 20
0.0
 30
0.0
 70
   128
 71
   -15
 72
     3
 73
    -4
  0
VERTEX
  5
133DED
  8
0
 10
0.0
 20
0.0
 30
0.0
 70
   128
 71
    14
 72
   -15
 73
    -4
  0
VERTEX
  5
133DEE
  8
0
 10
0.0
 20
0.0
 30
0.0
 70
   128
 71
   -16
 72
     2
 73
    -3
  0
VERTEX
  5
133DEF
  8
0
 10
0.0
 20
0.0
 30
0.0
 70
   128
 71
    15
 72
   -16
 73
    -3
  0
VERTEX
  5
133DF0
  8
0
 10
0.0
 20
0.0
 30
0.0
 70
   128
 71
    -9
 72
     1
 73
    -2
  0
VERTEX
  5
133DF1
  8
0
 10
0.0
 20
0.0
 30
0.0
 70
   128
 71
    16
 72
    -9
 73
    -2
  0
SEQEND
  5
1345E9
  8
0
  0
POLYLINE
  5
133DF2
  8
0
 66
     1
 10
0.0
 20
0.0
 30
0.0
 70
    64
 71
    12
 72
    10
  0
VERTEX
  5
133DF3
  8
0
 10
-0.0000000000000019
 20
-1.5
 30
124.5
 70
   192
  0
VERTEX
  5
133DF4
  8
0
 10
-0.0000000000000022
 20
-1.5
 30
147.5
 70
   192
  0
VERTEX
  5
133DF5
  8
0
 10
11.5
 20
-1.500000000000001
 30
136.0
 70
   192
  0
VERTEX
  5
133DF6
  8
0
 10
11.49995436606471
 20
-6.750072314953036
 30
136.0000000000004
 70
   192
  0
VERTEX
  5
133DF7
  8
0
 10
8.131727983645295
 20
-1.500000000000001
 30
144.1317279836453
 70
   192
  0
VERTEX
  5
133DF8
  8
0
 10
10.03093852736909
 20
-6.750082973135798
 30
141.6239463034524
 70
   192
  0
VERTEX
  5
133DF9
  8
0
 10
5.623940474192164
 20
-6.750065485674661
 30
146.0309618444085
 70
   192
  0
VERTEX
  5
133DFA
  8
0
 10
-0.0000000000000026
 20
-6.750026681848
 30
147.5
 70
   192
  0
VERTEX
  5
133DFB
  8
0
 10
-0.0000000000000023
 20
-6.750026681848
 30
124.5
 70
   192
  0
VERTEX
  5
133DFC
  8
0
 10
5.623940474192505
 20
-6.750065485674661
 30
125.9690381555917
 70
   192
  0
VERTEX
  5
133DFD
  8
0
 10
10.03093852736948
 20
-6.750082973135798
 30
130.3760536965482
 70
   192
  0
VERTEX
  5
133DFE
  8
0
 10
8.131727983645293
 20
-1.500000000000001
 30
127.8682720163547
 70
   192
  0
VERTEX
  5
133DFF
  8
0
 10
0.0
 20
0.0
 30
0.0
 70
   128
 71
     8
 72
     2
 73
     5
  0
VERTEX
  5
133E00
  8
0
 10
0.0
 20
0.0
 30
0.0
 70
   128
 71
     7
 72
     8
 73
     5
  0
VERTEX
  5
133E01
  8
0
 10
0.0
 20
0.0
 30
0.0
 70
   128
 71
     3
 72
     4
 73
     6
  0
VERTEX
  5
133E02
  8
0
 10
0.0
 20
0.0
 30
0.0
 70
   128
 71
     5
 72
     3
 73
     6
  0
VERTEX
  5
133E03
  8
0
 10
0.0
 20
0.0
 30
0.0
 70
   128
 71
     6
 72
     7
 73
     5
  0
VERTEX
  5
133E04
  8
0
 10
0.0
 20
0.0
 30
0.0
 70
   128
 71
    12
 72
    10
 73
    11
  0
VERTEX
  5
133E05
  8
0
 10
0.0
 20
0.0
 30
0.0
 70
   128
 71
     4
 72
     3
 73
    12
  0
VERTEX
  5
133E06
  8
0
 10
0.0
 20
0.0
 30
0.0
 70
   128
 71
    11
 72
     4
 73
    12
  0
VERTEX
  5
133E07
  8
0
 10
0.0
 20
0.0
 30
0.0
 70
   128
 71
     1
 72
     9
 73
    10
  0
VERTEX
  5
133E08
  8
0
 10
0.0
 20
0.0
 30
0.0
 70
   128
 71
    12
 72
     1
 73
    10
  0
SEQEND
  5
1345EA
  8
0
  0
POLYLINE
  5
133E09
  8
0
 66
     1
 10
0.0
 20
0.0
 30
0.0
 70
    64
 71
     8
 72
     6
  0
VERTEX
  5
133E0A
  8
0
 10
10.68152853938718
 20
-7.500000000000002
 30
130.0027279643022
 70
   192
  0
VERTEX
  5
133E0B
  8
0
 10
10.03093852736948
 20
-6.750082973135798
 30
130.3760536965482
 70
   192
  0
VERTEX
  5
133E0C
  8
0
 10
5.623940474192505
 20
-6.750065485674661
 30
125.9690381555917
 70
   192
  0
VERTEX
  5
133E0D
  8
0
 10
12.24987456710432
 20
-7.500048713520598
 30
136.0
 70
   192
  0
VERTEX
  5
133E0E
  8
0
 10
11.49995436606471
 20
-6.750072314953036
 30
136.0000000000004
 70
   192
  0
VERTEX
  5
133E0F
  8
0
 10
-0.0000000000000023
 20
-6.750026681848001
 30
124.5
 70
   192
  0
VERTEX
  5
133E10
  8
0
 10
-0.0000000000000023
 20
-7.50009742705
 30
123.7501254329
 70
   192
  0
VERTEX
  5
133E11
  8
0
 10
5.997688505752576
 20
-7.499999999999999
 30
125.3186863799046
 70
   192
  0
VERTEX
  5
133E12
  8
0
 10
0.0
 20
0.0
 30
0.0
 70
   128
 71
     1
 72
     2
 73
     3
  0
VERTEX
  5
133E13
  8
0
 10
0.0
 20
0.0
 30
0.0
 70
   128
 71
     4
 72
     5
 73
     2
  0
VERTEX
  5
133E14
  8
0
 10
0.0
 20
0.0
 30
0.0
 70
   128
 71
     3
 72
     6
 73
     7
  0
VERTEX
  5
133E15
  8
0
 10
0.0
 20
0.0
 30
0.0
 70
   128
 71
     8
 72
     3
 73
     7
  0
VERTEX
  5
133E16
  8
0
 10
0.0
 20
0.0
 30
0.0
 70
   128
 71
     1
 72
     3
 73
     8
  0
VERTEX
  5
133E17
  8
0
 10
0.0
 20
0.0
 30
0.0
 70
   128
 71
     4
 72
     2
 73
     1
  0
SEQEND
  5
1345EB
  8
0
  0
POLYLINE
  5
133E18
  8
0
 66
     1
 10
0.0
 20
0.0
 30
0.0
 70
    64
 71
    16
 72
    16
  0
VERTEX
  5
133E19
  8
0
 10
-17.0
 20
-7.499999999999999
 30
160.5
 70
   192
  0
VERTEX
  5
133E1A
  8
0
 10
-17.0
 20
-7.499999999999999
 30
0.0000000000000282
 70
   192
  0
VERTEX
  5
133E1B
  8
0
 10
17.0
 20
-7.500000000000001
 30
0.0000000000000002
 70
   192
  0
VERTEX
  5
133E1C
  8
0
 10
17.0
 20
-7.500000000000001
 30
160.5
 70
   192
  0
VERTEX
  5
133E1D
  8
0
 10
-0.0000000000000023
 20
-7.50009742705
 30
123.7501254329
 70
   192
  0
VERTEX
  5
133E1E
  8
0
 10
-5.997272035826733
 20
-7.5
 30
125.3184714606665
 70
   192
  0
VERTEX
  5
133E1F
  8
0
 10
-10.68131362006529
 20
-7.500000000000001
 30
130.0023114941989
 70
   192
  0
VERTEX
  5
133E20
  8
0
 10
-12.24987456710438
 20
-7.500048713520596
 30
136.0
 70
   192
  0
VERTEX
  5
133E21
  8
0
 10
-10.68152853933924
 20
-7.500000000000002
 30
141.9972720358008
 70
   192
  0
VERTEX
  5
133E22
  8
0
 10
-5.997688505637599
 20
-7.500000000000001
 30
146.6813136201413
 70
   192
  0
VERTEX
  5
133E23
  8
0
 10
-0.0000000000000033
 20
-7.50009742705
 30
148.2498745671
 70
   192
  0
VERTEX
  5
133E24
  8
0
 10
5.997272035768577
 20
-7.500000000000002
 30
146.6815285393564
 70
   192
  0
VERTEX
  5
133E25
  8
0
 10
10.68131362011738
 20
-7.500000000000003
 30
141.997688505707
 70
   192
  0
VERTEX
  5
133E26
  8
0
 10
12.24987456710432
 20
-7.500048713520598
 30
136.0
 70
   192
  0
VERTEX
  5
133E27
  8
0
 10
10.68152853938718
 20
-7.500000000000002
 30
130.0027279643022
 70
   192
  0
VERTEX
  5
133E28
  8
0
 10
5.997688505752576
 20
-7.499999999999999
 30
125.3186863799046
 70
   192
  0
VERTEX
  5
133E29
  8
0
 10
0.0
 20
0.0
 30
0.0
 70
   128
 71
    -2
 72
     5
 73
    -6
  0
VERTEX
  5
133E2A
  8
0
 10
0.0
 20
0.0
 30
0.0
 70
   128
 71
     6
 72
    -7
 73
    -2
  0
VERTEX
  5
133E2B
  8
0
 10
0.0
 20
0.0
 30
0.0
 70
   128
 71
     7
 72
    -8
 73
    -2
  0
VERTEX
  5
133E2C
  8
0
 10
0.0
 20
0.0
 30
0.0
 70
   128
 71
    -8
 72
     1
 73
    -2
  0
VERTEX
  5
133E2D
  8
0
 10
0.0
 20
0.0
 30
0.0
 70
   128
 71
     8
 72
    -9
 73
    -1
  0
VERTEX
  5
133E2E
  8
0
 10
0.0
 20
0.0
 30
0.0
 70
   128
 71
     9
 72
   -10
 73
    -1
  0
VERTEX
  5
133E2F
  8
0
 10
0.0
 20
0.0
 30
0.0
 70
   128
 71
   -11
 72
     4
 73
    -1
  0
VERTEX
  5
133E30
  8
0
 10
0.0
 20
0.0
 30
0.0
 70
   128
 71
    10
 72
   -11
 73
    -1
  0
VERTEX
  5
133E31
  8
0
 10
0.0
 20
0.0
 30
0.0
 70
   128
 71
    11
 72
   -12
 73
    -4
  0
VERTEX
  5
133E32
  8
0
 10
0.0
 20
0.0
 30
0.0
 70
   128
 71
    12
 72
   -13
 73
    -4
  0
VERTEX
  5
133E33
  8
0
 10
0.0
 20
0.0
 30
0.0
 70
   128
 71
    13
 72
   -14
 73
    -4
  0
VERTEX
  5
133E34
  8
0
 10
0.0
 20
0.0
 30
0.0
 70
   128
 71
     3
 72
    -4
 73
   -14
  0
VERTEX
  5
133E35
  8
0
 10
0.0
 20
0.0
 30
0.0
 70
   128
 71
    14
 72
   -15
 73
    -3
  0
VERTEX
  5
133E36
  8
0
 10
0.0
 20
0.0
 30
0.0
 70
   128
 71
    15
 72
   -16
 73
    -3
  0
VERTEX
  5
133E37
  8
0
 10
0.0
 20
0.0
 30
0.0
 70
   128
 71
    -5
 72
     2
 73
    -3
  0
VERTEX
  5
133E38
  8
0
 10
0.0
 20
0.0
 30
0.0
 70
   128
 71
    16
 72
    -5
 73
    -3
  0
SEQEND
  5
1345EC
  8
0
  0
POLYLINE
  5
133E39
  8
0
 66
     1
 10
0.0
 20
0.0
 30
0.0
 70
    64
 71
     8
 72
     6
  0
VERTEX
  5
133E3A
  8
0
 10
-10.68152853933924
 20
-7.500000000000002
 30
141.9972720358008
 70
   192
  0
VERTEX
  5
133E3B
  8
0
 10
-10.03097150264233
 20
-6.750049998462842
 30
141.6239792787248
 70
   192
  0
VERTEX
  5
133E3C
  8
0
 10
-5.623973449465346
 20
-6.750032511001711
 30
146.0309948196812
 70
   192
  0
VERTEX
  5
133E3D
  8
0
 10
-12.24987456710438
 20
-7.500048713520596
 30
136.0
 70
   192
  0
VERTEX
  5
133E3E
  8
0
 10
-11.49995436606474
 20
-6.750072314953016
 30
135.9999999999997
 70
   192
  0
VERTEX
  5
133E3F
  8
0
 10
-0.0000000000000026
 20
-6.750026681848
 30
147.5
 70
   192
  0
VERTEX
  5
133E40
  8
0
 10
-0.0000000000000033
 20
-7.50009742705
 30
148.2498745671
 70
   192
  0
VERTEX
  5
133E41
  8
0
 10
-5.997688505637599
 20
-7.500000000000001
 30
146.6813136201413
 70
   192
  0
VERTEX
  5
133E42
  8
0
 10
0.0
 20
0.0
 30
0.0
 70
   128
 71
     1
 72
     2
 73
     3
  0
VERTEX
  5
133E43
  8
0
 10
0.0
 20
0.0
 30
0.0
 70
   128
 71
     4
 72
     5
 73
     2
  0
VERTEX
  5
133E44
  8
0
 10
0.0
 20
0.0
 30
0.0
 70
   128
 71
     3
 72
     6
 73
     7
  0
VERTEX
  5
133E45
  8
0
 10
0.0
 20
0.0
 30
0.0
 70
   128
 71
     8
 72
     3
 73
     7
  0
VERTEX
  5
133E46
  8
0
 10
0.0
 20
0.0
 30
0.0
 70
   128
 71
     1
 72
     3
 73
     8
  0
VERTEX
  5
133E47
  8
0
 10
0.0
 20
0.0
 30
0.0
 70
   128
 71
     4
 72
     2
 73
     1
  0
SEQEND
  5
1345ED
  8
0
  0
POLYLINE
  5
133E48
  8
0
 66
     1
 10
0.0
 20
0.0
 30
0.0
 70
    64
 71
    12
 72
    10
  0
VERTEX
  5
133E49
  8
0
 10
-0.0000000000000022
 20
-1.5
 30
147.5
 70
   192
  0
VERTEX
  5
133E4A
  8
0
 10
-0.0000000000000019
 20
-1.5
 30
124.5
 70
   192
  0
VERTEX
  5
133E4B
  8
0
 10
-11.5
 20
-1.499999999999999
 30
136.0
 70
   192
  0
VERTEX
  5
133E4C
  8
0
 10
-11.49995436606474
 20
-6.750072314953016
 30
135.9999999999997
 70
   192
  0
VERTEX
  5
133E4D
  8
0
 10
-8.131727983645298
 20
-1.5
 30
127.8682720163547
 70
   192
  0
VERTEX
  5
133E4E
  8
0
 10
-10.03097150264204
 20
-6.750049998462841
 30
130.3760207212748
 70
   192
  0
VERTEX
  5
133E4F
  8
0
 10
-5.623973449465091
 20
-6.750032511001712
 30
125.9690051803187
 70
   192
  0
VERTEX
  5
133E50
  8
0
 10
-0.0000000000000023
 20
-6.750026681848
 30
124.5
 70
   192
  0
VERTEX
  5
133E51
  8
0
 10
-0.0000000000000026
 20
-6.750026681848
 30
147.5
 70
   192
  0
VERTEX
  5
133E52
  8
0
 10
-5.623973449465346
 20
-6.750032511001711
 30
146.0309948196812
 70
   192
  0
VERTEX
  5
133E53
  8
0
 10
-10.03097150264233
 20
-6.750049998462842
 30
141.6239792787248
 70
   192
  0
VERTEX
  5
133E54
  8
0
 10
-8.1317279836453
 20
-1.5
 30
144.1317279836453
 70
   192
  0
VERTEX
  5
133E55
  8
0
 10
0.0
 20
0.0
 30
0.0
 70
   128
 71
     8
 72
     2
 73
     5
  0
VERTEX
  5
133E56
  8
0
 10
0.0
 20
0.0
 30
0.0
 70
   128
 71
     7
 72
     8
 73
     5
  0
VERTEX
  5
133E57
  8
0
 10
0.0
 20
0.0
 30
0.0
 70
   128
 71
     3
 72
     4
 73
     6
  0
VERTEX
  5
133E58
  8
0
 10
0.0
 20
0.0
 30
0.0
 70
   128
 71
     5
 72
     3
 73
     6
  0
VERTEX
  5
133E59
  8
0
 10
0.0
 20
0.0
 30
0.0
 70
   128
 71
     6
 72
     7
 73
     5
  0
VERTEX
  5
133E5A
  8
0
 10
0.0
 20
0.0
 30
0.0
 70
   128
 71
    12
 72
    10
 73
    11
  0
VERTEX
  5
133E5B
  8
0
 10
0.0
 20
0.0
 30
0.0
 70
   128
 71
     4
 72
     3
 73
    12
  0
VERTEX
  5
133E5C
  8
0
 10
0.0
 20
0.0
 30
0.0
 70
   128
 71
    11
 72
     4
 73
    12
  0
VERTEX
  5
133E5D
  8
0
 10
0.0
 20
0.0
 30
0.0
 70
   128
 71
     1
 72
     9
 73
    10
  0
VERTEX
  5
133E5E
  8
0
 10
0.0
 20
0.0
 30
0.0
 70
   128
 71
    12
 72
     1
 73
    10
  0
SEQEND
  5
1345EE
  8
0
  0
POLYLINE
  5
133E5F
  8
0
 66
     1
 10
0.0
 20
0.0
 30
0.0
 70
    64
 71
     8
 72
     6
  0
VERTEX
  5
133E60
  8
0
 10
-17.5
 20
-6.999999999999999
 30
0.0000000000000282
 70
   192
  0
VERTEX
  5
133E61
  8
0
 10
-17.43613020955136
 20
-7.244520838205433
 30
0.0000000000000282
 70
   192
  0
VERTEX
  5
133E62
  8
0
 10
-17.24452083820544
 20
-7.436130209551356
 30
0.0000000000000282
 70
   192
  0
VERTEX
  5
133E63
  8
0
 10
-17.0
 20
-7.499999999999999
 30
0.0000000000000282
 70
   192
  0
VERTEX
  5
133E64
  8
0
 10
-17.0
 20
-7.499999999999999
 30
160.5
 70
   192
  0
VERTEX
  5
133E65
  8
0
 10
-17.24452083820544
 20
-7.436130209551357
 30
160.5
 70
   192
  0
VERTEX
  5
133E66
  8
0
 10
-17.43613020955137
 20
-7.244520838205433
 30
160.5
 70
   192
  0
VERTEX
  5
133E67
  8
0
 10
-17.5
 20
-6.999999999999999
 30
160.5
 70
   192
  0
VERTEX
  5
133E68
  8
0
 10
0.0
 20
0.0
 30
0.0
 70
   128
 71
     4
 72
     5
 73
    -6
  0
VERTEX
  5
133E69
  8
0
 10
0.0
 20
0.0
 30
0.0
 70
   128
 71
     3
 72
    -4
 73
     6
  0
VERTEX
  5
133E6A
  8
0
 10
0.0
 20
0.0
 30
0.0
 70
   128
 71
     7
 72
     2
 73
    -3
  0
VERTEX
  5
133E6B
  8
0
 10
0.0
 20
0.0
 30
0.0
 70
   128
 71
     6
 72
    -7
 73
     3
  0
VERTEX
  5
133E6C
  8
0
 10
0.0
 20
0.0
 30
0.0
 70
   128
 71
     8
 72
     1
 73
    -2
  0
VERTEX
  5
133E6D
  8
0
 10
0.0
 20
0.0
 30
0.0
 70
   128
 71
     7
 72
    -8
 73
     2
  0
SEQEND
  5
1345EF
  8
0
  0
POLYLINE
  5
133E6E
  8
0
 66
     1
 10
0.0
 20
0.0
 30
0.0
 70
    64
 71
     4
 72
     2
  0
VERTEX
  5
133E6F
  8
0
 10
-17.5
 20
-6.999999999999999
 30
0.0000000000000282
 70
   192
  0
VERTEX
  5
133E70
  8
0
 10
-17.5
 20
-6.999999999999999
 30
160.5
 70
   192
  0
VERTEX
  5
133E71
  8
0
 10
-17.5
 20
7.000000000000001
 30
160.5
 70
   192
  0
VERTEX
  5
133E72
  8
0
 10
-17.5
 20
7.000000000000001
 30
-0.0000000000000002
 70
   192
  0
VERTEX
  5
133E73
  8
0
 10
0.0
 20
0.0
 30
0.0
 70
   128
 71
     3
 72
     4
 73
    -1
  0
VERTEX
  5
133E74
  8
0
 10
0.0
 20
0.0
 30
0.0
 70
   128
 71
     2
 72
    -3
 73
     1
  0
SEQEND
  5
1345F0
  8
0
  0
POLYLINE
  5
133E75
  8
0
 66
     1
 10
0.0
 20
0.0
 30
0.0
 70
    64
 71
     8
 72
     6
  0
VERTEX
  5
133E76
  8
0
 10
-17.0
 20
7.500000000000001
 30
-0.0000000000000002
 70
   192
  0
VERTEX
  5
133E77
  8
0
 10
-17.24452083820544
 20
7.436130209551359
 30
-0.0000000000000002
 70
   192
  0
VERTEX
  5
133E78
  8
0
 10
-17.43613020955136
 20
7.244520838205434
 30
-0.0000000000000002
 70
   192
  0
VERTEX
  5
133E79
  8
0
 10
-17.5
 20
7.000000000000001
 30
-0.0000000000000002
 70
   192
  0
VERTEX
  5
133E7A
  8
0
 10
-17.5
 20
7.000000000000001
 30
160.5
 70
   192
  0
VERTEX
  5
133E7B
  8
0
 10
-17.43613020955137
 20
7.244520838205434
 30
160.5
 70
   192
  0
VERTEX
  5
133E7C
  8
0
 10
-17.24452083820544
 20
7.436130209551359
 30
160.5
 70
   192
  0
VERTEX
  5
133E7D
  8
0
 10
-17.0
 20
7.500000000000001
 30
160.5
 70
   192
  0
VERTEX
  5
133E7E
  8
0
 10
0.0
 20
0.0
 30
0.0
 70
   128
 71
     4
 72
     5
 73
    -6
  0
VERTEX
  5
133E7F
  8
0
 10
0.0
 20
0.0
 30
0.0
 70
   128
 71
     3
 72
    -4
 73
     6
  0
VERTEX
  5
133E80
  8
0
 10
0.0
 20
0.0
 30
0.0
 70
   128
 71
     7
 72
     2
 73
    -3
  0
VERTEX
  5
133E81
  8
0
 10
0.0
 20
0.0
 30
0.0
 70
   128
 71
     6
 72
    -7
 73
     3
  0
VERTEX
  5
133E82
  8
0
 10
0.0
 20
0.0
 30
0.0
 70
   128
 71
     8
 72
     1
 73
    -2
  0
VERTEX
  5
133E83
  8
0
 10
0.0
 20
0.0
 30
0.0
 70
   128
 71
     7
 72
    -8
 73
     2
  0
SEQEND
  5
1345F1
  8
0
  0
POLYLINE
  5
133E84
  8
0
 66
     1
 10
0.0
 20
0.0
 30
0.0
 70
    64
 71
     4
 72
     2
  0
VERTEX
  5
133E85
  8
0
 10
-17.0
 20
7.500000000000001
 30
-0.0000000000000002
 70
   192
  0
VERTEX
  5
133E86
  8
0
 10
-17.0
 20
7.500000000000001
 30
160.5
 70
   192
  0
VERTEX
  5
133E87
  8
0
 10
17.0
 20
7.499999999999999
 30
160.5
 70
   192
  0
VERTEX
  5
133E88
  8
0
 10
17.0
 20
7.499999999999999
 30
0.0000000000000287
 70
   192
  0
VERTEX
  5
133E89
  8
0
 10
0.0
 20
0.0
 30
0.0
 70
   128
 71
     3
 72
     4
 73
    -1
  0
VERTEX
  5
133E8A
  8
0
 10
0.0
 20
0.0
 30
0.0
 70
   128
 71
     2
 72
    -3
 73
     1
  0
SEQEND
  5
1345F2
  8
0
  0
POLYLINE
  5
133E8B
  8
0
 66
     1
 10
0.0
 20
0.0
 30
0.0
 70
    64
 71
     8
 72
     6
  0
VERTEX
  5
133E8C
  8
0
 10
17.0
 20
7.499999999999999
 30
160.5
 70
   192
  0
VERTEX
  5
133E8D
  8
0
 10
-17.0
 20
7.500000000000001
 30
160.5
 70
   192
  0
VERTEX
  5
133E8E
  8
0
 10
-17.0
 20
7.436130209551359
 30
160.7445208382054
 70
   192
  0
VERTEX
  5
133E8F
  8
0
 10
-17.0
 20
7.244520838205434
 30
160.9361302095513
 70
   192
  0
VERTEX
  5
133E90
  8
0
 10
-17.0
 20
7.000000000000001
 30
161.0
 70
   192
  0
VERTEX
  5
133E91
  8
0
 10
17.0
 20
6.999999999999999
 30
161.0
 70
   192
  0
VERTEX
  5
133E92
  8
0
 10
17.0
 20
7.244520838205434
 30
160.9361302095514
 70
   192
  0
VERTEX
  5
133E93
  8
0
 10
17.0
 20
7.436130209551356
 30
160.7445208382054
 70
   192
  0
VERTEX
  5
133E94
  8
0
 10
0.0
 20
0.0
 30
0.0
 70
   128
 71
     5
 72
     6
 73
    -7
  0
VERTEX
  5
133E95
  8
0
 10
0.0
 20
0.0
 30
0.0
 70
   128
 71
     4
 72
    -5
 73
     7
  0
VERTEX
  5
133E96
  8
0
 10
0.0
 20
0.0
 30
0.0
 70
   128
 71
     8
 72
     3
 73
    -4
  0
VERTEX
  5
133E97
  8
0
 10
0.0
 20
0.0
 30
0.0
 70
   128
 71
     7
 72
    -8
 73
     4
  0
VERTEX
  5
133E98
  8
0
 10
0.0
 20
0.0
 30
0.0
 70
   128
 71
     1
 72
     2
 73
    -3
  0
VERTEX
  5
133E99
  8
0
 10
0.0
 20
0.0
 30
0.0
 70
   128
 71
     8
 72
    -1
 73
     3
  0
SEQEND
  5
1345F3
  8
0
  0
POLYLINE
  5
133E9A
  8
0
 66
     1
 10
0.0
 20
0.0
 30
0.0
 70
    64
 71
     9
 72
     7
  0
VERTEX
  5
133E9B
  8
0
 10
17.0
 20
6.999999999999999
 30
161.0
 70
   192
  0
VERTEX
  5
133E9C
  8
0
 10
17.24452083820543
 20
7.000000000000001
 30
160.9361302095513
 70
   192
  0
VERTEX
  5
133E9D
  8
0
 10
17.43613020955136
 20
7.000000000000001
 30
160.7445208382054
 70
   192
  0
VERTEX
  5
133E9E
  8
0
 10
17.5
 20
6.999999999999999
 30
160.5
 70
   192
  0
VERTEX
  5
133E9F
  8
0
 10
17.43613020955136
 20
7.244520838205433
 30
160.5
 70
   192
  0
VERTEX
  5
133EA0
  8
0
 10
17.24452083820544
 20
7.436130209551357
 30
160.5
 70
   192
  0
VERTEX
  5
133EA1
  8
0
 10
17.0
 20
7.499999999999999
 30
160.5
 70
   192
  0
VERTEX
  5
133EA2
  8
0
 10
17.0
 20
7.436130209551356
 30
160.7445208382054
 70
   192
  0
VERTEX
  5
133EA3
  8
0
 10
17.0
 20
7.244520838205434
 30
160.9361302095514
 70
   192
  0
VERTEX
  5
133EA4
  8
0
 10
0.0
 20
0.0
 30
0.0
 70
   128
 71
     6
 72
     7
 73
     8
  0
VERTEX
  5
133EA5
  8
0
 10
0.0
 20
0.0
 30
0.0
 70
   128
 71
     5
 72
     6
 73
    -8
  0
VERTEX
  5
133EA6
  8
0
 10
0.0
 20
0.0
 30
0.0
 70
   128
 71
     3
 72
     4
 73
     5
  0
VERTEX
  5
133EA7
  8
0
 10
0.0
 20
0.0
 30
0.0
 70
   128
 71
     9
 72
     3
 73
    -5
  0
VERTEX
  5
133EA8
  8
0
 10
0.0
 20
0.0
 30
0.0
 70
   128
 71
     8
 72
    -9
 73
    -5
  0
VERTEX
  5
133EA9
  8
0
 10
0.0
 20
0.0
 30
0.0
 70
   128
 71
     1
 72
     2
 73
     3
  0
VERTEX
  5
133EAA
  8
0
 10
0.0
 20
0.0
 30
0.0
 70
   128
 71
     9
 72
     1
 73
     3
  0
SEQEND
  5
1345F4
  8
0
  0
POLYLINE
  5
133EAB
  8
0
 66
     1
 10
0.0
 20
0.0
 30
0.0
 70
    64
 71
     8
 72
     6
  0
VERTEX
  5
133EAC
  8
0
 10
17.5
 20
-7.000000000000001
 30
160.5
 70
   192
  0
VERTEX
  5
133EAD
  8
0
 10
17.5
 20
6.999999999999999
 30
160.5
 70
   192
  0
VERTEX
  5
133EAE
  8
0
 10
17.43613020955136
 20
7.000000000000001
 30
160.7445208382054
 70
   192
  0
VERTEX
  5
133EAF
  8
0
 10
17.24452083820543
 20
7.000000000000001
 30
160.9361302095513
 70
   192
  0
VERTEX
  5
133EB0
  8
0
 10
17.0
 20
6.999999999999999
 30
161.0
 70
   192
  0
VERTEX
  5
133EB1
  8
0
 10
17.0
 20
-7.000000000000001
 30
161.0
 70
   192
  0
VERTEX
  5
133EB2
  8
0
 10
17.24452083820544
 20
-7.000000000000003
 30
160.9361302095514
 70
   192
  0
VERTEX
  5
133EB3
  8
0
 10
17.43613020955136
 20
-7.000000000000003
 30
160.7445208382054
 70
   192
  0
VERTEX
  5
133EB4
  8
0
 10
0.0
 20
0.0
 30
0.0
 70
   128
 71
     5
 72
     6
 73
    -7
  0
VERTEX
  5
133EB5
  8
0
 10
0.0
 20
0.0
 30
0.0
 70
   128
 71
     4
 72
    -5
 73
     7
  0
VERTEX
  5
133EB6
  8
0
 10
0.0
 20
0.0
 30
0.0
 70
   128
 71
     8
 72
     3
 73
    -4
  0
VERTEX
  5
133EB7
  8
0
 10
0.0
 20
0.0
 30
0.0
 70
   128
 71
     7
 72
    -8
 73
     4
  0
VERTEX
  5
133EB8
  8
0
 10
0.0
 20
0.0
 30
0.0
 70
   128
 71
     1
 72
     2
 73
    -3
  0
VERTEX
  5
133EB9
  8
0
 10
0.0
 20
0.0
 30
0.0
 70
   128
 71
     8
 72
    -1
 73
     3
  0
SEQEND
  5
1345F5
  8
0
  0
POLYLINE
  5
133EBA
  8
0
 66
     1
 10
0.0
 20
0.0
 30
0.0
 70
    64
 71
     9
 72
     7
  0
VERTEX
  5
133EBB
  8
0
 10
17.0
 20
-7.500000000000001
 30
160.5
 70
   192
  0
VERTEX
  5
133EBC
  8
0
 10
17.24452083820543
 20
-7.436130209551357
 30
160.5
 70
   192
  0
VERTEX
  5
133EBD
  8
0
 10
17.43613020955136
 20
-7.244520838205434
 30
160.5
 70
   192
  0
VERTEX
  5
133EBE
  8
0
 10
17.5
 20
-7.000000000000001
 30
160.5
 70
   192
  0
VERTEX
  5
133EBF
  8
0
 10
17.43613020955136
 20
-7.000000000000003
 30
160.7445208382054
 70
   192
  0
VERTEX
  5
133EC0
  8
0
 10
17.24452083820544
 20
-7.000000000000003
 30
160.9361302095514
 70
   192
  0
VERTEX
  5
133EC1
  8
0
 10
17.0
 20
-7.000000000000001
 30
161.0
 70
   192
  0
VERTEX
  5
133EC2
  8
0
 10
17.0
 20
-7.244520838205434
 30
160.9361302095514
 70
   192
  0
VERTEX
  5
133EC3
  8
0
 10
17.0
 20
-7.436130209551359
 30
160.7445208382054
 70
   192
  0
VERTEX
  5
133EC4
  8
0
 10
0.0
 20
0.0
 30
0.0
 70
   128
 71
     6
 72
     7
 73
     8
  0
VERTEX
  5
133EC5
  8
0
 10
0.0
 20
0.0
 30
0.0
 70
   128
 71
     5
 72
     6
 73
    -8
  0
VERTEX
  5
133EC6
  8
0
 10
0.0
 20
0.0
 30
0.0
 70
   128
 71
     3
 72
     4
 73
     5
  0
VERTEX
  5
133EC7
  8
0
 10
0.0
 20
0.0
 30
0.0
 70
   128
 71
     9
 72
     3
 73
    -5
  0
VERTEX
  5
133EC8
  8
0
 10
0.0
 20
0.0
 30
0.0
 70
   128
 71
     8
 72
    -9
 73
    -5
  0
VERTEX
  5
133EC9
  8
0
 10
0.0
 20
0.0
 30
0.0
 70
   128
 71
     1
 72
     2
 73
     3
  0
VERTEX
  5
133ECA
  8
0
 10
0.0
 20
0.0
 30
0.0
 70
   128
 71
     9
 72
     1
 73
     3
  0
SEQEND
  5
1345F6
  8
0
  0
POLYLINE
  5
133ECB
  8
0
 66
     1
 10
0.0
 20
0.0
 30
0.0
 70
    64
 71
     8
 72
     6
  0
VERTEX
  5
133ECC
  8
0
 10
17.0
 20
-7.500000000000001
 30
0.0000000000000002
 70
   192
  0
VERTEX
  5
133ECD
  8
0
 10
17.24452083820544
 20
-7.436130209551359
 30
0.0000000000000002
 70
   192
  0
VERTEX
  5
133ECE
  8
0
 10
17.43613020955136
 20
-7.244520838205434
 30
0.0000000000000002
 70
   192
  0
VERTEX
  5
133ECF
  8
0
 10
17.5
 20
-7.000000000000001
 30
0.0000000000000002
 70
   192
  0
VERTEX
  5
133ED0
  8
0
 10
17.5
 20
-7.000000000000001
 30
160.5
 70
   192
  0
VERTEX
  5
133ED1
  8
0
 10
17.43613020955136
 20
-7.244520838205434
 30
160.5
 70
   192
  0
VERTEX
  5
133ED2
  8
0
 10
17.24452083820543
 20
-7.436130209551357
 30
160.5
 70
   192
  0
VERTEX
  5
133ED3
  8
0
 10
17.0
 20
-7.500000000000001
 30
160.5
 70
   192
  0
VERTEX
  5
133ED4
  8
0
 10
0.0
 20
0.0
 30
0.0
 70
   128
 71
     4
 72
     5
 73
    -6
  0
VERTEX
  5
133ED5
  8
0
 10
0.0
 20
0.0
 30
0.0
 70
   128
 71
     3
 72
    -4
 73
     6
  0
VERTEX
  5
133ED6
  8
0
 10
0.0
 20
0.0
 30
0.0
 70
   128
 71
     7
 72
     2
 73
    -3
  0
VERTEX
  5
133ED7
  8
0
 10
0.0
 20
0.0
 30
0.0
 70
   128
 71
     6
 72
    -7
 73
     3
  0
VERTEX
  5
133ED8
  8
0
 10
0.0
 20
0.0
 30
0.0
 70
   128
 71
     8
 72
     1
 73
    -2
  0
VERTEX
  5
133ED9
  8
0
 10
0.0
 20
0.0
 30
0.0
 70
   128
 71
     7
 72
    -8
 73
     2
  0
SEQEND
  5
1345F7
  8
0
  0
POLYLINE
  5
133EDA
  8
0
 66
     1
 10
0.0
 20
0.0
 30
0.0
 70
    64
 71
     8
 72
     6
  0
VERTEX
  5
133EDB
  8
0
 10
17.0
 20
-7.000000000000001
 30
161.0
 70
   192
  0
VERTEX
  5
133EDC
  8
0
 10
-17.0
 20
-6.999999999999999
 30
161.0
 70
   192
  0
VERTEX
  5
133EDD
  8
0
 10
-17.0
 20
-7.244520838205434
 30
160.9361302095514
 70
   192
  0
VERTEX
  5
133EDE
  8
0
 10
-17.0
 20
-7.436130209551356
 30
160.7445208382054
 70
   192
  0
VERTEX
  5
133EDF
  8
0
 10
-17.0
 20
-7.499999999999999
 30
160.5
 70
   192
  0
VERTEX
  5
133EE0
  8
0
 10
17.0
 20
-7.500000000000001
 30
160.5
 70
   192
  0
VERTEX
  5
133EE1
  8
0
 10
17.0
 20
-7.436130209551359
 30
160.7445208382054
 70
   192
  0
VERTEX
  5
133EE2
  8
0
 10
17.0
 20
-7.244520838205434
 30
160.9361302095514
 70
   192
  0
VERTEX
  5
133EE3
  8
0
 10
0.0
 20
0.0
 30
0.0
 70
   128
 71
     5
 72
     6
 73
    -7
  0
VERTEX
  5
133EE4
  8
0
 10
0.0
 20
0.0
 30
0.0
 70
   128
 71
     4
 72
    -5
 73
     7
  0
VERTEX
  5
133EE5
  8
0
 10
0.0
 20
0.0
 30
0.0
 70
   128
 71
     8
 72
     3
 73
    -4
  0
VERTEX
  5
133EE6
  8
0
 10
0.0
 20
0.0
 30
0.0
 70
   128
 71
     7
 72
    -8
 73
     4
  0
VERTEX
  5
133EE7
  8
0
 10
0.0
 20
0.0
 30
0.0
 70
   128
 71
     1
 72
     2
 73
    -3
  0
VERTEX
  5
133EE8
  8
0
 10
0.0
 20
0.0
 30
0.0
 70
   128
 71
     8
 72
    -1
 73
     3
  0
SEQEND
  5
1345F8
  8
0
  0
POLYLINE
  5
133EE9
  8
0
 66
     1
 10
0.0
 20
0.0
 30
0.0
 70
    64
 71
     4
 72
     2
  0
VERTEX
  5
133EEA
  8
0
 10
-17.0
 20
-6.999999999999999
 30
161.0
 70
   192
  0
VERTEX
  5
133EEB
  8
0
 10
17.0
 20
-7.000000000000001
 30
161.0
 70
   192
  0
VERTEX
  5
133EEC
  8
0
 10
17.0
 20
6.999999999999999
 30
161.0
 70
   192
  0
VERTEX
  5
133EED
  8
0
 10
-17.0
 20
7.000000000000001
 30
161.0
 70
   192
  0
VERTEX
  5
133EEE
  8
0
 10
0.0
 20
0.0
 30
0.0
 70
   128
 71
     3
 72
     4
 73
    -1
  0
VERTEX
  5
133EEF
  8
0
 10
0.0
 20
0.0
 30
0.0
 70
   128
 71
     2
 72
    -3
 73
     1
  0
SEQEND
  5
1345F9
  8
0
  0
POLYLINE
  5
133EF0
  8
0
 66
     1
 10
0.0
 20
0.0
 30
0.0
 70
    64
 71
     8
 72
     6
  0
VERTEX
  5
133EF1
  8
0
 10
-17.0
 20
-6.999999999999999
 30
161.0
 70
   192
  0
VERTEX
  5
133EF2
  8
0
 10
-17.0
 20
7.000000000000001
 30
161.0
 70
   192
  0
VERTEX
  5
133EF3
  8
0
 10
-17.24452083820544
 20
7.000000000000003
 30
160.9361302095514
 70
   192
  0
VERTEX
  5
133EF4
  8
0
 10
-17.43613020955137
 20
7.000000000000003
 30
160.7445208382054
 70
   192
  0
VERTEX
  5
133EF5
  8
0
 10
-17.5
 20
7.000000000000001
 30
160.5
 70
   192
  0
VERTEX
  5
133EF6
  8
0
 10
-17.5
 20
-6.999999999999999
 30
160.5
 70
   192
  0
VERTEX
  5
133EF7
  8
0
 10
-17.43613020955137
 20
-7.0
 30
160.7445208382054
 70
   192
  0
VERTEX
  5
133EF8
  8
0
 10
-17.24452083820544
 20
-7.000000000000001
 30
160.9361302095513
 70
   192
  0
VERTEX
  5
133EF9
  8
0
 10
0.0
 20
0.0
 30
0.0
 70
   128
 71
     5
 72
     6
 73
    -7
  0
VERTEX
  5
133EFA
  8
0
 10
0.0
 20
0.0
 30
0.0
 70
   128
 71
     4
 72
    -5
 73
     7
  0
VERTEX
  5
133EFB
  8
0
 10
0.0
 20
0.0
 30
0.0
 70
   128
 71
     8
 72
     3
 73
    -4
  0
VERTEX
  5
133EFC
  8
0
 10
0.0
 20
0.0
 30
0.0
 70
   128
 71
     7
 72
    -8
 73
     4
  0
VERTEX
  5
133EFD
  8
0
 10
0.0
 20
0.0
 30
0.0
 70
   128
 71
     1
 72
     2
 73
    -3
  0
VERTEX
  5
133EFE
  8
0
 10
0.0
 20
0.0
 30
0.0
 70
   128
 71
     8
 72
    -1
 73
     3
  0
SEQEND
  5
1345FA
  8
0
  0
POLYLINE
  5
133EFF
  8
0
 66
     1
 10
0.0
 20
0.0
 30
0.0
 70
    64
 71
     9
 72
     7
  0
VERTEX
  5
133F00
  8
0
 10
-17.0
 20
-6.999999999999999
 30
161.0
 70
   192
  0
VERTEX
  5
133F01
  8
0
 10
-17.24452083820544
 20
-7.000000000000001
 30
160.9361302095513
 70
   192
  0
VERTEX
  5
133F02
  8
0
 10
-17.43613020955137
 20
-7.0
 30
160.7445208382054
 70
   192
  0
VERTEX
  5
133F03
  8
0
 10
-17.5
 20
-6.999999999999999
 30
160.5
 70
   192
  0
VERTEX
  5
133F04
  8
0
 10
-17.43613020955137
 20
-7.244520838205433
 30
160.5
 70
   192
  0
VERTEX
  5
133F05
  8
0
 10
-17.24452083820544
 20
-7.436130209551357
 30
160.5
 70
   192
  0
VERTEX
  5
133F06
  8
0
 10
-17.0
 20
-7.499999999999999
 30
160.5
 70
   192
  0
VERTEX
  5
133F07
  8
0
 10
-17.0
 20
-7.436130209551356
 30
160.7445208382054
 70
   192
  0
VERTEX
  5
133F08
  8
0
 10
-17.0
 20
-7.244520838205434
 30
160.9361302095514
 70
   192
  0
VERTEX
  5
133F09
  8
0
 10
0.0
 20
0.0
 30
0.0
 70
   128
 71
     9
 72
     1
 73
     2
  0
VERTEX
  5
133F0A
  8
0
 10
0.0
 20
0.0
 30
0.0
 70
   128
 71
     8
 72
     9
 73
    -2
  0
VERTEX
  5
133F0B
  8
0
 10
0.0
 20
0.0
 30
0.0
 70
   128
 71
     6
 72
     7
 73
     8
  0
VERTEX
  5
133F0C
  8
0
 10
0.0
 20
0.0
 30
0.0
 70
   128
 71
     3
 72
     6
 73
    -8
  0
VERTEX
  5
133F0D
  8
0
 10
0.0
 20
0.0
 30
0.0
 70
   128
 71
     2
 72
    -3
 73
    -8
  0
VERTEX
  5
133F0E
  8
0
 10
0.0
 20
0.0
 30
0.0
 70
   128
 71
     4
 72
     5
 73
     6
  0
VERTEX
  5
133F0F
  8
0
 10
0.0
 20
0.0
 30
0.0
 70
   128
 71
     3
 72
     4
 73
     6
  0
SEQEND
  5
1345FB
  8
0
  0
POLYLINE
  5
133F10
  8
0
 66
     1
 10
0.0
 20
0.0
 30
0.0
 70
    64
 71
     9
 72
     7
  0
VERTEX
  5
133F11
  8
0
 10
-17.0
 20
7.000000000000001
 30
161.0
 70
   192
  0
VERTEX
  5
133F12
  8
0
 10
-17.0
 20
7.244520838205434
 30
160.9361302095513
 70
   192
  0
VERTEX
  5
133F13
  8
0
 10
-17.0
 20
7.436130209551359
 30
160.7445208382054
 70
   192
  0
VERTEX
  5
133F14
  8
0
 10
-17.0
 20
7.500000000000001
 30
160.5
 70
   192
  0
VERTEX
  5
133F15
  8
0
 10
-17.24452083820544
 20
7.436130209551359
 30
160.5
 70
   192
  0
VERTEX
  5
133F16
  8
0
 10
-17.43613020955137
 20
7.244520838205434
 30
160.5
 70
   192
  0
VERTEX
  5
133F17
  8
0
 10
-17.5
 20
7.000000000000001
 30
160.5
 70
   192
  0
VERTEX
  5
133F18
  8
0
 10
-17.43613020955137
 20
7.000000000000003
 30
160.7445208382054
 70
   192
  0
VERTEX
  5
133F19
  8
0
 10
-17.24452083820544
 20
7.000000000000003
 30
160.9361302095514
 70
   192
  0
VERTEX
  5
133F1A
  8
0
 10
0.0
 20
0.0
 30
0.0
 70
   128
 71
     3
 72
     4
 73
     5
  0
VERTEX
  5
133F1B
  8
0
 10
0.0
 20
0.0
 30
0.0
 70
   128
 71
     2
 72
     3
 73
    -5
  0
VERTEX
  5
133F1C
  8
0
 10
0.0
 20
0.0
 30
0.0
 70
   128
 71
     9
 72
     1
 73
     2
  0
VERTEX
  5
133F1D
  8
0
 10
0.0
 20
0.0
 30
0.0
 70
   128
 71
     6
 72
     9
 73
    -2
  0
VERTEX
  5
133F1E
  8
0
 10
0.0
 20
0.0
 30
0.0
 70
   128
 71
     5
 72
    -6
 73
    -2
  0
VERTEX
  5
133F1F
  8
0
 10
0.0
 20
0.0
 30
0.0
 70
   128
 71
     7
 72
     8
 73
     9
  0
VERTEX
  5
133F20
  8
0
 10
0.0
 20
0.0
 30
0.0
 70
   128
 71
     6
 72
     7
 73
     9
  0
SEQEND
  5
1345FC
  8
0
  0
POLYLINE
  5
133F21
  8
0
 66
     1
 10
0.0
 20
0.0
 30
0.0
 70
    64
 71
     4
 72
     2
  0
VERTEX
  5
133F22
  8
0
 10
16.5
 20
-6.500000000000001
 30
160.0
 70
   192
  0
VERTEX
  5
133F23
  8
0
 10
-16.5
 20
-6.499999999999999
 30
160.0
 70
   192
  0
VERTEX
  5
133F24
  8
0
 10
-16.5
 20
6.500000000000001
 30
160.0
 70
   192
  0
VERTEX
  5
133F25
  8
0
 10
16.5
 20
6.499999999999999
 30
160.0
 70
   192
  0
VERTEX
  5
133F26
  8
0
 10
0.0
 20
0.0
 30
0.0
 70
   128
 71
     3
 72
     4
 73
    -1
  0
VERTEX
  5
133F27
  8
0
 10
0.0
 20
0.0
 30
0.0
 70
   128
 71
     2
 72
    -3
 73
     1
  0
SEQEND
  5
1345FD
  8
0
  0
ENDBLK
  5
1345C7
  8
0
  0
BLOCK
  8
0
  2
*X2
 70
     1
 10
0.0
 20
0.0
 30
0.0
  3
*X2
  1

  0
POLYLINE
  5
133F29
  8
0
 66
     1
 10
0.0
 20
0.0
 30
0.0
 70
    64
 71
    32
 72
    32
  0
VERTEX
  5
133F2A
  8
0
 10
-0.0000000000000036
 20
-15.29999937011195
 30
146.78756350816
 70
   192
  0
VERTEX
  5
133F2B
  8
0
 10
-3.970845056416417
 20
-15.29999937011195
 30
146.0301503468552
 70
   192
  0
VERTEX
  5
133F2C
  8
0
 10
-7.627959309100482
 20
-15.29999937011195
 30
143.6279593091004
 70
   192
  0
VERTEX
  5
133F2D
  8
0
 10
-10.03015034685516
 20
-15.29999937011195
 30
139.9708450564164
 70
   192
  0
VERTEX
  5
133F2E
  8
0
 10
-10.78756350816
 20
-15.29999937011195
 30
136.0
 70
   192
  0
VERTEX
  5
133F2F
  8
0
 10
-10.03015034685516
 20
-15.29999937011195
 30
132.0291549435836
 70
   192
  0
VERTEX
  5
133F30
  8
0
 10
-7.627959309100478
 20
-15.29999937011195
 30
128.3720406908995
 70
   192
  0
VERTEX
  5
133F31
  8
0
 10
-3.970845056416416
 20
-15.29999937011195
 30
125.9698496531448
 70
   192
  0
VERTEX
  5
133F32
  8
0
 10
-0.0000000000000029
 20
-15.29999937011195
 30
125.21243649184
 70
   192
  0
VERTEX
  5
133F33
  8
0
 10
3.97084505641641
 20
-15.29999937011195
 30
125.9698496531448
 70
   192
  0
VERTEX
  5
133F34
  8
0
 10
7.627959309100475
 20
-15.29999937011195
 30
128.3720406908995
 70
   192
  0
VERTEX
  5
133F35
  8
0
 10
10.03015034685515
 20
-15.29999937011195
 30
132.0291549435836
 70
   192
  0
VERTEX
  5
133F36
  8
0
 10
10.78756350816
 20
-15.29999937011195
 30
136.0
 70
   192
  0
VERTEX
  5
133F37
  8
0
 10
10.03015034685515
 20
-15.29999937011195
 30
139.9708450564164
 70
   192
  0
VERTEX
  5
133F38
  8
0
 10
7.627959309100471
 20
-15.29999937011195
 30
143.6279593091005
 70
   192
  0
VERTEX
  5
133F39
  8
0
 10
3.970845056416409
 20
-15.29999937011195
 30
146.0301503468552
 70
   192
  0
VERTEX
  5
133F3A
  8
0
 10
-0.0000000000000014
 20
-15.29999798960699
 30
125.79999953071
 70
   192
  0
VERTEX
  5
133F3B
  8
0
 10
-3.754566210274273
 20
-15.29999798960699
 30
126.5161588928228
 70
   192
  0
VERTEX
  5
133F3C
  8
0
 10
-7.212489499940928
 20
-15.29999798960699
 30
128.7875105000591
 70
   192
  0
VERTEX
  5
133F3D
  8
0
 10
-9.483841107177142
 20
-15.29999798960699
 30
132.2454337897257
 70
   192
  0
VERTEX
  5
133F3E
  8
0
 10
-10.20000046929
 20
-15.29999798960699
 30
136.0
 70
   192
  0
VERTEX
  5
133F3F
  8
0
 10
-9.483841107177145
 20
-15.29999798960699
 30
139.7545662102742
 70
   192
  0
VERTEX
  5
133F40
  8
0
 10
-7.212489499940933
 20
-15.29999798960699
 30
143.2124894999409
 70
   192
  0
VERTEX
  5
133F41
  8
0
 10
-3.754566210274276
 20
-15.29999798960699
 30
145.4838411071771
 70
   192
  0
VERTEX
  5
133F42
  8
0
 10
-0.0000000000000032
 20
-15.29999798960699
 30
146.20000046929
 70
   192
  0
VERTEX
  5
133F43
  8
0
 10
3.75456621027426
 20
-15.29999798960699
 30
145.4838411071771
 70
   192
  0
VERTEX
  5
133F44
  8
0
 10
7.212489499940919
 20
-15.29999798960699
 30
143.2124894999409
 70
   192
  0
VERTEX
  5
133F45
  8
0
 10
9.483841107177135
 20
-15.29999798960699
 30
139.7545662102742
 70
   192
  0
VERTEX
  5
133F46
  8
0
 10
10.20000046929
 20
-15.29999798960699
 30
136.0
 70
   192
  0
VERTEX
  5
133F47
  8
0
 10
9.483841107177136
 20
-15.29999798960699
 30
132.2454337897258
 70
   192
  0
VERTEX
  5
133F48
  8
0
 10
7.212489499940922
 20
-15.29999798960699
 30
128.7875105000591
 70
   192
  0
VERTEX
  5
133F49
  8
0
 10
3.754566210274263
 20
-15.29999798960699
 30
126.5161588928229
 70
   192
  0
VERTEX
  5
133F4A
  8
0
 10
0.0
 20
0.0
 30
0.0
 70
   128
 71
    -9
 72
    17
 73
   -18
  0
VERTEX
  5
133F4B
  8
0
 10
0.0
 20
0.0
 30
0.0
 70
   128
 71
     8
 72
    -9
 73
   -18
  0
VERTEX
  5
133F4C
  8
0
 10
0.0
 20
0.0
 30
0.0
 70
   128
 71
   -19
 72
     7
 73
    -8
  0
VERTEX
  5
133F4D
  8
0
 10
0.0
 20
0.0
 30
0.0
 70
   128
 71
    18
 72
   -19
 73
    -8
  0
VERTEX
  5
133F4E
  8
0
 10
0.0
 20
0.0
 30
0.0
 70
   128
 71
   -20
 72
     6
 73
    -7
  0
VERTEX
  5
133F4F
  8
0
 10
0.0
 20
0.0
 30
0.0
 70
   128
 71
    19
 72
   -20
 73
    -7
  0
VERTEX
  5
133F50
  8
0
 10
0.0
 20
0.0
 30
0.0
 70
   128
 71
   -21
 72
     5
 73
    -6
  0
VERTEX
  5
133F51
  8
0
 10
0.0
 20
0.0
 30
0.0
 70
   128
 71
    20
 72
   -21
 73
    -6
  0
VERTEX
  5
133F52
  8
0
 10
0.0
 20
0.0
 30
0.0
 70
   128
 71
   -22
 72
     4
 73
    -5
  0
VERTEX
  5
133F53
  8
0
 10
0.0
 20
0.0
 30
0.0
 70
   128
 71
    21
 72
   -22
 73
    -5
  0
VERTEX
  5
133F54
  8
0
 10
0.0
 20
0.0
 30
0.0
 70
   128
 71
   -23
 72
     3
 73
    -4
  0
VERTEX
  5
133F55
  8
0
 10
0.0
 20
0.0
 30
0.0
 70
   128
 71
    22
 72
   -23
 73
    -4
  0
VERTEX
  5
133F56
  8
0
 10
0.0
 20
0.0
 30
0.0
 70
   128
 71
   -24
 72
     2
 73
    -3
  0
VERTEX
  5
133F57
  8
0
 10
0.0
 20
0.0
 30
0.0
 70
   128
 71
    23
 72
   -24
 73
    -3
  0
VERTEX
  5
133F58
  8
0
 10
0.0
 20
0.0
 30
0.0
 70
   128
 71
   -25
 72
     1
 73
    -2
  0
VERTEX
  5
133F59
  8
0
 10
0.0
 20
0.0
 30
0.0
 70
   128
 71
    24
 72
   -25
 73
    -2
  0
VERTEX
  5
133F5A
  8
0
 10
0.0
 20
0.0
 30
0.0
 70
   128
 71
   -26
 72
    16
 73
    -1
  0
VERTEX
  5
133F5B
  8
0
 10
0.0
 20
0.0
 30
0.0
 70
   128
 71
    25
 72
   -26
 73
    -1
  0
VERTEX
  5
133F5C
  8
0
 10
0.0
 20
0.0
 30
0.0
 70
   128
 71
   -27
 72
    15
 73
   -16
  0
VERTEX
  5
133F5D
  8
0
 10
0.0
 20
0.0
 30
0.0
 70
   128
 71
    26
 72
   -27
 73
   -16
  0
VERTEX
  5
133F5E
  8
0
 10
0.0
 20
0.0
 30
0.0
 70
   128
 71
   -28
 72
    14
 73
   -15
  0
VERTEX
  5
133F5F
  8
0
 10
0.0
 20
0.0
 30
0.0
 70
   128
 71
    27
 72
   -28
 73
   -15
  0
VERTEX
  5
133F60
  8
0
 10
0.0
 20
0.0
 30
0.0
 70
   128
 71
   -29
 72
    13
 73
   -14
  0
VERTEX
  5
133F61
  8
0
 10
0.0
 20
0.0
 30
0.0
 70
   128
 71
    28
 72
   -29
 73
   -14
  0
VERTEX
  5
133F62
  8
0
 10
0.0
 20
0.0
 30
0.0
 70
   128
 71
   -30
 72
    12
 73
   -13
  0
VERTEX
  5
133F63
  8
0
 10
0.0
 20
0.0
 30
0.0
 70
   128
 71
    29
 72
   -30
 73
   -13
  0
VERTEX
  5
133F64
  8
0
 10
0.0
 20
0.0
 30
0.0
 70
   128
 71
   -31
 72
    11
 73
   -12
  0
VERTEX
  5
133F65
  8
0
 10
0.0
 20
0.0
 30
0.0
 70
   128
 71
    30
 72
   -31
 73
   -12
  0
VERTEX
  5
133F66
  8
0
 10
0.0
 20
0.0
 30
0.0
 70
   128
 71
   -32
 72
    10
 73
   -11
  0
VERTEX
  5
133F67
  8
0
 10
0.0
 20
0.0
 30
0.0
 70
   128
 71
    31
 72
   -32
 73
   -11
  0
VERTEX
  5
133F68
  8
0
 10
0.0
 20
0.0
 30
0.0
 70
   128
 71
   -17
 72
     9
 73
   -10
  0
VERTEX
  5
133F69
  8
0
 10
0.0
 20
0.0
 30
0.0
 70
   128
 71
    32
 72
   -17
 73
   -10
  0
SEQEND
  5
134600
  8
0
  0
POLYLINE
  5
133F6A
  8
0
 66
     1
 10
0.0
 20
0.0
 30
0.0
 70
    64
 71
    24
 72
    22
  0
VERTEX
  5
133F6B
  8
0
 10
-11.52034045737946
 20
-14.5999987042527
 30
139.358832497471
 70
   192
  0
VERTEX
  5
133F6C
  8
0
 10
-10.03015034685516
 20
-15.29999937011195
 30
139.9708450564164
 70
   192
  0
VERTEX
  5
133F6D
  8
0
 10
-7.627959309100482
 20
-15.29999937011195
 30
143.6279593091004
 70
   192
  0
VERTEX
  5
133F6E
  8
0
 10
-10.03867467048707
 20
-14.5999987042527
 30
142.5745730553492
 70
   192
  0
VERTEX
  5
133F6F
  8
0
 10
-12.0
 20
-14.5999987042527
 30
136.0000000000001
 70
   192
  0
VERTEX
  5
133F70
  8
0
 10
-10.78756350816
 20
-15.29999937011195
 30
136.0
 70
   192
  0
VERTEX
  5
133F71
  8
0
 10
-0.0000000000000036
 20
-15.29999937011195
 30
146.78756350816
 70
   192
  0
VERTEX
  5
133F72
  8
0
 10
0.0000000001306309
 20
-15.1773490813004
 30
147.00000000014
 70
   192
  0
VERTEX
  5
133F73
  8
0
 10
-1.586389016907121
 20
-15.11167931634143
 30
146.999939424744
 70
   192
  0
VERTEX
  5
133F74
  8
0
 10
-3.970845056416417
 20
-15.29999937011195
 30
146.0301503468552
 70
   192
  0
VERTEX
  5
133F75
  8
0
 10
-3.178219077086736
 20
-14.91759830765994
 30
146.9999910900756
 70
   192
  0
VERTEX
  5
133F76
  8
0
 10
-4.795831523313002
 20
-14.5999987042527
 30
147.0
 70
   192
  0
VERTEX
  5
133F77
  8
0
 10
-7.683064116414874
 20
-14.5999987042527
 30
145.2179458548562
 70
   192
  0
VERTEX
  5
133F78
  8
0
 10
-3.970845056416416
 20
-15.29999937011195
 30
125.9698496531448
 70
   192
  0
VERTEX
  5
133F79
  8
0
 10
-3.17825491139647
 20
-14.91758198093364
 30
125.0000186609844
 70
   192
  0
VERTEX
  5
133F7A
  8
0
 10
-1.586514182433909
 20
-15.11167362856248
 30
124.9999941127834
 70
   192
  0
VERTEX
  5
133F7B
  8
0
 10
-0.0000000000000029
 20
-15.29999937011195
 30
125.21243649184
 70
   192
  0
VERTEX
  5
133F7C
  8
0
 10
-0.0000000001306556
 20
-15.1773490813005
 30
124.99999999986
 70
   192
  0
VERTEX
  5
133F7D
  8
0
 10
-7.683064116414891
 20
-14.5999987042527
 30
126.7820541451438
 70
   192
  0
VERTEX
  5
133F7E
  8
0
 10
-4.795831523313002
 20
-14.5999987042527
 30
125.0
 70
   192
  0
VERTEX
  5
133F7F
  8
0
 10
-7.627959309100478
 20
-15.29999937011195
 30
128.3720406908995
 70
   192
  0
VERTEX
  5
133F80
  8
0
 10
-11.52034045737947
 20
-14.5999987042527
 30
132.641167502529
 70
   192
  0
VERTEX
  5
133F81
  8
0
 10
-10.03015034685516
 20
-15.29999937011195
 30
132.0291549435836
 70
   192
  0
VERTEX
  5
133F82
  8
0
 10
-10.0386746704871
 20
-14.5999987042527
 30
129.4254269446509
 70
   192
  0
VERTEX
  5
133F83
  8
0
 10
0.0
 20
0.0
 30
0.0
 70
   128
 71
     1
 72
     2
 73
     3
  0
VERTEX
  5
133F84
  8
0
 10
0.0
 20
0.0
 30
0.0
 70
   128
 71
     4
 72
     1
 73
     3
  0
VERTEX
  5
133F85
  8
0
 10
0.0
 20
0.0
 30
0.0
 70
   128
 71
     5
 72
     6
 73
     2
  0
VERTEX
  5
133F86
  8
0
 10
0.0
 20
0.0
 30
0.0
 70
   128
 71
     1
 72
     5
 73
     2
  0
VERTEX
  5
133F87
  8
0
 10
0.0
 20
0.0
 30
0.0
 70
   128
 71
     7
 72
     8
 73
     9
  0
VERTEX
  5
133F88
  8
0
 10
0.0
 20
0.0
 30
0.0
 70
   128
 71
    10
 72
     7
 73
     9
  0
VERTEX
  5
133F89
  8
0
 10
0.0
 20
0.0
 30
0.0
 70
   128
 71
     9
 72
    11
 73
    10
  0
VERTEX
  5
133F8A
  8
0
 10
0.0
 20
0.0
 30
0.0
 70
   128
 71
    11
 72
    12
 73
    13
  0
VERTEX
  5
133F8B
  8
0
 10
0.0
 20
0.0
 30
0.0
 70
   128
 71
    14
 72
    15
 73
    16
  0
VERTEX
  5
133F8C
  8
0
 10
0.0
 20
0.0
 30
0.0
 70
   128
 71
    16
 72
    17
 73
    14
  0
VERTEX
  5
133F8D
  8
0
 10
0.0
 20
0.0
 30
0.0
 70
   128
 71
    16
 72
    18
 73
    17
  0
VERTEX
  5
133F8E
  8
0
 10
0.0
 20
0.0
 30
0.0
 70
   128
 71
    19
 72
    20
 73
    15
  0
VERTEX
  5
133F8F
  8
0
 10
0.0
 20
0.0
 30
0.0
 70
   128
 71
    21
 72
    19
 73
    15
  0
VERTEX
  5
133F90
  8
0
 10
0.0
 20
0.0
 30
0.0
 70
   128
 71
    14
 72
    21
 73
    15
  0
VERTEX
  5
133F91
  8
0
 10
0.0
 20
0.0
 30
0.0
 70
   128
 71
     6
 72
     5
 73
    22
  0
VERTEX
  5
133F92
  8
0
 10
0.0
 20
0.0
 30
0.0
 70
   128
 71
    23
 72
     6
 73
    22
  0
VERTEX
  5
133F93
  8
0
 10
0.0
 20
0.0
 30
0.0
 70
   128
 71
    24
 72
    21
 73
    23
  0
VERTEX
  5
133F94
  8
0
 10
0.0
 20
0.0
 30
0.0
 70
   128
 71
    22
 72
    24
 73
    23
  0
VERTEX
  5
133F95
  8
0
 10
0.0
 20
0.0
 30
0.0
 70
   128
 71
     3
 72
    10
 73
    11
  0
VERTEX
  5
133F96
  8
0
 10
0.0
 20
0.0
 30
0.0
 70
   128
 71
     4
 72
     3
 73
    11
  0
VERTEX
  5
133F97
  8
0
 10
0.0
 20
0.0
 30
0.0
 70
   128
 71
    13
 72
     4
 73
    11
  0
VERTEX
  5
133F98
  8
0
 10
0.0
 20
0.0
 30
0.0
 70
   128
 71
    19
 72
    21
 73
    24
  0
SEQEND
  5
134601
  8
0
  0
POLYLINE
  5
133F99
  8
0
 66
     1
 10
0.0
 20
0.0
 30
0.0
 70
    64
 71
     9
 72
     7
  0
VERTEX
  5
133F9A
  8
0
 10
4.795831523312997
 20
-11.8
 30
147.0
 70
   192
  0
VERTEX
  5
133F9B
  8
0
 10
-4.795831523313002
 20
-11.8
 30
147.0
 70
   192
  0
VERTEX
  5
133F9C
  8
0
 10
-4.795831523313002
 20
-14.5999987042527
 30
147.0
 70
   192
  0
VERTEX
  5
133F9D
  8
0
 10
-3.178219077086736
 20
-14.91759830765994
 30
146.9999910900756
 70
   192
  0
VERTEX
  5
133F9E
  8
0
 10
-1.586389016907121
 20
-15.11167931634143
 30
146.999939424744
 70
   192
  0
VERTEX
  5
133F9F
  8
0
 10
0.0000000001306309
 20
-15.1773490813004
 30
147.00000000014
 70
   192
  0
VERTEX
  5
133FA0
  8
0
 10
1.586514182471817
 20
-15.1116736285625
 30
147.0000058872109
 70
   192
  0
VERTEX
  5
133FA1
  8
0
 10
3.178254911431906
 20
-14.91758198092483
 30
146.9999813390213
 70
   192
  0
VERTEX
  5
133FA2
  8
0
 10
4.795831523312997
 20
-14.5999987042527
 30
147.0
 70
   192
  0
VERTEX
  5
133FA3
  8
0
 10
0.0
 20
0.0
 30
0.0
 70
   128
 71
     2
 72
     3
 73
    -4
  0
VERTEX
  5
133FA4
  8
0
 10
0.0
 20
0.0
 30
0.0
 70
   128
 71
     4
 72
    -5
 73
    -2
  0
VERTEX
  5
133FA5
  8
0
 10
0.0
 20
0.0
 30
0.0
 70
   128
 71
    -6
 72
     1
 73
    -2
  0
VERTEX
  5
133FA6
  8
0
 10
0.0
 20
0.0
 30
0.0
 70
   128
 71
     5
 72
    -6
 73
    -2
  0
VERTEX
  5
133FA7
  8
0
 10
0.0
 20
0.0
 30
0.0
 70
   128
 71
     6
 72
    -7
 73
    -1
  0
VERTEX
  5
133FA8
  8
0
 10
0.0
 20
0.0
 30
0.0
 70
   128
 71
     7
 72
    -8
 73
    -1
  0
VERTEX
  5
133FA9
  8
0
 10
0.0
 20
0.0
 30
0.0
 70
   128
 71
     8
 72
     9
 73
    -1
  0
SEQEND
  5
134602
  8
0
  0
POLYLINE
  5
133FAA
  8
0
 66
     1
 10
0.0
 20
0.0
 30
0.0
 70
    64
 71
    26
 72
    24
  0
VERTEX
  5
133FAB
  8
0
 10
8.485281374238548
 20
-8.299999999999997
 30
144.4852813742386
 70
   192
  0
VERTEX
  5
133FAC
  8
0
 10
4.417136514742461
 20
-8.299999999999995
 30
147.1574596127491
 70
   192
  0
VERTEX
  5
133FAD
  8
0
 10
4.795831523312997
 20
-11.8
 30
147.0
 70
   192
  0
VERTEX
  5
133FAE
  8
0
 10
7.683064116414867
 20
-14.5999987042527
 30
145.2179458548562
 70
   192
  0
VERTEX
  5
133FAF
  8
0
 10
4.795831523312997
 20
-14.5999987042527
 30
147.0
 70
   192
  0
VERTEX
  5
133FB0
  8
0
 10
-0.0000000000000027
 20
-8.299999999999999
 30
148.0
 70
   192
  0
VERTEX
  5
133FB1
  8
0
 10
-0.0000000000000032
 20
-11.8
 30
148.0
 70
   192
  0
VERTEX
  5
133FB2
  8
0
 10
1.636849543902265
 20
-11.8
 30
147.8878393146369
 70
   192
  0
VERTEX
  5
133FB3
  8
0
 10
3.250560795524188
 20
-11.8
 30
147.5513572585477
 70
   192
  0
VERTEX
  5
133FB4
  8
0
 10
12.0
 20
-14.5999987042527
 30
136.0000000000001
 70
   192
  0
VERTEX
  5
133FB5
  8
0
 10
12.0
 20
-8.3
 30
136.0
 70
   192
  0
VERTEX
  5
133FB6
  8
0
 10
11.15745961274915
 20
-8.299999999999997
 30
140.4171365147425
 70
   192
  0
VERTEX
  5
133FB7
  8
0
 10
11.52034045737945
 20
-14.5999987042527
 30
139.358832497471
 70
   192
  0
VERTEX
  5
133FB8
  8
0
 10
8.485281374238593
 20
-8.299999999999999
 30
127.5147186257615
 70
   192
  0
VERTEX
  5
133FB9
  8
0
 10
11.15745961274918
 20
-8.299999999999999
 30
131.5828634852576
 70
   192
  0
VERTEX
  5
133FBA
  8
0
 10
10.03867467048709
 20
-14.5999987042527
 30
129.4254269446509
 70
   192
  0
VERTEX
  5
133FBB
  8
0
 10
11.52034045737947
 20
-14.5999987042527
 30
132.641167502529
 70
   192
  0
VERTEX
  5
133FBC
  8
0
 10
1.636849543902265
 20
-11.8
 30
124.1121606853631
 70
   192
  0
VERTEX
  5
133FBD
  8
0
 10
-0.0000000000000024
 20
-8.299999999999999
 30
124.0
 70
   192
  0
VERTEX
  5
133FBE
  8
0
 10
4.417136514742486
 20
-8.299999999999997
 30
124.8425403872508
 70
   192
  0
VERTEX
  5
133FBF
  8
0
 10
3.250560795524188
 20
-11.8
 30
124.4486427414523
 70
   192
  0
VERTEX
  5
133FC0
  8
0
 10
-0.0000000000000023
 20
-11.8
 30
124.0
 70
   192
  0
VERTEX
  5
133FC1
  8
0
 10
7.683064116414884
 20
-14.5999987042527
 30
126.7820541451438
 70
   192
  0
VERTEX
  5
133FC2
  8
0
 10
4.795831523312997
 20
-14.5999987042527
 30
125.0
 70
   192
  0
VERTEX
  5
133FC3
  8
0
 10
4.795831523312997
 20
-11.8
 30
125.0
 70
   192
  0
VERTEX
  5
133FC4
  8
0
 10
10.03867467048707
 20
-14.5999987042527
 30
142.5745730553492
 70
   192
  0
VERTEX
  5
133FC5
  8
0
 10
0.0
 20
0.0
 30
0.0
 70
   128
 71
     1
 72
     2
 73
     3
  0
VERTEX
  5
133FC6
  8
0
 10
0.0
 20
0.0
 30
0.0
 70
   128
 71
     3
 72
     4
 73
     1
  0
VERTEX
  5
133FC7
  8
0
 10
0.0
 20
0.0
 30
0.0
 70
   128
 71
     3
 72
     5
 73
     4
  0
VERTEX
  5
133FC8
  8
0
 10
0.0
 20
0.0
 30
0.0
 70
   128
 71
     6
 72
     7
 73
     8
  0
VERTEX
  5
133FC9
  8
0
 10
0.0
 20
0.0
 30
0.0
 70
   128
 71
     9
 72
     2
 73
     6
  0
VERTEX
  5
133FCA
  8
0
 10
0.0
 20
0.0
 30
0.0
 70
   128
 71
     8
 72
     9
 73
     6
  0
VERTEX
  5
133FCB
  8
0
 10
0.0
 20
0.0
 30
0.0
 70
   128
 71
    10
 72
    11
 73
    12
  0
VERTEX
  5
133FCC
  8
0
 10
0.0
 20
0.0
 30
0.0
 70
   128
 71
    13
 72
    10
 73
    12
  0
VERTEX
  5
133FCD
  8
0
 10
0.0
 20
0.0
 30
0.0
 70
   128
 71
    14
 72
    15
 73
    16
  0
VERTEX
  5
133FCE
  8
0
 10
0.0
 20
0.0
 30
0.0
 70
   128
 71
    11
 72
    10
 73
    17
  0
VERTEX
  5
133FCF
  8
0
 10
0.0
 20
0.0
 30
0.0
 70
   128
 71
    15
 72
    11
 73
    17
  0
VERTEX
  5
133FD0
  8
0
 10
0.0
 20
0.0
 30
0.0
 70
   128
 71
    18
 72
    19
 73
    20
  0
VERTEX
  5
133FD1
  8
0
 10
0.0
 20
0.0
 30
0.0
 70
   128
 71
    21
 72
    18
 73
    20
  0
VERTEX
  5
133FD2
  8
0
 10
0.0
 20
0.0
 30
0.0
 70
   128
 71
    18
 72
    22
 73
    19
  0
VERTEX
  5
133FD3
  8
0
 10
0.0
 20
0.0
 30
0.0
 70
   128
 71
    23
 72
    24
 73
    25
  0
VERTEX
  5
133FD4
  8
0
 10
0.0
 20
0.0
 30
0.0
 70
   128
 71
     4
 72
    26
 73
     1
  0
VERTEX
  5
133FD5
  8
0
 10
0.0
 20
0.0
 30
0.0
 70
   128
 71
    13
 72
    12
 73
     1
  0
VERTEX
  5
133FD6
  8
0
 10
0.0
 20
0.0
 30
0.0
 70
   128
 71
    26
 72
    13
 73
     1
  0
VERTEX
  5
133FD7
  8
0
 10
0.0
 20
0.0
 30
0.0
 70
   128
 71
    16
 72
    23
 73
    25
  0
VERTEX
  5
133FD8
  8
0
 10
0.0
 20
0.0
 30
0.0
 70
   128
 71
    20
 72
    14
 73
    16
  0
VERTEX
  5
133FD9
  8
0
 10
0.0
 20
0.0
 30
0.0
 70
   128
 71
    25
 72
    20
 73
    16
  0
VERTEX
  5
133FDA
  8
0
 10
0.0
 20
0.0
 30
0.0
 70
   128
 71
    17
 72
    16
 73
    15
  0
VERTEX
  5
133FDB
  8
0
 10
0.0
 20
0.0
 30
0.0
 70
   128
 71
     9
 72
     3
 73
     2
  0
VERTEX
  5
133FDC
  8
0
 10
0.0
 20
0.0
 30
0.0
 70
   128
 71
    25
 72
    21
 73
    20
  0
SEQEND
  5
134603
  8
0
  0
POLYLINE
  5
133FDD
  8
0
 66
     1
 10
0.0
 20
0.0
 30
0.0
 70
    64
 71
     7
 72
     5
  0
VERTEX
  5
133FDE
  8
0
 10
-0.0000000000000023
 20
-11.8
 30
124.0
 70
   192
  0
VERTEX
  5
133FDF
  8
0
 10
1.636849543902265
 20
-11.8
 30
124.1121606853631
 70
   192
  0
VERTEX
  5
133FE0
  8
0
 10
3.250560795524188
 20
-11.8
 30
124.4486427414523
 70
   192
  0
VERTEX
  5
133FE1
  8
0
 10
4.795831523312997
 20
-11.8
 30
125.0
 70
   192
  0
VERTEX
  5
133FE2
  8
0
 10
-4.795831523313002
 20
-11.8
 30
125.0
 70
   192
  0
VERTEX
  5
133FE3
  8
0
 10
-3.250560795524194
 20
-11.8
 30
124.4486427414523
 70
   192
  0
VERTEX
  5
133FE4
  8
0
 10
-1.636849543902271
 20
-11.8
 30
124.1121606853631
 70
   192
  0
VERTEX
  5
133FE5
  8
0
 10
0.0
 20
0.0
 30
0.0
 70
   128
 71
     6
 72
     7
 73
    -1
  0
VERTEX
  5
133FE6
  8
0
 10
0.0
 20
0.0
 30
0.0
 70
   128
 71
     5
 72
    -6
 73
    -1
  0
VERTEX
  5
133FE7
  8
0
 10
0.0
 20
0.0
 30
0.0
 70
   128
 71
     4
 72
    -5
 73
    -1
  0
VERTEX
  5
133FE8
  8
0
 10
0.0
 20
0.0
 30
0.0
 70
   128
 71
     3
 72
    -4
 73
    -1
  0
VERTEX
  5
133FE9
  8
0
 10
0.0
 20
0.0
 30
0.0
 70
   128
 71
     2
 72
    -3
 73
     1
  0
SEQEND
  5
134604
  8
0
  0
POLYLINE
  5
133FEA
  8
0
 66
     1
 10
0.0
 20
0.0
 30
0.0
 70
    64
 71
     7
 72
     5
  0
VERTEX
  5
133FEB
  8
0
 10
4.795831523312997
 20
-11.8
 30
147.0
 70
   192
  0
VERTEX
  5
133FEC
  8
0
 10
3.250560795524188
 20
-11.8
 30
147.5513572585477
 70
   192
  0
VERTEX
  5
133FED
  8
0
 10
1.636849543902265
 20
-11.8
 30
147.8878393146369
 70
   192
  0
VERTEX
  5
133FEE
  8
0
 10
-0.0000000000000032
 20
-11.8
 30
148.0
 70
   192
  0
VERTEX
  5
133FEF
  8
0
 10
-1.636849543902271
 20
-11.8
 30
147.8878393146369
 70
   192
  0
VERTEX
  5
133FF0
  8
0
 10
-3.250560795524195
 20
-11.8
 30
147.5513572585477
 70
   192
  0
VERTEX
  5
133FF1
  8
0
 10
-4.795831523313002
 20
-11.8
 30
147.0
 70
   192
  0
VERTEX
  5
133FF2
  8
0
 10
0.0
 20
0.0
 30
0.0
 70
   128
 71
     6
 72
     7
 73
    -1
  0
VERTEX
  5
133FF3
  8
0
 10
0.0
 20
0.0
 30
0.0
 70
   128
 71
     5
 72
    -6
 73
    -1
  0
VERTEX
  5
133FF4
  8
0
 10
0.0
 20
0.0
 30
0.0
 70
   128
 71
     4
 72
    -5
 73
    -1
  0
VERTEX
  5
133FF5
  8
0
 10
0.0
 20
0.0
 30
0.0
 70
   128
 71
     3
 72
    -4
 73
    -1
  0
VERTEX
  5
133FF6
  8
0
 10
0.0
 20
0.0
 30
0.0
 70
   128
 71
     2
 72
    -3
 73
     1
  0
SEQEND
  5
134605
  8
0
  0
POLYLINE
  5
133FF7
  8
0
 66
     1
 10
0.0
 20
0.0
 30
0.0
 70
    64
 71
    26
 72
    24
  0
VERTEX
  5
133FF8
  8
0
 10
-8.485281374238557
 20
-8.299999999999995
 30
127.5147186257614
 70
   192
  0
VERTEX
  5
133FF9
  8
0
 10
-4.417136514742467
 20
-8.299999999999995
 30
124.8425403872508
 70
   192
  0
VERTEX
  5
133FFA
  8
0
 10
-4.795831523313002
 20
-11.8
 30
125.0
 70
   192
  0
VERTEX
  5
133FFB
  8
0
 10
-7.683064116414891
 20
-14.5999987042527
 30
126.7820541451438
 70
   192
  0
VERTEX
  5
133FFC
  8
0
 10
-4.795831523313002
 20
-14.5999987042527
 30
125.0
 70
   192
  0
VERTEX
  5
133FFD
  8
0
 10
-0.0000000000000024
 20
-8.299999999999999
 30
124.0
 70
   192
  0
VERTEX
  5
133FFE
  8
0
 10
-0.0000000000000023
 20
-11.8
 30
124.0
 70
   192
  0
VERTEX
  5
133FFF
  8
0
 10
-1.636849543902271
 20
-11.8
 30
124.1121606853631
 70
   192
  0
VERTEX
  5
134000
  8
0
 10
-3.250560795524194
 20
-11.8
 30
124.4486427414523
 70
   192
  0
VERTEX
  5
134001
  8
0
 10
-12.0
 20
-14.5999987042527
 30
136.0000000000001
 70
   192
  0
VERTEX
  5
134002
  8
0
 10
-12.0
 20
-8.299999999999997
 30
135.9999999999999
 70
   192
  0
VERTEX
  5
134003
  8
0
 10
-11.15745961274915
 20
-8.299999999999995
 30
131.5828634852575
 70
   192
  0
VERTEX
  5
134004
  8
0
 10
-11.52034045737947
 20
-14.5999987042527
 30
132.641167502529
 70
   192
  0
VERTEX
  5
134005
  8
0
 10
-8.4852813742386
 20
-8.299999999999997
 30
144.4852813742386
 70
   192
  0
VERTEX
  5
134006
  8
0
 10
-11.15745961274919
 20
-8.299999999999995
 30
140.4171365147424
 70
   192
  0
VERTEX
  5
134007
  8
0
 10
-10.03867467048707
 20
-14.5999987042527
 30
142.5745730553492
 70
   192
  0
VERTEX
  5
134008
  8
0
 10
-11.52034045737946
 20
-14.5999987042527
 30
139.358832497471
 70
   192
  0
VERTEX
  5
134009
  8
0
 10
-1.636849543902271
 20
-11.8
 30
147.8878393146369
 70
   192
  0
VERTEX
  5
13400A
  8
0
 10
-0.0000000000000027
 20
-8.299999999999999
 30
148.0
 70
   192
  0
VERTEX
  5
13400B
  8
0
 10
-4.417136514742492
 20
-8.299999999999995
 30
147.1574596127491
 70
   192
  0
VERTEX
  5
13400C
  8
0
 10
-3.250560795524195
 20
-11.8
 30
147.5513572585477
 70
   192
  0
VERTEX
  5
13400D
  8
0
 10
-0.0000000000000032
 20
-11.8
 30
148.0
 70
   192
  0
VERTEX
  5
13400E
  8
0
 10
-7.683064116414874
 20
-14.5999987042527
 30
145.2179458548562
 70
   192
  0
VERTEX
  5
13400F
  8
0
 10
-4.795831523313002
 20
-14.5999987042527
 30
147.0
 70
   192
  0
VERTEX
  5
134010
  8
0
 10
-4.795831523313002
 20
-11.8
 30
147.0
 70
   192
  0
VERTEX
  5
134011
  8
0
 10
-10.0386746704871
 20
-14.5999987042527
 30
129.4254269446509
 70
   192
  0
VERTEX
  5
134012
  8
0
 10
0.0
 20
0.0
 30
0.0
 70
   128
 71
     1
 72
     2
 73
     3
  0
VERTEX
  5
134013
  8
0
 10
0.0
 20
0.0
 30
0.0
 70
   128
 71
     3
 72
     4
 73
     1
  0
VERTEX
  5
134014
  8
0
 10
0.0
 20
0.0
 30
0.0
 70
   128
 71
     3
 72
     5
 73
     4
  0
VERTEX
  5
134015
  8
0
 10
0.0
 20
0.0
 30
0.0
 70
   128
 71
     6
 72
     7
 73
     8
  0
VERTEX
  5
134016
  8
0
 10
0.0
 20
0.0
 30
0.0
 70
   128
 71
     9
 72
     2
 73
     6
  0
VERTEX
  5
134017
  8
0
 10
0.0
 20
0.0
 30
0.0
 70
   128
 71
     8
 72
     9
 73
     6
  0
VERTEX
  5
134018
  8
0
 10
0.0
 20
0.0
 30
0.0
 70
   128
 71
    10
 72
    11
 73
    12
  0
VERTEX
  5
134019
  8
0
 10
0.0
 20
0.0
 30
0.0
 70
   128
 71
    13
 72
    10
 73
    12
  0
VERTEX
  5
13401A
  8
0
 10
0.0
 20
0.0
 30
0.0
 70
   128
 71
    14
 72
    15
 73
    16
  0
VERTEX
  5
13401B
  8
0
 10
0.0
 20
0.0
 30
0.0
 70
   128
 71
    11
 72
    10
 73
    17
  0
VERTEX
  5
13401C
  8
0
 10
0.0
 20
0.0
 30
0.0
 70
   128
 71
    15
 72
    11
 73
    17
  0
VERTEX
  5
13401D
  8
0
 10
0.0
 20
0.0
 30
0.0
 70
   128
 71
    18
 72
    19
 73
    20
  0
VERTEX
  5
13401E
  8
0
 10
0.0
 20
0.0
 30
0.0
 70
   128
 71
    21
 72
    18
 73
    20
  0
VERTEX
  5
13401F
  8
0
 10
0.0
 20
0.0
 30
0.0
 70
   128
 71
    18
 72
    22
 73
    19
  0
VERTEX
  5
134020
  8
0
 10
0.0
 20
0.0
 30
0.0
 70
   128
 71
    23
 72
    24
 73
    25
  0
VERTEX
  5
134021
  8
0
 10
0.0
 20
0.0
 30
0.0
 70
   128
 71
     4
 72
    26
 73
     1
  0
VERTEX
  5
134022
  8
0
 10
0.0
 20
0.0
 30
0.0
 70
   128
 71
    12
 72
     1
 73
    26
  0
VERTEX
  5
134023
  8
0
 10
0.0
 20
0.0
 30
0.0
 70
   128
 71
    13
 72
    12
 73
    26
  0
VERTEX
  5
134024
  8
0
 10
0.0
 20
0.0
 30
0.0
 70
   128
 71
    16
 72
    23
 73
    25
  0
VERTEX
  5
134025
  8
0
 10
0.0
 20
0.0
 30
0.0
 70
   128
 71
    20
 72
    14
 73
    16
  0
VERTEX
  5
134026
  8
0
 10
0.0
 20
0.0
 30
0.0
 70
   128
 71
    25
 72
    20
 73
    16
  0
VERTEX
  5
134027
  8
0
 10
0.0
 20
0.0
 30
0.0
 70
   128
 71
    17
 72
    16
 73
    15
  0
VERTEX
  5
134028
  8
0
 10
0.0
 20
0.0
 30
0.0
 70
   128
 71
     9
 72
     3
 73
     2
  0
VERTEX
  5
134029
  8
0
 10
0.0
 20
0.0
 30
0.0
 70
   128
 71
    25
 72
    21
 73
    20
  0
SEQEND
  5
134606
  8
0
  0
POLYLINE
  5
13402A
  8
0
 66
     1
 10
0.0
 20
0.0
 30
0.0
 70
    64
 71
     9
 72
     7
  0
VERTEX
  5
13402B
  8
0
 10
4.795831523312997
 20
-14.5999987042527
 30
125.0
 70
   192
  0
VERTEX
  5
13402C
  8
0
 10
3.178219077122253
 20
-14.91759830765109
 30
125.0000089099188
 70
   192
  0
VERTEX
  5
13402D
  8
0
 10
1.586389016945752
 20
-15.11167931634138
 30
125.0000605752614
 70
   192
  0
VERTEX
  5
13402E
  8
0
 10
-0.0000000001306556
 20
-15.1773490813005
 30
124.99999999986
 70
   192
  0
VERTEX
  5
13402F
  8
0
 10
-1.586514182433909
 20
-15.11167362856248
 30
124.9999941127834
 70
   192
  0
VERTEX
  5
134030
  8
0
 10
-3.17825491139647
 20
-14.91758198093364
 30
125.0000186609844
 70
   192
  0
VERTEX
  5
134031
  8
0
 10
-4.795831523313002
 20
-14.5999987042527
 30
125.0
 70
   192
  0
VERTEX
  5
134032
  8
0
 10
-4.795831523313002
 20
-11.8
 30
125.0
 70
   192
  0
VERTEX
  5
134033
  8
0
 10
4.795831523312997
 20
-11.8
 30
125.0
 70
   192
  0
VERTEX
  5
134034
  8
0
 10
0.0
 20
0.0
 30
0.0
 70
   128
 71
     9
 72
     1
 73
    -2
  0
VERTEX
  5
134035
  8
0
 10
0.0
 20
0.0
 30
0.0
 70
   128
 71
     2
 72
    -3
 73
    -9
  0
VERTEX
  5
134036
  8
0
 10
0.0
 20
0.0
 30
0.0
 70
   128
 71
    -4
 72
     8
 73
    -9
  0
VERTEX
  5
134037
  8
0
 10
0.0
 20
0.0
 30
0.0
 70
   128
 71
     3
 72
    -4
 73
    -9
  0
VERTEX
  5
134038
  8
0
 10
0.0
 20
0.0
 30
0.0
 70
   128
 71
     4
 72
    -5
 73
    -8
  0
VERTEX
  5
134039
  8
0
 10
0.0
 20
0.0
 30
0.0
 70
   128
 71
     5
 72
    -6
 73
    -8
  0
VERTEX
  5
13403A
  8
0
 10
0.0
 20
0.0
 30
0.0
 70
   128
 71
     6
 72
     7
 73
    -8
  0
SEQEND
  5
134607
  8
0
  0
POLYLINE
  5
13403B
  8
0
 66
     1
 10
0.0
 20
0.0
 30
0.0
 70
    64
 71
    24
 72
    22
  0
VERTEX
  5
13403C
  8
0
 10
12.0
 20
-14.5999987042527
 30
136.0000000000001
 70
   192
  0
VERTEX
  5
13403D
  8
0
 10
10.78756350816
 20
-15.29999937011195
 30
136.0
 70
   192
  0
VERTEX
  5
13403E
  8
0
 10
10.03015034685515
 20
-15.29999937011195
 30
132.0291549435836
 70
   192
  0
VERTEX
  5
13403F
  8
0
 10
11.52034045737947
 20
-14.5999987042527
 30
132.641167502529
 70
   192
  0
VERTEX
  5
134040
  8
0
 10
7.627959309100475
 20
-15.29999937011195
 30
128.3720406908995
 70
   192
  0
VERTEX
  5
134041
  8
0
 10
10.03867467048709
 20
-14.5999987042527
 30
129.4254269446509
 70
   192
  0
VERTEX
  5
134042
  8
0
 10
3.178219077122253
 20
-14.91759830765109
 30
125.0000089099188
 70
   192
  0
VERTEX
  5
134043
  8
0
 10
4.795831523312997
 20
-14.5999987042527
 30
125.0
 70
   192
  0
VERTEX
  5
134044
  8
0
 10
7.683064116414884
 20
-14.5999987042527
 30
126.7820541451438
 70
   192
  0
VERTEX
  5
134045
  8
0
 10
3.97084505641641
 20
-15.29999937011195
 30
125.9698496531448
 70
   192
  0
VERTEX
  5
134046
  8
0
 10
-0.0000000000000029
 20
-15.29999937011195
 30
125.21243649184
 70
   192
  0
VERTEX
  5
134047
  8
0
 10
-0.0000000001306556
 20
-15.1773490813005
 30
124.99999999986
 70
   192
  0
VERTEX
  5
134048
  8
0
 10
1.586389016945752
 20
-15.11167931634138
 30
125.0000605752614
 70
   192
  0
VERTEX
  5
134049
  8
0
 10
7.683064116414867
 20
-14.5999987042527
 30
145.2179458548562
 70
   192
  0
VERTEX
  5
13404A
  8
0
 10
4.795831523312997
 20
-14.5999987042527
 30
147.0
 70
   192
  0
VERTEX
  5
13404B
  8
0
 10
3.178254911431906
 20
-14.91758198092483
 30
146.9999813390213
 70
   192
  0
VERTEX
  5
13404C
  8
0
 10
1.586514182471817
 20
-15.1116736285625
 30
147.0000058872109
 70
   192
  0
VERTEX
  5
13404D
  8
0
 10
-0.0000000000000036
 20
-15.29999937011195
 30
146.78756350816
 70
   192
  0
VERTEX
  5
13404E
  8
0
 10
3.970845056416409
 20
-15.29999937011195
 30
146.0301503468552
 70
   192
  0
VERTEX
  5
13404F
  8
0
 10
7.627959309100471
 20
-15.29999937011195
 30
143.6279593091005
 70
   192
  0
VERTEX
  5
134050
  8
0
 10
0.0000000001306309
 20
-15.1773490813004
 30
147.00000000014
 70
   192
  0
VERTEX
  5
134051
  8
0
 10
10.03015034685515
 20
-15.29999937011195
 30
139.9708450564164
 70
   192
  0
VERTEX
  5
134052
  8
0
 10
11.52034045737945
 20
-14.5999987042527
 30
139.358832497471
 70
   192
  0
VERTEX
  5
134053
  8
0
 10
10.03867467048707
 20
-14.5999987042527
 30
142.5745730553492
 70
   192
  0
VERTEX
  5
134054
  8
0
 10
0.0
 20
0.0
 30
0.0
 70
   128
 71
     1
 72
     2
 73
     3
  0
VERTEX
  5
134055
  8
0
 10
0.0
 20
0.0
 30
0.0
 70
   128
 71
     4
 72
     1
 73
     3
  0
VERTEX
  5
134056
  8
0
 10
0.0
 20
0.0
 30
0.0
 70
   128
 71
     4
 72
     3
 73
     5
  0
VERTEX
  5
134057
  8
0
 10
0.0
 20
0.0
 30
0.0
 70
   128
 71
     6
 72
     4
 73
     5
  0
VERTEX
  5
134058
  8
0
 10
0.0
 20
0.0
 30
0.0
 70
   128
 71
     7
 72
     8
 73
     9
  0
VERTEX
  5
134059
  8
0
 10
0.0
 20
0.0
 30
0.0
 70
   128
 71
    10
 72
     7
 73
     9
  0
VERTEX
  5
13405A
  8
0
 10
0.0
 20
0.0
 30
0.0
 70
   128
 71
     5
 72
    10
 73
     9
  0
VERTEX
  5
13405B
  8
0
 10
0.0
 20
0.0
 30
0.0
 70
   128
 71
    11
 72
    12
 73
    13
  0
VERTEX
  5
13405C
  8
0
 10
0.0
 20
0.0
 30
0.0
 70
   128
 71
    10
 72
    11
 73
    13
  0
VERTEX
  5
13405D
  8
0
 10
0.0
 20
0.0
 30
0.0
 70
   128
 71
    13
 72
     7
 73
    10
  0
VERTEX
  5
13405E
  8
0
 10
0.0
 20
0.0
 30
0.0
 70
   128
 71
    14
 72
    15
 73
    16
  0
VERTEX
  5
13405F
  8
0
 10
0.0
 20
0.0
 30
0.0
 70
   128
 71
    17
 72
    18
 73
    19
  0
VERTEX
  5
134060
  8
0
 10
0.0
 20
0.0
 30
0.0
 70
   128
 71
    19
 72
    20
 73
    17
  0
VERTEX
  5
134061
  8
0
 10
0.0
 20
0.0
 30
0.0
 70
   128
 71
    17
 72
    21
 73
    18
  0
VERTEX
  5
134062
  8
0
 10
0.0
 20
0.0
 30
0.0
 70
   128
 71
    22
 72
    23
 73
    24
  0
VERTEX
  5
134063
  8
0
 10
0.0
 20
0.0
 30
0.0
 70
   128
 71
    20
 72
    22
 73
    24
  0
VERTEX
  5
134064
  8
0
 10
0.0
 20
0.0
 30
0.0
 70
   128
 71
     2
 72
     1
 73
    23
  0
VERTEX
  5
134065
  8
0
 10
0.0
 20
0.0
 30
0.0
 70
   128
 71
    22
 72
     2
 73
    23
  0
VERTEX
  5
134066
  8
0
 10
0.0
 20
0.0
 30
0.0
 70
   128
 71
     9
 72
     6
 73
     5
  0
VERTEX
  5
134067
  8
0
 10
0.0
 20
0.0
 30
0.0
 70
   128
 71
    17
 72
    20
 73
    24
  0
VERTEX
  5
134068
  8
0
 10
0.0
 20
0.0
 30
0.0
 70
   128
 71
    16
 72
    17
 73
    24
  0
VERTEX
  5
134069
  8
0
 10
0.0
 20
0.0
 30
0.0
 70
   128
 71
    14
 72
    16
 73
    24
  0
SEQEND
  5
134608
  8
0
  0
POLYLINE
  5
13406A
  8
0
 66
     1
 10
0.0
 20
0.0
 30
0.0
 70
    64
 71
    32
 72
    32
  0
VERTEX
  5
13406B
  8
0
 10
-0.0000000000000027
 20
-8.299999999999999
 30
148.0
 70
   192
  0
VERTEX
  5
13406C
  8
0
 10
4.417136514742461
 20
-8.299999999999995
 30
147.1574596127491
 70
   192
  0
VERTEX
  5
13406D
  8
0
 10
8.485281374238548
 20
-8.299999999999997
 30
144.4852813742386
 70
   192
  0
VERTEX
  5
13406E
  8
0
 10
11.15745961274915
 20
-8.299999999999997
 30
140.4171365147425
 70
   192
  0
VERTEX
  5
13406F
  8
0
 10
12.0
 20
-8.3
 30
136.0
 70
   192
  0
VERTEX
  5
134070
  8
0
 10
11.15745961274918
 20
-8.299999999999999
 30
131.5828634852576
 70
   192
  0
VERTEX
  5
134071
  8
0
 10
8.485281374238593
 20
-8.299999999999999
 30
127.5147186257615
 70
   192
  0
VERTEX
  5
134072
  8
0
 10
4.417136514742486
 20
-8.299999999999997
 30
124.8425403872508
 70
   192
  0
VERTEX
  5
134073
  8
0
 10
-0.0000000000000024
 20
-8.299999999999999
 30
124.0
 70
   192
  0
VERTEX
  5
134074
  8
0
 10
-4.417136514742467
 20
-8.299999999999995
 30
124.8425403872508
 70
   192
  0
VERTEX
  5
134075
  8
0
 10
-8.485281374238557
 20
-8.299999999999995
 30
127.5147186257614
 70
   192
  0
VERTEX
  5
134076
  8
0
 10
-11.15745961274915
 20
-8.299999999999995
 30
131.5828634852575
 70
   192
  0
VERTEX
  5
134077
  8
0
 10
-12.0
 20
-8.299999999999997
 30
135.9999999999999
 70
   192
  0
VERTEX
  5
134078
  8
0
 10
-11.15745961274919
 20
-8.299999999999995
 30
140.4171365147424
 70
   192
  0
VERTEX
  5
134079
  8
0
 10
-8.4852813742386
 20
-8.299999999999997
 30
144.4852813742386
 70
   192
  0
VERTEX
  5
13407A
  8
0
 10
-4.417136514742492
 20
-8.299999999999995
 30
147.1574596127491
 70
   192
  0
VERTEX
  5
13407B
  8
0
 10
-0.0000000000000024
 20
-8.299999999999999
 30
125.25
 70
   192
  0
VERTEX
  5
13407C
  8
0
 10
3.957018127790143
 20
-8.299999999999997
 30
126.0047757635789
 70
   192
  0
VERTEX
  5
13407D
  8
0
 10
7.601397897755401
 20
-8.299999999999997
 30
128.3986021022446
 70
   192
  0
VERTEX
  5
13407E
  8
0
 10
9.995224236421137
 20
-8.299999999999999
 30
132.0429818722099
 70
   192
  0
VERTEX
  5
13407F
  8
0
 10
10.75
 20
-8.300000000000002
 30
136.0000000000001
 70
   192
  0
VERTEX
  5
134080
  8
0
 10
9.995224236421109
 20
-8.299999999999999
 30
139.9570181277901
 70
   192
  0
VERTEX
  5
134081
  8
0
 10
7.601397897755366
 20
-8.299999999999997
 30
143.6013978977554
 70
   192
  0
VERTEX
  5
134082
  8
0
 10
3.95701812779012
 20
-8.299999999999995
 30
145.9952242364211
 70
   192
  0
VERTEX
  5
134083
  8
0
 10
-0.0000000000000027
 20
-8.299999999999999
 30
146.75
 70
   192
  0
VERTEX
  5
134084
  8
0
 10
-3.957018127790149
 20
-8.299999999999997
 30
145.9952242364211
 70
   192
  0
VERTEX
  5
134085
  8
0
 10
-7.601397897755407
 20
-8.299999999999995
 30
143.6013978977554
 70
   192
  0
VERTEX
  5
134086
  8
0
 10
-9.995224236421144
 20
-8.299999999999995
 30
139.9570181277901
 70
   192
  0
VERTEX
  5
134087
  8
0
 10
-10.75000000000001
 20
-8.299999999999999
 30
136.0
 70
   192
  0
VERTEX
  5
134088
  8
0
 10
-9.995224236421116
 20
-8.299999999999995
 30
132.0429818722098
 70
   192
  0
VERTEX
  5
134089
  8
0
 10
-7.601397897755373
 20
-8.299999999999995
 30
128.3986021022446
 70
   192
  0
VERTEX
  5
13408A
  8
0
 10
-3.957018127790125
 20
-8.299999999999995
 30
126.0047757635789
 70
   192
  0
VERTEX
  5
13408B
  8
0
 10
0.0
 20
0.0
 30
0.0
 70
   128
 71
    -9
 72
    17
 73
   -18
  0
VERTEX
  5
13408C
  8
0
 10
0.0
 20
0.0
 30
0.0
 70
   128
 71
     8
 72
    -9
 73
   -18
  0
VERTEX
  5
13408D
  8
0
 10
0.0
 20
0.0
 30
0.0
 70
   128
 71
   -19
 72
     7
 73
    -8
  0
VERTEX
  5
13408E
  8
0
 10
0.0
 20
0.0
 30
0.0
 70
   128
 71
    18
 72
   -19
 73
    -8
  0
VERTEX
  5
13408F
  8
0
 10
0.0
 20
0.0
 30
0.0
 70
   128
 71
   -20
 72
     6
 73
    -7
  0
VERTEX
  5
134090
  8
0
 10
0.0
 20
0.0
 30
0.0
 70
   128
 71
    19
 72
   -20
 73
    -7
  0
VERTEX
  5
134091
  8
0
 10
0.0
 20
0.0
 30
0.0
 70
   128
 71
   -21
 72
     5
 73
    -6
  0
VERTEX
  5
134092
  8
0
 10
0.0
 20
0.0
 30
0.0
 70
   128
 71
    20
 72
   -21
 73
    -6
  0
VERTEX
  5
134093
  8
0
 10
0.0
 20
0.0
 30
0.0
 70
   128
 71
   -22
 72
     4
 73
    -5
  0
VERTEX
  5
134094
  8
0
 10
0.0
 20
0.0
 30
0.0
 70
   128
 71
    21
 72
   -22
 73
    -5
  0
VERTEX
  5
134095
  8
0
 10
0.0
 20
0.0
 30
0.0
 70
   128
 71
   -23
 72
     3
 73
    -4
  0
VERTEX
  5
134096
  8
0
 10
0.0
 20
0.0
 30
0.0
 70
   128
 71
    22
 72
   -23
 73
    -4
  0
VERTEX
  5
134097
  8
0
 10
0.0
 20
0.0
 30
0.0
 70
   128
 71
   -24
 72
     2
 73
    -3
  0
VERTEX
  5
134098
  8
0
 10
0.0
 20
0.0
 30
0.0
 70
   128
 71
    23
 72
   -24
 73
    -3
  0
VERTEX
  5
134099
  8
0
 10
0.0
 20
0.0
 30
0.0
 70
   128
 71
   -25
 72
     1
 73
    -2
  0
VERTEX
  5
13409A
  8
0
 10
0.0
 20
0.0
 30
0.0
 70
   128
 71
    24
 72
   -25
 73
    -2
  0
VERTEX
  5
13409B
  8
0
 10
0.0
 20
0.0
 30
0.0
 70
   128
 71
   -26
 72
    16
 73
    -1
  0
VERTEX
  5
13409C
  8
0
 10
0.0
 20
0.0
 30
0.0
 70
   128
 71
    25
 72
   -26
 73
    -1
  0
VERTEX
  5
13409D
  8
0
 10
0.0
 20
0.0
 30
0.0
 70
   128
 71
   -27
 72
    15
 73
   -16
  0
VERTEX
  5
13409E
  8
0
 10
0.0
 20
0.0
 30
0.0
 70
   128
 71
    26
 72
   -27
 73
   -16
  0
VERTEX
  5
13409F
  8
0
 10
0.0
 20
0.0
 30
0.0
 70
   128
 71
   -28
 72
    14
 73
   -15
  0
VERTEX
  5
1340A0
  8
0
 10
0.0
 20
0.0
 30
0.0
 70
   128
 71
    27
 72
   -28
 73
   -15
  0
VERTEX
  5
1340A1
  8
0
 10
0.0
 20
0.0
 30
0.0
 70
   128
 71
   -29
 72
    13
 73
   -14
  0
VERTEX
  5
1340A2
  8
0
 10
0.0
 20
0.0
 30
0.0
 70
   128
 71
    28
 72
   -29
 73
   -14
  0
VERTEX
  5
1340A3
  8
0
 10
0.0
 20
0.0
 30
0.0
 70
   128
 71
   -30
 72
    12
 73
   -13
  0
VERTEX
  5
1340A4
  8
0
 10
0.0
 20
0.0
 30
0.0
 70
   128
 71
    29
 72
   -30
 73
   -13
  0
VERTEX
  5
1340A5
  8
0
 10
0.0
 20
0.0
 30
0.0
 70
   128
 71
   -31
 72
    11
 73
   -12
  0
VERTEX
  5
1340A6
  8
0
 10
0.0
 20
0.0
 30
0.0
 70
   128
 71
    30
 72
   -31
 73
   -12
  0
VERTEX
  5
1340A7
  8
0
 10
0.0
 20
0.0
 30
0.0
 70
   128
 71
   -32
 72
    10
 73
   -11
  0
VERTEX
  5
1340A8
  8
0
 10
0.0
 20
0.0
 30
0.0
 70
   128
 71
    31
 72
   -32
 73
   -11
  0
VERTEX
  5
1340A9
  8
0
 10
0.0
 20
0.0
 30
0.0
 70
   128
 71
   -17
 72
     9
 73
   -10
  0
VERTEX
  5
1340AA
  8
0
 10
0.0
 20
0.0
 30
0.0
 70
   128
 71
    32
 72
   -17
 73
   -10
  0
SEQEND
  5
134609
  8
0
  0
POLYLINE
  5
1340AB
  8
0
 66
     1
 10
0.0
 20
0.0
 30
0.0
 70
    64
 71
    18
 72
    16
  0
VERTEX
  5
1340AC
  8
0
 10
-0.0000000000000022
 20
-6.299999999999999
 30
125.25
 70
   192
  0
VERTEX
  5
1340AD
  8
0
 10
-0.0000000000000024
 20
-8.299999999999999
 30
125.25
 70
   192
  0
VERTEX
  5
1340AE
  8
0
 10
-0.0000000000000027
 20
-8.299999999999999
 30
146.75
 70
   192
  0
VERTEX
  5
1340AF
  8
0
 10
-0.0000000000000025
 20
-6.299999999999999
 30
146.75
 70
   192
  0
VERTEX
  5
1340B0
  8
0
 10
10.75
 20
-8.300000000000002
 30
136.0000000000001
 70
   192
  0
VERTEX
  5
1340B1
  8
0
 10
10.75
 20
-6.299999999999999
 30
136.0
 70
   192
  0
VERTEX
  5
1340B2
  8
0
 10
7.601397897755366
 20
-8.299999999999997
 30
143.6013978977554
 70
   192
  0
VERTEX
  5
1340B3
  8
0
 10
7.601397897755401
 20
-6.299999999999999
 30
143.6013978977554
 70
   192
  0
VERTEX
  5
1340B4
  8
0
 10
7.601397897755401
 20
-8.299999999999997
 30
128.3986021022446
 70
   192
  0
VERTEX
  5
1340B5
  8
0
 10
7.601397897755366
 20
-6.3
 30
128.3986021022446
 70
   192
  0
VERTEX
  5
1340B6
  8
0
 10
9.995224236421109
 20
-8.299999999999999
 30
139.9570181277901
 70
   192
  0
VERTEX
  5
1340B7
  8
0
 10
9.995224236421137
 20
-6.300000000000001
 30
139.9570181277901
 70
   192
  0
VERTEX
  5
1340B8
  8
0
 10
3.95701812779012
 20
-8.299999999999995
 30
145.9952242364211
 70
   192
  0
VERTEX
  5
1340B9
  8
0
 10
3.957018127790143
 20
-6.3
 30
145.9952242364211
 70
   192
  0
VERTEX
  5
1340BA
  8
0
 10
3.95701812779012
 20
-6.299999999999999
 30
126.0047757635789
 70
   192
  0
VERTEX
  5
1340BB
  8
0
 10
3.957018127790143
 20
-8.299999999999997
 30
126.0047757635789
 70
   192
  0
VERTEX
  5
1340BC
  8
0
 10
9.995224236421137
 20
-8.299999999999999
 30
132.0429818722099
 70
   192
  0
VERTEX
  5
1340BD
  8
0
 10
9.995224236421109
 20
-6.299999999999999
 30
132.0429818722098
 70
   192
  0
VERTEX
  5
1340BE
  8
0
 10
0.0
 20
0.0
 30
0.0
 70
   128
 71
     5
 72
     6
 73
   -12
  0
VERTEX
  5
1340BF
  8
0
 10
0.0
 20
0.0
 30
0.0
 70
   128
 71
    11
 72
    -5
 73
    12
  0
VERTEX
  5
1340C0
  8
0
 10
0.0
 20
0.0
 30
0.0
 70
   128
 71
     8
 72
     7
 73
   -11
  0
VERTEX
  5
1340C1
  8
0
 10
0.0
 20
0.0
 30
0.0
 70
   128
 71
    12
 72
    -8
 73
    11
  0
VERTEX
  5
1340C2
  8
0
 10
0.0
 20
0.0
 30
0.0
 70
   128
 71
     7
 72
     8
 73
   -14
  0
VERTEX
  5
1340C3
  8
0
 10
0.0
 20
0.0
 30
0.0
 70
   128
 71
    13
 72
    -7
 73
    14
  0
VERTEX
  5
1340C4
  8
0
 10
0.0
 20
0.0
 30
0.0
 70
   128
 71
     4
 72
     3
 73
   -13
  0
VERTEX
  5
1340C5
  8
0
 10
0.0
 20
0.0
 30
0.0
 70
   128
 71
    14
 72
    -4
 73
    13
  0
VERTEX
  5
1340C6
  8
0
 10
0.0
 20
0.0
 30
0.0
 70
   128
 71
     2
 72
     1
 73
   -15
  0
VERTEX
  5
1340C7
  8
0
 10
0.0
 20
0.0
 30
0.0
 70
   128
 71
    16
 72
    -2
 73
    15
  0
VERTEX
  5
1340C8
  8
0
 10
0.0
 20
0.0
 30
0.0
 70
   128
 71
    10
 72
     9
 73
   -16
  0
VERTEX
  5
1340C9
  8
0
 10
0.0
 20
0.0
 30
0.0
 70
   128
 71
    15
 72
   -10
 73
    16
  0
VERTEX
  5
1340CA
  8
0
 10
0.0
 20
0.0
 30
0.0
 70
   128
 71
     9
 72
    10
 73
   -18
  0
VERTEX
  5
1340CB
  8
0
 10
0.0
 20
0.0
 30
0.0
 70
   128
 71
    17
 72
    -9
 73
    18
  0
VERTEX
  5
1340CC
  8
0
 10
0.0
 20
0.0
 30
0.0
 70
   128
 71
     6
 72
     5
 73
   -17
  0
VERTEX
  5
1340CD
  8
0
 10
0.0
 20
0.0
 30
0.0
 70
   128
 71
    18
 72
    -6
 73
    17
  0
SEQEND
  5
13460A
  8
0
  0
POLYLINE
  5
1340CE
  8
0
 66
     1
 10
0.0
 20
0.0
 30
0.0
 70
    64
 71
    18
 72
    16
  0
VERTEX
  5
1340CF
  8
0
 10
-0.0000000000000025
 20
-6.299999999999999
 30
146.75
 70
   192
  0
VERTEX
  5
1340D0
  8
0
 10
-0.0000000000000027
 20
-8.299999999999999
 30
146.75
 70
   192
  0
VERTEX
  5
1340D1
  8
0
 10
-0.0000000000000024
 20
-8.299999999999999
 30
125.25
 70
   192
  0
VERTEX
  5
1340D2
  8
0
 10
-0.0000000000000022
 20
-6.299999999999999
 30
125.25
 70
   192
  0
VERTEX
  5
1340D3
  8
0
 10
-10.75000000000001
 20
-8.299999999999999
 30
136.0
 70
   192
  0
VERTEX
  5
1340D4
  8
0
 10
-10.75000000000001
 20
-6.299999999999999
 30
136.0000000000001
 70
   192
  0
VERTEX
  5
1340D5
  8
0
 10
-7.601397897755373
 20
-8.299999999999995
 30
128.3986021022446
 70
   192
  0
VERTEX
  5
1340D6
  8
0
 10
-7.601397897755407
 20
-6.299999999999999
 30
128.3986021022446
 70
   192
  0
VERTEX
  5
1340D7
  8
0
 10
-7.601397897755407
 20
-8.299999999999995
 30
143.6013978977554
 70
   192
  0
VERTEX
  5
1340D8
  8
0
 10
-7.601397897755373
 20
-6.3
 30
143.6013978977554
 70
   192
  0
VERTEX
  5
1340D9
  8
0
 10
-9.995224236421144
 20
-6.300000000000001
 30
132.0429818722099
 70
   192
  0
VERTEX
  5
1340DA
  8
0
 10
-9.995224236421116
 20
-8.299999999999995
 30
132.0429818722098
 70
   192
  0
VERTEX
  5
1340DB
  8
0
 10
-3.957018127790125
 20
-8.299999999999995
 30
126.0047757635789
 70
   192
  0
VERTEX
  5
1340DC
  8
0
 10
-3.957018127790149
 20
-6.3
 30
126.0047757635789
 70
   192
  0
VERTEX
  5
1340DD
  8
0
 10
-3.957018127790125
 20
-6.299999999999999
 30
145.9952242364211
 70
   192
  0
VERTEX
  5
1340DE
  8
0
 10
-3.957018127790149
 20
-8.299999999999997
 30
145.9952242364211
 70
   192
  0
VERTEX
  5
1340DF
  8
0
 10
-9.995224236421116
 20
-6.299999999999999
 30
139.9570181277901
 70
   192
  0
VERTEX
  5
1340E0
  8
0
 10
-9.995224236421144
 20
-8.299999999999995
 30
139.9570181277901
 70
   192
  0
VERTEX
  5
1340E1
  8
0
 10
0.0
 20
0.0
 30
0.0
 70
   128
 71
     8
 72
     7
 73
   -12
  0
VERTEX
  5
1340E2
  8
0
 10
0.0
 20
0.0
 30
0.0
 70
   128
 71
    11
 72
    -8
 73
    12
  0
VERTEX
  5
1340E3
  8
0
 10
0.0
 20
0.0
 30
0.0
 70
   128
 71
     5
 72
     6
 73
   -11
  0
VERTEX
  5
1340E4
  8
0
 10
0.0
 20
0.0
 30
0.0
 70
   128
 71
    12
 72
    -5
 73
    11
  0
VERTEX
  5
1340E5
  8
0
 10
0.0
 20
0.0
 30
0.0
 70
   128
 71
     4
 72
     3
 73
   -13
  0
VERTEX
  5
1340E6
  8
0
 10
0.0
 20
0.0
 30
0.0
 70
   128
 71
    14
 72
    -4
 73
    13
  0
VERTEX
  5
1340E7
  8
0
 10
0.0
 20
0.0
 30
0.0
 70
   128
 71
     7
 72
     8
 73
   -14
  0
VERTEX
  5
1340E8
  8
0
 10
0.0
 20
0.0
 30
0.0
 70
   128
 71
    13
 72
    -7
 73
    14
  0
VERTEX
  5
1340E9
  8
0
 10
0.0
 20
0.0
 30
0.0
 70
   128
 71
    10
 72
     9
 73
   -16
  0
VERTEX
  5
1340EA
  8
0
 10
0.0
 20
0.0
 30
0.0
 70
   128
 71
    15
 72
   -10
 73
    16
  0
VERTEX
  5
1340EB
  8
0
 10
0.0
 20
0.0
 30
0.0
 70
   128
 71
     2
 72
     1
 73
   -15
  0
VERTEX
  5
1340EC
  8
0
 10
0.0
 20
0.0
 30
0.0
 70
   128
 71
    16
 72
    -2
 73
    15
  0
VERTEX
  5
1340ED
  8
0
 10
0.0
 20
0.0
 30
0.0
 70
   128
 71
     6
 72
     5
 73
   -18
  0
VERTEX
  5
1340EE
  8
0
 10
0.0
 20
0.0
 30
0.0
 70
   128
 71
    17
 72
    -6
 73
    18
  0
VERTEX
  5
1340EF
  8
0
 10
0.0
 20
0.0
 30
0.0
 70
   128
 71
     9
 72
    10
 73
   -17
  0
VERTEX
  5
1340F0
  8
0
 10
0.0
 20
0.0
 30
0.0
 70
   128
 71
    18
 72
    -9
 73
    17
  0
SEQEND
  5
13460B
  8
0
  0
POLYLINE
  5
1340F1
  8
0
 66
     1
 10
0.0
 20
0.0
 30
0.0
 70
    64
 71
    32
 72
    32
  0
VERTEX
  5
1340F2
  8
0
 10
-0.0000000000000022
 20
-6.299999999999999
 30
124.0
 70
   192
  0
VERTEX
  5
1340F3
  8
0
 10
4.417136514742461
 20
-6.299999999999999
 30
124.8425403872508
 70
   192
  0
VERTEX
  5
1340F4
  8
0
 10
8.48528137423855
 20
-6.3
 30
127.5147186257614
 70
   192
  0
VERTEX
  5
1340F5
  8
0
 10
11.15745961274915
 20
-6.299999999999999
 30
131.5828634852575
 70
   192
  0
VERTEX
  5
1340F6
  8
0
 10
12.0
 20
-6.299999999999999
 30
135.9999999999999
 70
   192
  0
VERTEX
  5
1340F7
  8
0
 10
11.15745961274918
 20
-6.3
 30
140.4171365147425
 70
   192
  0
VERTEX
  5
1340F8
  8
0
 10
8.485281374238593
 20
-6.300000000000001
 30
144.4852813742386
 70
   192
  0
VERTEX
  5
1340F9
  8
0
 10
4.417136514742487
 20
-6.3
 30
147.1574596127491
 70
   192
  0
VERTEX
  5
1340FA
  8
0
 10
-0.0000000000000026
 20
-6.299999999999999
 30
148.0
 70
   192
  0
VERTEX
  5
1340FB
  8
0
 10
-4.417136514742467
 20
-6.299999999999999
 30
147.1574596127491
 70
   192
  0
VERTEX
  5
1340FC
  8
0
 10
-8.485281374238559
 20
-6.3
 30
144.4852813742386
 70
   192
  0
VERTEX
  5
1340FD
  8
0
 10
-11.15745961274915
 20
-6.299999999999999
 30
140.4171365147425
 70
   192
  0
VERTEX
  5
1340FE
  8
0
 10
-12.0
 20
-6.299999999999999
 30
136.0000000000001
 70
   192
  0
VERTEX
  5
1340FF
  8
0
 10
-11.15745961274919
 20
-6.3
 30
131.5828634852576
 70
   192
  0
VERTEX
  5
134100
  8
0
 10
-8.4852813742386
 20
-6.300000000000001
 30
127.5147186257615
 70
   192
  0
VERTEX
  5
134101
  8
0
 10
-4.417136514742493
 20
-6.3
 30
124.8425403872508
 70
   192
  0
VERTEX
  5
134102
  8
0
 10
-0.0000000000000025
 20
-6.299999999999999
 30
146.75
 70
   192
  0
VERTEX
  5
134103
  8
0
 10
3.957018127790143
 20
-6.3
 30
145.9952242364211
 70
   192
  0
VERTEX
  5
134104
  8
0
 10
7.601397897755401
 20
-6.299999999999999
 30
143.6013978977554
 70
   192
  0
VERTEX
  5
134105
  8
0
 10
9.995224236421137
 20
-6.300000000000001
 30
139.9570181277901
 70
   192
  0
VERTEX
  5
134106
  8
0
 10
10.75
 20
-6.299999999999999
 30
136.0
 70
   192
  0
VERTEX
  5
134107
  8
0
 10
9.995224236421109
 20
-6.299999999999999
 30
132.0429818722098
 70
   192
  0
VERTEX
  5
134108
  8
0
 10
7.601397897755366
 20
-6.3
 30
128.3986021022446
 70
   192
  0
VERTEX
  5
134109
  8
0
 10
3.95701812779012
 20
-6.299999999999999
 30
126.0047757635789
 70
   192
  0
VERTEX
  5
13410A
  8
0
 10
-0.0000000000000022
 20
-6.299999999999999
 30
125.25
 70
   192
  0
VERTEX
  5
13410B
  8
0
 10
-3.957018127790149
 20
-6.3
 30
126.0047757635789
 70
   192
  0
VERTEX
  5
13410C
  8
0
 10
-7.601397897755407
 20
-6.299999999999999
 30
128.3986021022446
 70
   192
  0
VERTEX
  5
13410D
  8
0
 10
-9.995224236421144
 20
-6.300000000000001
 30
132.0429818722099
 70
   192
  0
VERTEX
  5
13410E
  8
0
 10
-10.75000000000001
 20
-6.299999999999999
 30
136.0000000000001
 70
   192
  0
VERTEX
  5
13410F
  8
0
 10
-9.995224236421116
 20
-6.299999999999999
 30
139.9570181277901
 70
   192
  0
VERTEX
  5
134110
  8
0
 10
-7.601397897755373
 20
-6.3
 30
143.6013978977554
 70
   192
  0
VERTEX
  5
134111
  8
0
 10
-3.957018127790125
 20
-6.299999999999999
 30
145.9952242364211
 70
   192
  0
VERTEX
  5
134112
  8
0
 10
0.0
 20
0.0
 30
0.0
 70
   128
 71
    -9
 72
    17
 73
   -18
  0
VERTEX
  5
134113
  8
0
 10
0.0
 20
0.0
 30
0.0
 70
   128
 71
     8
 72
    -9
 73
   -18
  0
VERTEX
  5
134114
  8
0
 10
0.0
 20
0.0
 30
0.0
 70
   128
 71
   -19
 72
     7
 73
    -8
  0
VERTEX
  5
134115
  8
0
 10
0.0
 20
0.0
 30
0.0
 70
   128
 71
    18
 72
   -19
 73
    -8
  0
VERTEX
  5
134116
  8
0
 10
0.0
 20
0.0
 30
0.0
 70
   128
 71
   -20
 72
     6
 73
    -7
  0
VERTEX
  5
134117
  8
0
 10
0.0
 20
0.0
 30
0.0
 70
   128
 71
    19
 72
   -20
 73
    -7
  0
VERTEX
  5
134118
  8
0
 10
0.0
 20
0.0
 30
0.0
 70
   128
 71
   -21
 72
     5
 73
    -6
  0
VERTEX
  5
134119
  8
0
 10
0.0
 20
0.0
 30
0.0
 70
   128
 71
    20
 72
   -21
 73
    -6
  0
VERTEX
  5
13411A
  8
0
 10
0.0
 20
0.0
 30
0.0
 70
   128
 71
   -22
 72
     4
 73
    -5
  0
VERTEX
  5
13411B
  8
0
 10
0.0
 20
0.0
 30
0.0
 70
   128
 71
    21
 72
   -22
 73
    -5
  0
VERTEX
  5
13411C
  8
0
 10
0.0
 20
0.0
 30
0.0
 70
   128
 71
   -23
 72
     3
 73
    -4
  0
VERTEX
  5
13411D
  8
0
 10
0.0
 20
0.0
 30
0.0
 70
   128
 71
    22
 72
   -23
 73
    -4
  0
VERTEX
  5
13411E
  8
0
 10
0.0
 20
0.0
 30
0.0
 70
   128
 71
   -24
 72
     2
 73
    -3
  0
VERTEX
  5
13411F
  8
0
 10
0.0
 20
0.0
 30
0.0
 70
   128
 71
    23
 72
   -24
 73
    -3
  0
VERTEX
  5
134120
  8
0
 10
0.0
 20
0.0
 30
0.0
 70
   128
 71
   -25
 72
     1
 73
    -2
  0
VERTEX
  5
134121
  8
0
 10
0.0
 20
0.0
 30
0.0
 70
   128
 71
    24
 72
   -25
 73
    -2
  0
VERTEX
  5
134122
  8
0
 10
0.0
 20
0.0
 30
0.0
 70
   128
 71
   -26
 72
    16
 73
    -1
  0
VERTEX
  5
134123
  8
0
 10
0.0
 20
0.0
 30
0.0
 70
   128
 71
    25
 72
   -26
 73
    -1
  0
VERTEX
  5
134124
  8
0
 10
0.0
 20
0.0
 30
0.0
 70
   128
 71
   -27
 72
    15
 73
   -16
  0
VERTEX
  5
134125
  8
0
 10
0.0
 20
0.0
 30
0.0
 70
   128
 71
    26
 72
   -27
 73
   -16
  0
VERTEX
  5
134126
  8
0
 10
0.0
 20
0.0
 30
0.0
 70
   128
 71
   -28
 72
    14
 73
   -15
  0
VERTEX
  5
134127
  8
0
 10
0.0
 20
0.0
 30
0.0
 70
   128
 71
    27
 72
   -28
 73
   -15
  0
VERTEX
  5
134128
  8
0
 10
0.0
 20
0.0
 30
0.0
 70
   128
 71
   -29
 72
    13
 73
   -14
  0
VERTEX
  5
134129
  8
0
 10
0.0
 20
0.0
 30
0.0
 70
   128
 71
    28
 72
   -29
 73
   -14
  0
VERTEX
  5
13412A
  8
0
 10
0.0
 20
0.0
 30
0.0
 70
   128
 71
   -30
 72
    12
 73
   -13
  0
VERTEX
  5
13412B
  8
0
 10
0.0
 20
0.0
 30
0.0
 70
   128
 71
    29
 72
   -30
 73
   -13
  0
VERTEX
  5
13412C
  8
0
 10
0.0
 20
0.0
 30
0.0
 70
   128
 71
   -31
 72
    11
 73
   -12
  0
VERTEX
  5
13412D
  8
0
 10
0.0
 20
0.0
 30
0.0
 70
   128
 71
    30
 72
   -31
 73
   -12
  0
VERTEX
  5
13412E
  8
0
 10
0.0
 20
0.0
 30
0.0
 70
   128
 71
   -32
 72
    10
 73
   -11
  0
VERTEX
  5
13412F
  8
0
 10
0.0
 20
0.0
 30
0.0
 70
   128
 71
    31
 72
   -32
 73
   -11
  0
VERTEX
  5
134130
  8
0
 10
0.0
 20
0.0
 30
0.0
 70
   128
 71
   -17
 72
     9
 73
   -10
  0
VERTEX
  5
134131
  8
0
 10
0.0
 20
0.0
 30
0.0
 70
   128
 71
    32
 72
   -17
 73
   -10
  0
SEQEND
  5
13460C
  8
0
  0
POLYLINE
  5
134132
  8
0
 66
     1
 10
0.0
 20
0.0
 30
0.0
 70
    64
 71
    18
 72
    16
  0
VERTEX
  5
134133
  8
0
 10
-0.0000000000000021
 20
-4.000000960969997
 30
124.0
 70
   192
  0
VERTEX
  5
134134
  8
0
 10
-0.0000000000000022
 20
-6.299999999999999
 30
124.0
 70
   192
  0
VERTEX
  5
134135
  8
0
 10
-0.0000000000000026
 20
-6.299999999999999
 30
148.0
 70
   192
  0
VERTEX
  5
134136
  8
0
 10
-0.0000000000000024
 20
-4.000000960969997
 30
148.0
 70
   192
  0
VERTEX
  5
134137
  8
0
 10
12.0
 20
-6.299999999999999
 30
135.9999999999999
 70
   192
  0
VERTEX
  5
134138
  8
0
 10
12.0
 20
-4.000000960969997
 30
136.0
 70
   192
  0
VERTEX
  5
134139
  8
0
 10
8.485281374238593
 20
-6.300000000000001
 30
144.4852813742386
 70
   192
  0
VERTEX
  5
13413A
  8
0
 10
8.485281374238548
 20
-4.000000960969997
 30
144.4852813742386
 70
   192
  0
VERTEX
  5
13413B
  8
0
 10
4.417136514742487
 20
-6.3
 30
147.1574596127491
 70
   192
  0
VERTEX
  5
13413C
  8
0
 10
4.417136514742461
 20
-4.000000960969997
 30
147.1574596127491
 70
   192
  0
VERTEX
  5
13413D
  8
0
 10
11.15745961274918
 20
-6.3
 30
140.4171365147425
 70
   192
  0
VERTEX
  5
13413E
  8
0
 10
11.15745961274915
 20
-4.000000960969997
 30
140.4171365147425
 70
   192
  0
VERTEX
  5
13413F
  8
0
 10
8.48528137423855
 20
-6.3
 30
127.5147186257614
 70
   192
  0
VERTEX
  5
134140
  8
0
 10
8.485281374238593
 20
-4.000000960969998
 30
127.5147186257615
 70
   192
  0
VERTEX
  5
134141
  8
0
 10
11.15745961274915
 20
-6.299999999999999
 30
131.5828634852575
 70
   192
  0
VERTEX
  5
134142
  8
0
 10
11.15745961274918
 20
-4.000000960969997
 30
131.5828634852576
 70
   192
  0
VERTEX
  5
134143
  8
0
 10
4.417136514742461
 20
-6.299999999999999
 30
124.8425403872508
 70
   192
  0
VERTEX
  5
134144
  8
0
 10
4.417136514742487
 20
-4.000000960969996
 30
124.8425403872508
 70
   192
  0
VERTEX
  5
134145
  8
0
 10
0.0
 20
0.0
 30
0.0
 70
   128
 71
     8
 72
    10
 73
    -9
  0
VERTEX
  5
134146
  8
0
 10
0.0
 20
0.0
 30
0.0
 70
   128
 71
     7
 72
    -8
 73
     9
  0
VERTEX
  5
134147
  8
0
 10
0.0
 20
0.0
 30
0.0
 70
   128
 71
    10
 72
     4
 73
    -3
  0
VERTEX
  5
134148
  8
0
 10
0.0
 20
0.0
 30
0.0
 70
   128
 71
     9
 72
   -10
 73
     3
  0
VERTEX
  5
134149
  8
0
 10
0.0
 20
0.0
 30
0.0
 70
   128
 71
     6
 72
    12
 73
   -11
  0
VERTEX
  5
13414A
  8
0
 10
0.0
 20
0.0
 30
0.0
 70
   128
 71
     5
 72
    -6
 73
    11
  0
VERTEX
  5
13414B
  8
0
 10
0.0
 20
0.0
 30
0.0
 70
   128
 71
    12
 72
     8
 73
    -7
  0
VERTEX
  5
13414C
  8
0
 10
0.0
 20
0.0
 30
0.0
 70
   128
 71
    11
 72
   -12
 73
     7
  0
VERTEX
  5
13414D
  8
0
 10
0.0
 20
0.0
 30
0.0
 70
   128
 71
    14
 72
    16
 73
   -15
  0
VERTEX
  5
13414E
  8
0
 10
0.0
 20
0.0
 30
0.0
 70
   128
 71
    13
 72
   -14
 73
    15
  0
VERTEX
  5
13414F
  8
0
 10
0.0
 20
0.0
 30
0.0
 70
   128
 71
    16
 72
     6
 73
    -5
  0
VERTEX
  5
134150
  8
0
 10
0.0
 20
0.0
 30
0.0
 70
   128
 71
    15
 72
   -16
 73
     5
  0
VERTEX
  5
134151
  8
0
 10
0.0
 20
0.0
 30
0.0
 70
   128
 71
     1
 72
    18
 73
   -17
  0
VERTEX
  5
134152
  8
0
 10
0.0
 20
0.0
 30
0.0
 70
   128
 71
     2
 72
    -1
 73
    17
  0
VERTEX
  5
134153
  8
0
 10
0.0
 20
0.0
 30
0.0
 70
   128
 71
    18
 72
    14
 73
   -13
  0
VERTEX
  5
134154
  8
0
 10
0.0
 20
0.0
 30
0.0
 70
   128
 71
    17
 72
   -18
 73
    13
  0
SEQEND
  5
13460D
  8
0
  0
POLYLINE
  5
134155
  8
0
 66
     1
 10
0.0
 20
0.0
 30
0.0
 70
    64
 71
    18
 72
    16
  0
VERTEX
  5
134156
  8
0
 10
-0.000000000000002
 20
-3.300000570249999
 30
124.70000146693
 70
   192
  0
VERTEX
  5
134157
  8
0
 10
-0.0000000000000021
 20
-4.000000960969997
 30
124.0
 70
   192
  0
VERTEX
  5
134158
  8
0
 10
-0.0000000000000024
 20
-4.000000960969997
 30
148.0
 70
   192
  0
VERTEX
  5
134159
  8
0
 10
-0.0000000000000023
 20
-3.300000570249999
 30
147.29999853307
 70
   192
  0
VERTEX
  5
13415A
  8
0
 10
12.0
 20
-4.000000960969997
 30
136.0
 70
   192
  0
VERTEX
  5
13415B
  8
0
 10
11.29999853307
 20
-3.300000570249999
 30
136.0
 70
   192
  0
VERTEX
  5
13415C
  8
0
 10
8.485281374238548
 20
-4.000000960969997
 30
144.4852813742386
 70
   192
  0
VERTEX
  5
13415D
  8
0
 10
7.990305590131814
 20
-3.300000570250002
 30
143.9903055901318
 70
   192
  0
VERTEX
  5
13415E
  8
0
 10
4.417136514742461
 20
-4.000000960969997
 30
147.1574596127491
 70
   192
  0
VERTEX
  5
13415F
  8
0
 10
4.159469678079977
 20
-3.300000570250001
 30
146.5066064380711
 70
   192
  0
VERTEX
  5
134160
  8
0
 10
11.15745961274915
 20
-4.000000960969997
 30
140.4171365147425
 70
   192
  0
VERTEX
  5
134161
  8
0
 10
10.50660643807109
 20
-3.30000057025
 30
140.15946967808
 70
   192
  0
VERTEX
  5
134162
  8
0
 10
8.485281374238593
 20
-4.000000960969998
 30
127.5147186257615
 70
   192
  0
VERTEX
  5
134163
  8
0
 10
7.990305590131856
 20
-3.300000570250002
 30
128.0096944098682
 70
   192
  0
VERTEX
  5
134164
  8
0
 10
11.15745961274918
 20
-4.000000960969997
 30
131.5828634852576
 70
   192
  0
VERTEX
  5
134165
  8
0
 10
10.50660643807112
 20
-3.300000570250001
 30
131.8405303219201
 70
   192
  0
VERTEX
  5
134166
  8
0
 10
4.417136514742487
 20
-4.000000960969996
 30
124.8425403872508
 70
   192
  0
VERTEX
  5
134167
  8
0
 10
4.159469678080001
 20
-3.30000057025
 30
125.4933935619289
 70
   192
  0
VERTEX
  5
134168
  8
0
 10
0.0
 20
0.0
 30
0.0
 70
   128
 71
     8
 72
    10
 73
    -9
  0
VERTEX
  5
134169
  8
0
 10
0.0
 20
0.0
 30
0.0
 70
   128
 71
     7
 72
    -8
 73
     9
  0
VERTEX
  5
13416A
  8
0
 10
0.0
 20
0.0
 30
0.0
 70
   128
 71
    10
 72
     4
 73
    -3
  0
VERTEX
  5
13416B
  8
0
 10
0.0
 20
0.0
 30
0.0
 70
   128
 71
     9
 72
   -10
 73
     3
  0
VERTEX
  5
13416C
  8
0
 10
0.0
 20
0.0
 30
0.0
 70
   128
 71
     6
 72
    12
 73
   -11
  0
VERTEX
  5
13416D
  8
0
 10
0.0
 20
0.0
 30
0.0
 70
   128
 71
     5
 72
    -6
 73
    11
  0
VERTEX
  5
13416E
  8
0
 10
0.0
 20
0.0
 30
0.0
 70
   128
 71
    12
 72
     8
 73
    -7
  0
VERTEX
  5
13416F
  8
0
 10
0.0
 20
0.0
 30
0.0
 70
   128
 71
    11
 72
   -12
 73
     7
  0
VERTEX
  5
134170
  8
0
 10
0.0
 20
0.0
 30
0.0
 70
   128
 71
    14
 72
    16
 73
   -15
  0
VERTEX
  5
134171
  8
0
 10
0.0
 20
0.0
 30
0.0
 70
   128
 71
    13
 72
   -14
 73
    15
  0
VERTEX
  5
134172
  8
0
 10
0.0
 20
0.0
 30
0.0
 70
   128
 71
    16
 72
     6
 73
    -5
  0
VERTEX
  5
134173
  8
0
 10
0.0
 20
0.0
 30
0.0
 70
   128
 71
    15
 72
   -16
 73
     5
  0
VERTEX
  5
134174
  8
0
 10
0.0
 20
0.0
 30
0.0
 70
   128
 71
     1
 72
    18
 73
   -17
  0
VERTEX
  5
134175
  8
0
 10
0.0
 20
0.0
 30
0.0
 70
   128
 71
     2
 72
    -1
 73
    17
  0
VERTEX
  5
134176
  8
0
 10
0.0
 20
0.0
 30
0.0
 70
   128
 71
    18
 72
    14
 73
   -13
  0
VERTEX
  5
134177
  8
0
 10
0.0
 20
0.0
 30
0.0
 70
   128
 71
    17
 72
   -18
 73
    13
  0
SEQEND
  5
13460E
  8
0
  0
POLYLINE
  5
134178
  8
0
 66
     1
 10
0.0
 20
0.0
 30
0.0
 70
    64
 71
    32
 72
    32
  0
VERTEX
  5
134179
  8
0
 10
-0.0000000000000023
 20
-3.300000570249999
 30
147.29999853307
 70
   192
  0
VERTEX
  5
13417A
  8
0
 10
4.159469678079977
 20
-3.300000570250001
 30
146.5066064380711
 70
   192
  0
VERTEX
  5
13417B
  8
0
 10
7.990305590131814
 20
-3.300000570250002
 30
143.9903055901318
 70
   192
  0
VERTEX
  5
13417C
  8
0
 10
10.50660643807109
 20
-3.30000057025
 30
140.15946967808
 70
   192
  0
VERTEX
  5
13417D
  8
0
 10
11.29999853307
 20
-3.300000570249999
 30
136.0
 70
   192
  0
VERTEX
  5
13417E
  8
0
 10
10.50660643807112
 20
-3.300000570250001
 30
131.8405303219201
 70
   192
  0
VERTEX
  5
13417F
  8
0
 10
7.990305590131856
 20
-3.300000570250002
 30
128.0096944098682
 70
   192
  0
VERTEX
  5
134180
  8
0
 10
4.159469678080001
 20
-3.30000057025
 30
125.4933935619289
 70
   192
  0
VERTEX
  5
134181
  8
0
 10
-0.000000000000002
 20
-3.300000570249999
 30
124.70000146693
 70
   192
  0
VERTEX
  5
134182
  8
0
 10
-4.159469678079982
 20
-3.300000570250001
 30
125.4933935619289
 70
   192
  0
VERTEX
  5
134183
  8
0
 10
-7.99030559013182
 20
-3.300000570250002
 30
128.0096944098681
 70
   192
  0
VERTEX
  5
134184
  8
0
 10
-10.5066064380711
 20
-3.30000057025
 30
131.84053032192
 70
   192
  0
VERTEX
  5
134185
  8
0
 10
-11.29999853307
 20
-3.300000570249999
 30
135.9999999999999
 70
   192
  0
VERTEX
  5
134186
  8
0
 10
-10.50660643807113
 20
-3.300000570250001
 30
140.15946967808
 70
   192
  0
VERTEX
  5
134187
  8
0
 10
-7.990305590131862
 20
-3.300000570250002
 30
143.9903055901318
 70
   192
  0
VERTEX
  5
134188
  8
0
 10
-4.159469678080005
 20
-3.30000057025
 30
146.5066064380711
 70
   192
  0
VERTEX
  5
134189
  8
0
 10
-0.000000000000002
 20
-3.299999999999999
 30
125.1
 70
   192
  0
VERTEX
  5
13418A
  8
0
 10
4.012232334224398
 20
-3.299999999999998
 30
125.8653075184195
 70
   192
  0
VERTEX
  5
13418B
  8
0
 10
7.707463914933346
 20
-3.299999999999997
 30
128.2925360850666
 70
   192
  0
VERTEX
  5
13418C
  8
0
 10
10.13469248158047
 20
-3.299999999999997
 30
131.9877676657756
 70
   192
  0
VERTEX
  5
13418D
  8
0
 10
10.9
 20
-3.299999999999999
 30
135.9999999999999
 70
   192
  0
VERTEX
  5
13418E
  8
0
 10
10.1346924815805
 20
-3.299999999999997
 30
140.0122323342244
 70
   192
  0
VERTEX
  5
13418F
  8
0
 10
7.707463914933382
 20
-3.299999999999997
 30
143.7074639149334
 70
   192
  0
VERTEX
  5
134190
  8
0
 10
4.012232334224421
 20
-3.299999999999998
 30
146.1346924815805
 70
   192
  0
VERTEX
  5
134191
  8
0
 10
-0.0000000000000023
 20
-3.299999999999999
 30
146.9
 70
   192
  0
VERTEX
  5
134192
  8
0
 10
-4.012232334224403
 20
-3.299999999999998
 30
146.1346924815805
 70
   192
  0
VERTEX
  5
134193
  8
0
 10
-7.707463914933352
 20
-3.299999999999997
 30
143.7074639149334
 70
   192
  0
VERTEX
  5
134194
  8
0
 10
-10.13469248158048
 20
-3.299999999999997
 30
140.0122323342244
 70
   192
  0
VERTEX
  5
134195
  8
0
 10
-10.90000000000001
 20
-3.299999999999999
 30
136.0
 70
   192
  0
VERTEX
  5
134196
  8
0
 10
-10.1346924815805
 20
-3.299999999999997
 30
131.9877676657756
 70
   192
  0
VERTEX
  5
134197
  8
0
 10
-7.707463914933387
 20
-3.299999999999997
 30
128.2925360850667
 70
   192
  0
VERTEX
  5
134198
  8
0
 10
-4.012232334224426
 20
-3.299999999999998
 30
125.8653075184195
 70
   192
  0
VERTEX
  5
134199
  8
0
 10
0.0
 20
0.0
 30
0.0
 70
   128
 71
    -9
 72
    17
 73
   -18
  0
VERTEX
  5
13419A
  8
0
 10
0.0
 20
0.0
 30
0.0
 70
   128
 71
     8
 72
    -9
 73
   -18
  0
VERTEX
  5
13419B
  8
0
 10
0.0
 20
0.0
 30
0.0
 70
   128
 71
   -19
 72
     7
 73
    -8
  0
VERTEX
  5
13419C
  8
0
 10
0.0
 20
0.0
 30
0.0
 70
   128
 71
    18
 72
   -19
 73
    -8
  0
VERTEX
  5
13419D
  8
0
 10
0.0
 20
0.0
 30
0.0
 70
   128
 71
   -20
 72
     6
 73
    -7
  0
VERTEX
  5
13419E
  8
0
 10
0.0
 20
0.0
 30
0.0
 70
   128
 71
    19
 72
   -20
 73
    -7
  0
VERTEX
  5
13419F
  8
0
 10
0.0
 20
0.0
 30
0.0
 70
   128
 71
   -21
 72
     5
 73
    -6
  0
VERTEX
  5
1341A0
  8
0
 10
0.0
 20
0.0
 30
0.0
 70
   128
 71
    20
 72
   -21
 73
    -6
  0
VERTEX
  5
1341A1
  8
0
 10
0.0
 20
0.0
 30
0.0
 70
   128
 71
   -22
 72
     4
 73
    -5
  0
VERTEX
  5
1341A2
  8
0
 10
0.0
 20
0.0
 30
0.0
 70
   128
 71
    21
 72
   -22
 73
    -5
  0
VERTEX
  5
1341A3
  8
0
 10
0.0
 20
0.0
 30
0.0
 70
   128
 71
   -23
 72
     3
 73
    -4
  0
VERTEX
  5
1341A4
  8
0
 10
0.0
 20
0.0
 30
0.0
 70
   128
 71
    22
 72
   -23
 73
    -4
  0
VERTEX
  5
1341A5
  8
0
 10
0.0
 20
0.0
 30
0.0
 70
   128
 71
   -24
 72
     2
 73
    -3
  0
VERTEX
  5
1341A6
  8
0
 10
0.0
 20
0.0
 30
0.0
 70
   128
 71
    23
 72
   -24
 73
    -3
  0
VERTEX
  5
1341A7
  8
0
 10
0.0
 20
0.0
 30
0.0
 70
   128
 71
   -25
 72
     1
 73
    -2
  0
VERTEX
  5
1341A8
  8
0
 10
0.0
 20
0.0
 30
0.0
 70
   128
 71
    24
 72
   -25
 73
    -2
  0
VERTEX
  5
1341A9
  8
0
 10
0.0
 20
0.0
 30
0.0
 70
   128
 71
   -26
 72
    16
 73
    -1
  0
VERTEX
  5
1341AA
  8
0
 10
0.0
 20
0.0
 30
0.0
 70
   128
 71
    25
 72
   -26
 73
    -1
  0
VERTEX
  5
1341AB
  8
0
 10
0.0
 20
0.0
 30
0.0
 70
   128
 71
   -27
 72
    15
 73
   -16
  0
VERTEX
  5
1341AC
  8
0
 10
0.0
 20
0.0
 30
0.0
 70
   128
 71
    26
 72
   -27
 73
   -16
  0
VERTEX
  5
1341AD
  8
0
 10
0.0
 20
0.0
 30
0.0
 70
   128
 71
   -28
 72
    14
 73
   -15
  0
VERTEX
  5
1341AE
  8
0
 10
0.0
 20
0.0
 30
0.0
 70
   128
 71
    27
 72
   -28
 73
   -15
  0
VERTEX
  5
1341AF
  8
0
 10
0.0
 20
0.0
 30
0.0
 70
   128
 71
   -29
 72
    13
 73
   -14
  0
VERTEX
  5
1341B0
  8
0
 10
0.0
 20
0.0
 30
0.0
 70
   128
 71
    28
 72
   -29
 73
   -14
  0
VERTEX
  5
1341B1
  8
0
 10
0.0
 20
0.0
 30
0.0
 70
   128
 71
   -30
 72
    12
 73
   -13
  0
VERTEX
  5
1341B2
  8
0
 10
0.0
 20
0.0
 30
0.0
 70
   128
 71
    29
 72
   -30
 73
   -13
  0
VERTEX
  5
1341B3
  8
0
 10
0.0
 20
0.0
 30
0.0
 70
   128
 71
   -31
 72
    11
 73
   -12
  0
VERTEX
  5
1341B4
  8
0
 10
0.0
 20
0.0
 30
0.0
 70
   128
 71
    30
 72
   -31
 73
   -12
  0
VERTEX
  5
1341B5
  8
0
 10
0.0
 20
0.0
 30
0.0
 70
   128
 71
   -32
 72
    10
 73
   -11
  0
VERTEX
  5
1341B6
  8
0
 10
0.0
 20
0.0
 30
0.0
 70
   128
 71
    31
 72
   -32
 73
   -11
  0
VERTEX
  5
1341B7
  8
0
 10
0.0
 20
0.0
 30
0.0
 70
   128
 71
   -17
 72
     9
 73
   -10
  0
VERTEX
  5
1341B8
  8
0
 10
0.0
 20
0.0
 30
0.0
 70
   128
 71
    32
 72
   -17
 73
   -10
  0
SEQEND
  5
13460F
  8
0
  0
POLYLINE
  5
1341B9
  8
0
 66
     1
 10
0.0
 20
0.0
 30
0.0
 70
    64
 71
    18
 72
    16
  0
VERTEX
  5
1341BA
  8
0
 10
-0.000000000000002
 20
-3.299999999999999
 30
125.1
 70
   192
  0
VERTEX
  5
1341BB
  8
0
 10
-0.0000000000000023
 20
-3.299999999999999
 30
146.9
 70
   192
  0
VERTEX
  5
1341BC
  8
0
 10
-0.0000000000000024
 20
-4.799999999999999
 30
146.9
 70
   192
  0
VERTEX
  5
1341BD
  8
0
 10
-0.0000000000000021
 20
-4.799999999999999
 30
125.1
 70
   192
  0
VERTEX
  5
1341BE
  8
0
 10
10.9
 20
-4.8
 30
136.0000000000001
 70
   192
  0
VERTEX
  5
1341BF
  8
0
 10
10.9
 20
-3.299999999999999
 30
135.9999999999999
 70
   192
  0
VERTEX
  5
1341C0
  8
0
 10
7.707463914933346
 20
-4.799999999999996
 30
143.7074639149334
 70
   192
  0
VERTEX
  5
1341C1
  8
0
 10
7.707463914933382
 20
-3.299999999999997
 30
143.7074639149334
 70
   192
  0
VERTEX
  5
1341C2
  8
0
 10
7.707463914933382
 20
-4.799999999999997
 30
128.2925360850667
 70
   192
  0
VERTEX
  5
1341C3
  8
0
 10
7.707463914933346
 20
-3.299999999999997
 30
128.2925360850666
 70
   192
  0
VERTEX
  5
1341C4
  8
0
 10
10.1346924815805
 20
-3.299999999999997
 30
140.0122323342244
 70
   192
  0
VERTEX
  5
1341C5
  8
0
 10
10.13469248158047
 20
-4.799999999999997
 30
140.0122323342244
 70
   192
  0
VERTEX
  5
1341C6
  8
0
 10
4.012232334224421
 20
-3.299999999999998
 30
146.1346924815805
 70
   192
  0
VERTEX
  5
1341C7
  8
0
 10
4.012232334224399
 20
-4.799999999999997
 30
146.1346924815805
 70
   192
  0
VERTEX
  5
1341C8
  8
0
 10
4.012232334224398
 20
-3.299999999999998
 30
125.8653075184195
 70
   192
  0
VERTEX
  5
1341C9
  8
0
 10
4.012232334224422
 20
-4.799999999999997
 30
125.8653075184195
 70
   192
  0
VERTEX
  5
1341CA
  8
0
 10
10.13469248158047
 20
-3.299999999999997
 30
131.9877676657756
 70
   192
  0
VERTEX
  5
1341CB
  8
0
 10
10.1346924815805
 20
-4.799999999999997
 30
131.9877676657756
 70
   192
  0
VERTEX
  5
1341CC
  8
0
 10
0.0
 20
0.0
 30
0.0
 70
   128
 71
     6
 72
     5
 73
   -12
  0
VERTEX
  5
1341CD
  8
0
 10
0.0
 20
0.0
 30
0.0
 70
   128
 71
    11
 72
    -6
 73
    12
  0
VERTEX
  5
1341CE
  8
0
 10
0.0
 20
0.0
 30
0.0
 70
   128
 71
     7
 72
     8
 73
   -11
  0
VERTEX
  5
1341CF
  8
0
 10
0.0
 20
0.0
 30
0.0
 70
   128
 71
    12
 72
    -7
 73
    11
  0
VERTEX
  5
1341D0
  8
0
 10
0.0
 20
0.0
 30
0.0
 70
   128
 71
     8
 72
     7
 73
   -14
  0
VERTEX
  5
1341D1
  8
0
 10
0.0
 20
0.0
 30
0.0
 70
   128
 71
    13
 72
    -8
 73
    14
  0
VERTEX
  5
1341D2
  8
0
 10
0.0
 20
0.0
 30
0.0
 70
   128
 71
     3
 72
     2
 73
   -13
  0
VERTEX
  5
1341D3
  8
0
 10
0.0
 20
0.0
 30
0.0
 70
   128
 71
    14
 72
    -3
 73
    13
  0
VERTEX
  5
1341D4
  8
0
 10
0.0
 20
0.0
 30
0.0
 70
   128
 71
     1
 72
     4
 73
   -16
  0
VERTEX
  5
1341D5
  8
0
 10
0.0
 20
0.0
 30
0.0
 70
   128
 71
    15
 72
    -1
 73
    16
  0
VERTEX
  5
1341D6
  8
0
 10
0.0
 20
0.0
 30
0.0
 70
   128
 71
     9
 72
    10
 73
   -15
  0
VERTEX
  5
1341D7
  8
0
 10
0.0
 20
0.0
 30
0.0
 70
   128
 71
    16
 72
    -9
 73
    15
  0
VERTEX
  5
1341D8
  8
0
 10
0.0
 20
0.0
 30
0.0
 70
   128
 71
    10
 72
     9
 73
   -18
  0
VERTEX
  5
1341D9
  8
0
 10
0.0
 20
0.0
 30
0.0
 70
   128
 71
    17
 72
   -10
 73
    18
  0
VERTEX
  5
1341DA
  8
0
 10
0.0
 20
0.0
 30
0.0
 70
   128
 71
     5
 72
     6
 73
   -17
  0
VERTEX
  5
1341DB
  8
0
 10
0.0
 20
0.0
 30
0.0
 70
   128
 71
    18
 72
    -5
 73
    17
  0
SEQEND
  5
134610
  8
0
  0
POLYLINE
  5
1341DC
  8
0
 66
     1
 10
0.0
 20
0.0
 30
0.0
 70
    64
 71
    18
 72
    16
  0
VERTEX
  5
1341DD
  8
0
 10
-0.0000000000000023
 20
-3.299999999999999
 30
146.9
 70
   192
  0
VERTEX
  5
1341DE
  8
0
 10
-0.000000000000002
 20
-3.299999999999999
 30
125.1
 70
   192
  0
VERTEX
  5
1341DF
  8
0
 10
-0.0000000000000021
 20
-4.799999999999999
 30
125.1
 70
   192
  0
VERTEX
  5
1341E0
  8
0
 10
-0.0000000000000024
 20
-4.799999999999999
 30
146.9
 70
   192
  0
VERTEX
  5
1341E1
  8
0
 10
-10.9
 20
-4.8
 30
136.0
 70
   192
  0
VERTEX
  5
1341E2
  8
0
 10
-10.90000000000001
 20
-3.299999999999999
 30
136.0
 70
   192
  0
VERTEX
  5
1341E3
  8
0
 10
-7.707463914933351
 20
-4.799999999999996
 30
128.2925360850666
 70
   192
  0
VERTEX
  5
1341E4
  8
0
 10
-7.707463914933387
 20
-3.299999999999997
 30
128.2925360850667
 70
   192
  0
VERTEX
  5
1341E5
  8
0
 10
-7.707463914933388
 20
-4.799999999999997
 30
143.7074639149334
 70
   192
  0
VERTEX
  5
1341E6
  8
0
 10
-7.707463914933352
 20
-3.299999999999997
 30
143.7074639149334
 70
   192
  0
VERTEX
  5
1341E7
  8
0
 10
-10.13469248158048
 20
-4.799999999999997
 30
131.9877676657756
 70
   192
  0
VERTEX
  5
1341E8
  8
0
 10
-10.1346924815805
 20
-3.299999999999997
 30
131.9877676657756
 70
   192
  0
VERTEX
  5
1341E9
  8
0
 10
-4.012232334224405
 20
-4.799999999999997
 30
125.8653075184195
 70
   192
  0
VERTEX
  5
1341EA
  8
0
 10
-4.012232334224426
 20
-3.299999999999998
 30
125.8653075184195
 70
   192
  0
VERTEX
  5
1341EB
  8
0
 10
-4.012232334224427
 20
-4.799999999999997
 30
146.1346924815805
 70
   192
  0
VERTEX
  5
1341EC
  8
0
 10
-4.012232334224403
 20
-3.299999999999998
 30
146.1346924815805
 70
   192
  0
VERTEX
  5
1341ED
  8
0
 10
-10.13469248158051
 20
-4.799999999999997
 30
140.0122323342244
 70
   192
  0
VERTEX
  5
1341EE
  8
0
 10
-10.13469248158048
 20
-3.299999999999997
 30
140.0122323342244
 70
   192
  0
VERTEX
  5
1341EF
  8
0
 10
0.0
 20
0.0
 30
0.0
 70
   128
 71
     7
 72
     8
 73
   -12
  0
VERTEX
  5
1341F0
  8
0
 10
0.0
 20
0.0
 30
0.0
 70
   128
 71
    11
 72
    -7
 73
    12
  0
VERTEX
  5
1341F1
  8
0
 10
0.0
 20
0.0
 30
0.0
 70
   128
 71
     6
 72
     5
 73
   -11
  0
VERTEX
  5
1341F2
  8
0
 10
0.0
 20
0.0
 30
0.0
 70
   128
 71
    12
 72
    -6
 73
    11
  0
VERTEX
  5
1341F3
  8
0
 10
0.0
 20
0.0
 30
0.0
 70
   128
 71
     3
 72
     2
 73
   -14
  0
VERTEX
  5
1341F4
  8
0
 10
0.0
 20
0.0
 30
0.0
 70
   128
 71
    13
 72
    -3
 73
    14
  0
VERTEX
  5
1341F5
  8
0
 10
0.0
 20
0.0
 30
0.0
 70
   128
 71
     8
 72
     7
 73
   -13
  0
VERTEX
  5
1341F6
  8
0
 10
0.0
 20
0.0
 30
0.0
 70
   128
 71
    14
 72
    -8
 73
    13
  0
VERTEX
  5
1341F7
  8
0
 10
0.0
 20
0.0
 30
0.0
 70
   128
 71
     9
 72
    10
 73
   -16
  0
VERTEX
  5
1341F8
  8
0
 10
0.0
 20
0.0
 30
0.0
 70
   128
 71
    15
 72
    -9
 73
    16
  0
VERTEX
  5
1341F9
  8
0
 10
0.0
 20
0.0
 30
0.0
 70
   128
 71
     1
 72
     4
 73
   -15
  0
VERTEX
  5
1341FA
  8
0
 10
0.0
 20
0.0
 30
0.0
 70
   128
 71
    16
 72
    -1
 73
    15
  0
VERTEX
  5
1341FB
  8
0
 10
0.0
 20
0.0
 30
0.0
 70
   128
 71
     5
 72
     6
 73
   -18
  0
VERTEX
  5
1341FC
  8
0
 10
0.0
 20
0.0
 30
0.0
 70
   128
 71
    17
 72
    -5
 73
    18
  0
VERTEX
  5
1341FD
  8
0
 10
0.0
 20
0.0
 30
0.0
 70
   128
 71
    10
 72
     9
 73
   -17
  0
VERTEX
  5
1341FE
  8
0
 10
0.0
 20
0.0
 30
0.0
 70
   128
 71
    18
 72
   -10
 73
    17
  0
SEQEND
  5
134611
  8
0
  0
POLYLINE
  5
1341FF
  8
0
 66
     1
 10
0.0
 20
0.0
 30
0.0
 70
    64
 71
    32
 72
    32
  0
VERTEX
  5
134200
  8
0
 10
-0.0000000000000024
 20
-4.799999999999999
 30
146.9
 70
   192
  0
VERTEX
  5
134201
  8
0
 10
4.012232334224399
 20
-4.799999999999997
 30
146.1346924815805
 70
   192
  0
VERTEX
  5
134202
  8
0
 10
7.707463914933346
 20
-4.799999999999996
 30
143.7074639149334
 70
   192
  0
VERTEX
  5
134203
  8
0
 10
10.13469248158047
 20
-4.799999999999997
 30
140.0122323342244
 70
   192
  0
VERTEX
  5
134204
  8
0
 10
10.9
 20
-4.8
 30
136.0000000000001
 70
   192
  0
VERTEX
  5
134205
  8
0
 10
10.1346924815805
 20
-4.799999999999997
 30
131.9877676657756
 70
   192
  0
VERTEX
  5
134206
  8
0
 10
7.707463914933382
 20
-4.799999999999997
 30
128.2925360850667
 70
   192
  0
VERTEX
  5
134207
  8
0
 10
4.012232334224422
 20
-4.799999999999997
 30
125.8653075184195
 70
   192
  0
VERTEX
  5
134208
  8
0
 10
-0.0000000000000021
 20
-4.799999999999999
 30
125.1
 70
   192
  0
VERTEX
  5
134209
  8
0
 10
-4.012232334224405
 20
-4.799999999999997
 30
125.8653075184195
 70
   192
  0
VERTEX
  5
13420A
  8
0
 10
-7.707463914933351
 20
-4.799999999999996
 30
128.2925360850666
 70
   192
  0
VERTEX
  5
13420B
  8
0
 10
-10.13469248158048
 20
-4.799999999999997
 30
131.9877676657756
 70
   192
  0
VERTEX
  5
13420C
  8
0
 10
-10.9
 20
-4.8
 30
136.0
 70
   192
  0
VERTEX
  5
13420D
  8
0
 10
-10.13469248158051
 20
-4.799999999999997
 30
140.0122323342244
 70
   192
  0
VERTEX
  5
13420E
  8
0
 10
-7.707463914933388
 20
-4.799999999999997
 30
143.7074639149334
 70
   192
  0
VERTEX
  5
13420F
  8
0
 10
-4.012232334224427
 20
-4.799999999999997
 30
146.1346924815805
 70
   192
  0
VERTEX
  5
134210
  8
0
 10
-0.0000000000000021
 20
-4.799999999999999
 30
126.0
 70
   192
  0
VERTEX
  5
134211
  8
0
 10
3.680947095618714
 20
-4.799999999999996
 30
126.7021169893757
 70
   192
  0
VERTEX
  5
134212
  8
0
 10
7.071067811865454
 20
-4.799999999999997
 30
128.9289321881345
 70
   192
  0
VERTEX
  5
134213
  8
0
 10
9.297883010624286
 20
-4.799999999999997
 30
132.3190529043812
 70
   192
  0
VERTEX
  5
134214
  8
0
 10
9.999999999999996
 20
-4.799999999999999
 30
136.0
 70
   192
  0
VERTEX
  5
134215
  8
0
 10
9.297883010624313
 20
-4.799999999999997
 30
139.6809470956187
 70
   192
  0
VERTEX
  5
134216
  8
0
 10
7.071067811865491
 20
-4.799999999999994
 30
143.0710678118654
 70
   192
  0
VERTEX
  5
134217
  8
0
 10
3.680947095618738
 20
-4.799999999999997
 30
145.2978830106243
 70
   192
  0
VERTEX
  5
134218
  8
0
 10
-0.0000000000000024
 20
-4.799999999999999
 30
146.0
 70
   192
  0
VERTEX
  5
134219
  8
0
 10
-3.680947095618719
 20
-4.799999999999996
 30
145.2978830106243
 70
   192
  0
VERTEX
  5
13421A
  8
0
 10
-7.071067811865462
 20
-4.799999999999997
 30
143.0710678118655
 70
   192
  0
VERTEX
  5
13421B
  8
0
 10
-9.297883010624293
 20
-4.799999999999997
 30
139.6809470956188
 70
   192
  0
VERTEX
  5
13421C
  8
0
 10
-10.0
 20
-4.799999999999999
 30
136.0000000000001
 70
   192
  0
VERTEX
  5
13421D
  8
0
 10
-9.29788301062432
 20
-4.799999999999997
 30
132.3190529043813
 70
   192
  0
VERTEX
  5
13421E
  8
0
 10
-7.071067811865497
 20
-4.799999999999994
 30
128.9289321881345
 70
   192
  0
VERTEX
  5
13421F
  8
0
 10
-3.680947095618743
 20
-4.799999999999997
 30
126.7021169893757
 70
   192
  0
VERTEX
  5
134220
  8
0
 10
0.0
 20
0.0
 30
0.0
 70
   128
 71
    -9
 72
    17
 73
   -18
  0
VERTEX
  5
134221
  8
0
 10
0.0
 20
0.0
 30
0.0
 70
   128
 71
     8
 72
    -9
 73
   -18
  0
VERTEX
  5
134222
  8
0
 10
0.0
 20
0.0
 30
0.0
 70
   128
 71
   -19
 72
     7
 73
    -8
  0
VERTEX
  5
134223
  8
0
 10
0.0
 20
0.0
 30
0.0
 70
   128
 71
    18
 72
   -19
 73
    -8
  0
VERTEX
  5
134224
  8
0
 10
0.0
 20
0.0
 30
0.0
 70
   128
 71
   -20
 72
     6
 73
    -7
  0
VERTEX
  5
134225
  8
0
 10
0.0
 20
0.0
 30
0.0
 70
   128
 71
    19
 72
   -20
 73
    -7
  0
VERTEX
  5
134226
  8
0
 10
0.0
 20
0.0
 30
0.0
 70
   128
 71
   -21
 72
     5
 73
    -6
  0
VERTEX
  5
134227
  8
0
 10
0.0
 20
0.0
 30
0.0
 70
   128
 71
    20
 72
   -21
 73
    -6
  0
VERTEX
  5
134228
  8
0
 10
0.0
 20
0.0
 30
0.0
 70
   128
 71
   -22
 72
     4
 73
    -5
  0
VERTEX
  5
134229
  8
0
 10
0.0
 20
0.0
 30
0.0
 70
   128
 71
    21
 72
   -22
 73
    -5
  0
VERTEX
  5
13422A
  8
0
 10
0.0
 20
0.0
 30
0.0
 70
   128
 71
   -23
 72
     3
 73
    -4
  0
VERTEX
  5
13422B
  8
0
 10
0.0
 20
0.0
 30
0.0
 70
   128
 71
    22
 72
   -23
 73
    -4
  0
VERTEX
  5
13422C
  8
0
 10
0.0
 20
0.0
 30
0.0
 70
   128
 71
   -24
 72
     2
 73
    -3
  0
VERTEX
  5
13422D
  8
0
 10
0.0
 20
0.0
 30
0.0
 70
   128
 71
    23
 72
   -24
 73
    -3
  0
VERTEX
  5
13422E
  8
0
 10
0.0
 20
0.0
 30
0.0
 70
   128
 71
   -25
 72
     1
 73
    -2
  0
VERTEX
  5
13422F
  8
0
 10
0.0
 20
0.0
 30
0.0
 70
   128
 71
    24
 72
   -25
 73
    -2
  0
VERTEX
  5
134230
  8
0
 10
0.0
 20
0.0
 30
0.0
 70
   128
 71
   -26
 72
    16
 73
    -1
  0
VERTEX
  5
134231
  8
0
 10
0.0
 20
0.0
 30
0.0
 70
   128
 71
    25
 72
   -26
 73
    -1
  0
VERTEX
  5
134232
  8
0
 10
0.0
 20
0.0
 30
0.0
 70
   128
 71
   -27
 72
    15
 73
   -16
  0
VERTEX
  5
134233
  8
0
 10
0.0
 20
0.0
 30
0.0
 70
   128
 71
    26
 72
   -27
 73
   -16
  0
VERTEX
  5
134234
  8
0
 10
0.0
 20
0.0
 30
0.0
 70
   128
 71
   -28
 72
    14
 73
   -15
  0
VERTEX
  5
134235
  8
0
 10
0.0
 20
0.0
 30
0.0
 70
   128
 71
    27
 72
   -28
 73
   -15
  0
VERTEX
  5
134236
  8
0
 10
0.0
 20
0.0
 30
0.0
 70
   128
 71
   -29
 72
    13
 73
   -14
  0
VERTEX
  5
134237
  8
0
 10
0.0
 20
0.0
 30
0.0
 70
   128
 71
    28
 72
   -29
 73
   -14
  0
VERTEX
  5
134238
  8
0
 10
0.0
 20
0.0
 30
0.0
 70
   128
 71
   -30
 72
    12
 73
   -13
  0
VERTEX
  5
134239
  8
0
 10
0.0
 20
0.0
 30
0.0
 70
   128
 71
    29
 72
   -30
 73
   -13
  0
VERTEX
  5
13423A
  8
0
 10
0.0
 20
0.0
 30
0.0
 70
   128
 71
   -31
 72
    11
 73
   -12
  0
VERTEX
  5
13423B
  8
0
 10
0.0
 20
0.0
 30
0.0
 70
   128
 71
    30
 72
   -31
 73
   -12
  0
VERTEX
  5
13423C
  8
0
 10
0.0
 20
0.0
 30
0.0
 70
   128
 71
   -32
 72
    10
 73
   -11
  0
VERTEX
  5
13423D
  8
0
 10
0.0
 20
0.0
 30
0.0
 70
   128
 71
    31
 72
   -32
 73
   -11
  0
VERTEX
  5
13423E
  8
0
 10
0.0
 20
0.0
 30
0.0
 70
   128
 71
   -17
 72
     9
 73
   -10
  0
VERTEX
  5
13423F
  8
0
 10
0.0
 20
0.0
 30
0.0
 70
   128
 71
    32
 72
   -17
 73
   -10
  0
SEQEND
  5
134612
  8
0
  0
POLYLINE
  5
134240
  8
0
 66
     1
 10
0.0
 20
0.0
 30
0.0
 70
    64
 71
    18
 72
    16
  0
VERTEX
  5
134241
  8
0
 10
-0.0000000000000021
 20
-4.799999999999999
 30
126.0
 70
   192
  0
VERTEX
  5
134242
  8
0
 10
-0.0000000000000024
 20
-4.799999999999999
 30
146.0
 70
   192
  0
VERTEX
  5
134243
  8
0
 10
-0.0000000000000031
 20
-15.1000015257727
 30
146.0
 70
   192
  0
VERTEX
  5
134244
  8
0
 10
-0.0000000000000029
 20
-15.1000015257727
 30
126.0
 70
   192
  0
VERTEX
  5
134245
  8
0
 10
9.999999999999996
 20
-15.1000015257727
 30
136.0
 70
   192
  0
VERTEX
  5
134246
  8
0
 10
9.999999999999996
 20
-4.799999999999999
 30
136.0
 70
   192
  0
VERTEX
  5
134247
  8
0
 10
7.071067811865454
 20
-15.1000015257727
 30
143.0710678118655
 70
   192
  0
VERTEX
  5
134248
  8
0
 10
7.071067811865491
 20
-4.799999999999994
 30
143.0710678118654
 70
   192
  0
VERTEX
  5
134249
  8
0
 10
7.071067811865491
 20
-15.1000015257727
 30
128.9289321881345
 70
   192
  0
VERTEX
  5
13424A
  8
0
 10
7.071067811865454
 20
-4.799999999999997
 30
128.9289321881345
 70
   192
  0
VERTEX
  5
13424B
  8
0
 10
9.297883010624286
 20
-15.1000015257727
 30
139.6809470956188
 70
   192
  0
VERTEX
  5
13424C
  8
0
 10
9.297883010624313
 20
-4.799999999999997
 30
139.6809470956187
 70
   192
  0
VERTEX
  5
13424D
  8
0
 10
3.680947095618738
 20
-4.799999999999997
 30
145.2978830106243
 70
   192
  0
VERTEX
  5
13424E
  8
0
 10
3.680947095618714
 20
-15.1000015257727
 30
145.2978830106243
 70
   192
  0
VERTEX
  5
13424F
  8
0
 10
3.680947095618738
 20
-15.1000015257727
 30
126.7021169893757
 70
   192
  0
VERTEX
  5
134250
  8
0
 10
3.680947095618714
 20
-4.799999999999996
 30
126.7021169893757
 70
   192
  0
VERTEX
  5
134251
  8
0
 10
9.297883010624313
 20
-15.1000015257727
 30
132.3190529043813
 70
   192
  0
VERTEX
  5
134252
  8
0
 10
9.297883010624286
 20
-4.799999999999997
 30
132.3190529043812
 70
   192
  0
VERTEX
  5
134253
  8
0
 10
0.0
 20
0.0
 30
0.0
 70
   128
 71
     7
 72
     8
 73
   -12
  0
VERTEX
  5
134254
  8
0
 10
0.0
 20
0.0
 30
0.0
 70
   128
 71
    11
 72
    -7
 73
    12
  0
VERTEX
  5
134255
  8
0
 10
0.0
 20
0.0
 30
0.0
 70
   128
 71
     6
 72
     5
 73
   -11
  0
VERTEX
  5
134256
  8
0
 10
0.0
 20
0.0
 30
0.0
 70
   128
 71
    12
 72
    -6
 73
    11
  0
VERTEX
  5
134257
  8
0
 10
0.0
 20
0.0
 30
0.0
 70
   128
 71
     3
 72
     2
 73
   -13
  0
VERTEX
  5
134258
  8
0
 10
0.0
 20
0.0
 30
0.0
 70
   128
 71
    14
 72
    -3
 73
    13
  0
VERTEX
  5
134259
  8
0
 10
0.0
 20
0.0
 30
0.0
 70
   128
 71
     8
 72
     7
 73
   -14
  0
VERTEX
  5
13425A
  8
0
 10
0.0
 20
0.0
 30
0.0
 70
   128
 71
    13
 72
    -8
 73
    14
  0
VERTEX
  5
13425B
  8
0
 10
0.0
 20
0.0
 30
0.0
 70
   128
 71
     9
 72
    10
 73
   -16
  0
VERTEX
  5
13425C
  8
0
 10
0.0
 20
0.0
 30
0.0
 70
   128
 71
    15
 72
    -9
 73
    16
  0
VERTEX
  5
13425D
  8
0
 10
0.0
 20
0.0
 30
0.0
 70
   128
 71
     1
 72
     4
 73
   -15
  0
VERTEX
  5
13425E
  8
0
 10
0.0
 20
0.0
 30
0.0
 70
   128
 71
    16
 72
    -1
 73
    15
  0
VERTEX
  5
13425F
  8
0
 10
0.0
 20
0.0
 30
0.0
 70
   128
 71
     5
 72
     6
 73
   -18
  0
VERTEX
  5
134260
  8
0
 10
0.0
 20
0.0
 30
0.0
 70
   128
 71
    17
 72
    -5
 73
    18
  0
VERTEX
  5
134261
  8
0
 10
0.0
 20
0.0
 30
0.0
 70
   128
 71
    10
 72
     9
 73
   -17
  0
VERTEX
  5
134262
  8
0
 10
0.0
 20
0.0
 30
0.0
 70
   128
 71
    18
 72
   -10
 73
    17
  0
SEQEND
  5
134613
  8
0
  0
POLYLINE
  5
134263
  8
0
 66
     1
 10
0.0
 20
0.0
 30
0.0
 70
    64
 71
    18
 72
    16
  0
VERTEX
  5
134264
  8
0
 10
-0.0000000000000029
 20
-15.1000015257727
 30
126.0
 70
   192
  0
VERTEX
  5
134265
  8
0
 10
-0.0000000000000031
 20
-15.1000015257727
 30
146.0
 70
   192
  0
VERTEX
  5
134266
  8
0
 10
-0.0000000000000032
 20
-15.29999798960699
 30
146.20000046929
 70
   192
  0
VERTEX
  5
134267
  8
0
 10
-0.0000000000000014
 20
-15.29999798960699
 30
125.79999953071
 70
   192
  0
VERTEX
  5
134268
  8
0
 10
10.20000046929
 20
-15.29999798960699
 30
136.0
 70
   192
  0
VERTEX
  5
134269
  8
0
 10
9.999999999999996
 20
-15.1000015257727
 30
136.0
 70
   192
  0
VERTEX
  5
13426A
  8
0
 10
7.212489499940919
 20
-15.29999798960699
 30
143.2124894999409
 70
   192
  0
VERTEX
  5
13426B
  8
0
 10
7.071067811865454
 20
-15.1000015257727
 30
143.0710678118655
 70
   192
  0
VERTEX
  5
13426C
  8
0
 10
7.212489499940922
 20
-15.29999798960699
 30
128.7875105000591
 70
   192
  0
VERTEX
  5
13426D
  8
0
 10
7.071067811865491
 20
-15.1000015257727
 30
128.9289321881345
 70
   192
  0
VERTEX
  5
13426E
  8
0
 10
9.483841107177135
 20
-15.29999798960699
 30
139.7545662102742
 70
   192
  0
VERTEX
  5
13426F
  8
0
 10
9.297883010624286
 20
-15.1000015257727
 30
139.6809470956188
 70
   192
  0
VERTEX
  5
134270
  8
0
 10
3.680947095618714
 20
-15.1000015257727
 30
145.2978830106243
 70
   192
  0
VERTEX
  5
134271
  8
0
 10
3.75456621027426
 20
-15.29999798960699
 30
145.4838411071771
 70
   192
  0
VERTEX
  5
134272
  8
0
 10
3.754566210274263
 20
-15.29999798960699
 30
126.5161588928229
 70
   192
  0
VERTEX
  5
134273
  8
0
 10
3.680947095618738
 20
-15.1000015257727
 30
126.7021169893757
 70
   192
  0
VERTEX
  5
134274
  8
0
 10
9.483841107177136
 20
-15.29999798960699
 30
132.2454337897258
 70
   192
  0
VERTEX
  5
134275
  8
0
 10
9.297883010624313
 20
-15.1000015257727
 30
132.3190529043813
 70
   192
  0
VERTEX
  5
134276
  8
0
 10
0.0
 20
0.0
 30
0.0
 70
   128
 71
     7
 72
     8
 73
   -12
  0
VERTEX
  5
134277
  8
0
 10
0.0
 20
0.0
 30
0.0
 70
   128
 71
    11
 72
    -7
 73
    12
  0
VERTEX
  5
134278
  8
0
 10
0.0
 20
0.0
 30
0.0
 70
   128
 71
     6
 72
     5
 73
   -11
  0
VERTEX
  5
134279
  8
0
 10
0.0
 20
0.0
 30
0.0
 70
   128
 71
    12
 72
    -6
 73
    11
  0
VERTEX
  5
13427A
  8
0
 10
0.0
 20
0.0
 30
0.0
 70
   128
 71
     3
 72
     2
 73
   -13
  0
VERTEX
  5
13427B
  8
0
 10
0.0
 20
0.0
 30
0.0
 70
   128
 71
    14
 72
    -3
 73
    13
  0
VERTEX
  5
13427C
  8
0
 10
0.0
 20
0.0
 30
0.0
 70
   128
 71
     8
 72
     7
 73
   -14
  0
VERTEX
  5
13427D
  8
0
 10
0.0
 20
0.0
 30
0.0
 70
   128
 71
    13
 72
    -8
 73
    14
  0
VERTEX
  5
13427E
  8
0
 10
0.0
 20
0.0
 30
0.0
 70
   128
 71
     9
 72
    10
 73
   -16
  0
VERTEX
  5
13427F
  8
0
 10
0.0
 20
0.0
 30
0.0
 70
   128
 71
    15
 72
    -9
 73
    16
  0
VERTEX
  5
134280
  8
0
 10
0.0
 20
0.0
 30
0.0
 70
   128
 71
     1
 72
     4
 73
   -15
  0
VERTEX
  5
134281
  8
0
 10
0.0
 20
0.0
 30
0.0
 70
   128
 71
    16
 72
    -1
 73
    15
  0
VERTEX
  5
134282
  8
0
 10
0.0
 20
0.0
 30
0.0
 70
   128
 71
     5
 72
     6
 73
   -18
  0
VERTEX
  5
134283
  8
0
 10
0.0
 20
0.0
 30
0.0
 70
   128
 71
    17
 72
    -5
 73
    18
  0
VERTEX
  5
134284
  8
0
 10
0.0
 20
0.0
 30
0.0
 70
   128
 71
    10
 72
     9
 73
   -17
  0
VERTEX
  5
134285
  8
0
 10
0.0
 20
0.0
 30
0.0
 70
   128
 71
    18
 72
   -10
 73
    17
  0
SEQEND
  5
134614
  8
0
  0
POLYLINE
  5
134286
  8
0
 66
     1
 10
0.0
 20
0.0
 30
0.0
 70
    64
 71
    18
 72
    16
  0
VERTEX
  5
134287
  8
0
 10
-0.0000000000000031
 20
-15.1000015257727
 30
146.0
 70
   192
  0
VERTEX
  5
134288
  8
0
 10
-0.0000000000000029
 20
-15.1000015257727
 30
126.0
 70
   192
  0
VERTEX
  5
134289
  8
0
 10
-0.0000000000000014
 20
-15.29999798960699
 30
125.79999953071
 70
   192
  0
VERTEX
  5
13428A
  8
0
 10
-0.0000000000000032
 20
-15.29999798960699
 30
146.20000046929
 70
   192
  0
VERTEX
  5
13428B
  8
0
 10
-10.20000046929
 20
-15.29999798960699
 30
136.0
 70
   192
  0
VERTEX
  5
13428C
  8
0
 10
-10.0
 20
-15.1000015257727
 30
136.0
 70
   192
  0
VERTEX
  5
13428D
  8
0
 10
-7.212489499940928
 20
-15.29999798960699
 30
128.7875105000591
 70
   192
  0
VERTEX
  5
13428E
  8
0
 10
-7.071067811865462
 20
-15.1000015257727
 30
128.9289321881345
 70
   192
  0
VERTEX
  5
13428F
  8
0
 10
-7.212489499940933
 20
-15.29999798960699
 30
143.2124894999409
 70
   192
  0
VERTEX
  5
134290
  8
0
 10
-7.071067811865498
 20
-15.1000015257727
 30
143.0710678118654
 70
   192
  0
VERTEX
  5
134291
  8
0
 10
-9.483841107177142
 20
-15.29999798960699
 30
132.2454337897257
 70
   192
  0
VERTEX
  5
134292
  8
0
 10
-9.297883010624293
 20
-15.1000015257727
 30
132.3190529043812
 70
   192
  0
VERTEX
  5
134293
  8
0
 10
-3.68094709561872
 20
-15.1000015257727
 30
126.7021169893757
 70
   192
  0
VERTEX
  5
134294
  8
0
 10
-3.754566210274273
 20
-15.29999798960699
 30
126.5161588928228
 70
   192
  0
VERTEX
  5
134295
  8
0
 10
-3.754566210274276
 20
-15.29999798960699
 30
145.4838411071771
 70
   192
  0
VERTEX
  5
134296
  8
0
 10
-3.680947095618744
 20
-15.1000015257727
 30
145.2978830106243
 70
   192
  0
VERTEX
  5
134297
  8
0
 10
-9.483841107177145
 20
-15.29999798960699
 30
139.7545662102742
 70
   192
  0
VERTEX
  5
134298
  8
0
 10
-9.29788301062432
 20
-15.1000015257727
 30
139.6809470956187
 70
   192
  0
VERTEX
  5
134299
  8
0
 10
0.0
 20
0.0
 30
0.0
 70
   128
 71
     7
 72
     8
 73
   -12
  0
VERTEX
  5
13429A
  8
0
 10
0.0
 20
0.0
 30
0.0
 70
   128
 71
    11
 72
    -7
 73
    12
  0
VERTEX
  5
13429B
  8
0
 10
0.0
 20
0.0
 30
0.0
 70
   128
 71
     6
 72
     5
 73
   -11
  0
VERTEX
  5
13429C
  8
0
 10
0.0
 20
0.0
 30
0.0
 70
   128
 71
    12
 72
    -6
 73
    11
  0
VERTEX
  5
13429D
  8
0
 10
0.0
 20
0.0
 30
0.0
 70
   128
 71
     3
 72
     2
 73
   -13
  0
VERTEX
  5
13429E
  8
0
 10
0.0
 20
0.0
 30
0.0
 70
   128
 71
    14
 72
    -3
 73
    13
  0
VERTEX
  5
13429F
  8
0
 10
0.0
 20
0.0
 30
0.0
 70
   128
 71
     8
 72
     7
 73
   -14
  0
VERTEX
  5
1342A0
  8
0
 10
0.0
 20
0.0
 30
0.0
 70
   128
 71
    13
 72
    -8
 73
    14
  0
VERTEX
  5
1342A1
  8
0
 10
0.0
 20
0.0
 30
0.0
 70
   128
 71
     9
 72
    10
 73
   -16
  0
VERTEX
  5
1342A2
  8
0
 10
0.0
 20
0.0
 30
0.0
 70
   128
 71
    15
 72
    -9
 73
    16
  0
VERTEX
  5
1342A3
  8
0
 10
0.0
 20
0.0
 30
0.0
 70
   128
 71
     1
 72
     4
 73
   -15
  0
VERTEX
  5
1342A4
  8
0
 10
0.0
 20
0.0
 30
0.0
 70
   128
 71
    16
 72
    -1
 73
    15
  0
VERTEX
  5
1342A5
  8
0
 10
0.0
 20
0.0
 30
0.0
 70
   128
 71
     5
 72
     6
 73
   -18
  0
VERTEX
  5
1342A6
  8
0
 10
0.0
 20
0.0
 30
0.0
 70
   128
 71
    17
 72
    -5
 73
    18
  0
VERTEX
  5
1342A7
  8
0
 10
0.0
 20
0.0
 30
0.0
 70
   128
 71
    10
 72
     9
 73
   -17
  0
VERTEX
  5
1342A8
  8
0
 10
0.0
 20
0.0
 30
0.0
 70
   128
 71
    18
 72
   -10
 73
    17
  0
SEQEND
  5
134615
  8
0
  0
POLYLINE
  5
1342A9
  8
0
 66
     1
 10
0.0
 20
0.0
 30
0.0
 70
    64
 71
    18
 72
    16
  0
VERTEX
  5
1342AA
  8
0
 10
-0.0000000000000024
 20
-4.799999999999999
 30
146.0
 70
   192
  0
VERTEX
  5
1342AB
  8
0
 10
-0.0000000000000021
 20
-4.799999999999999
 30
126.0
 70
   192
  0
VERTEX
  5
1342AC
  8
0
 10
-0.0000000000000029
 20
-15.1000015257727
 30
126.0
 70
   192
  0
VERTEX
  5
1342AD
  8
0
 10
-0.0000000000000031
 20
-15.1000015257727
 30
146.0
 70
   192
  0
VERTEX
  5
1342AE
  8
0
 10
-10.0
 20
-15.1000015257727
 30
136.0
 70
   192
  0
VERTEX
  5
1342AF
  8
0
 10
-10.0
 20
-4.799999999999999
 30
136.0000000000001
 70
   192
  0
VERTEX
  5
1342B0
  8
0
 10
-7.071067811865462
 20
-15.1000015257727
 30
128.9289321881345
 70
   192
  0
VERTEX
  5
1342B1
  8
0
 10
-7.071067811865497
 20
-4.799999999999994
 30
128.9289321881345
 70
   192
  0
VERTEX
  5
1342B2
  8
0
 10
-7.071067811865498
 20
-15.1000015257727
 30
143.0710678118654
 70
   192
  0
VERTEX
  5
1342B3
  8
0
 10
-7.071067811865462
 20
-4.799999999999997
 30
143.0710678118655
 70
   192
  0
VERTEX
  5
1342B4
  8
0
 10
-9.297883010624293
 20
-15.1000015257727
 30
132.3190529043812
 70
   192
  0
VERTEX
  5
1342B5
  8
0
 10
-9.29788301062432
 20
-4.799999999999997
 30
132.3190529043813
 70
   192
  0
VERTEX
  5
1342B6
  8
0
 10
-3.680947095618743
 20
-4.799999999999997
 30
126.7021169893757
 70
   192
  0
VERTEX
  5
1342B7
  8
0
 10
-3.68094709561872
 20
-15.1000015257727
 30
126.7021169893757
 70
   192
  0
VERTEX
  5
1342B8
  8
0
 10
-3.680947095618744
 20
-15.1000015257727
 30
145.2978830106243
 70
   192
  0
VERTEX
  5
1342B9
  8
0
 10
-3.680947095618719
 20
-4.799999999999996
 30
145.2978830106243
 70
   192
  0
VERTEX
  5
1342BA
  8
0
 10
-9.29788301062432
 20
-15.1000015257727
 30
139.6809470956187
 70
   192
  0
VERTEX
  5
1342BB
  8
0
 10
-9.297883010624293
 20
-4.799999999999997
 30
139.6809470956188
 70
   192
  0
VERTEX
  5
1342BC
  8
0
 10
0.0
 20
0.0
 30
0.0
 70
   128
 71
     7
 72
     8
 73
   -12
  0
VERTEX
  5
1342BD
  8
0
 10
0.0
 20
0.0
 30
0.0
 70
   128
 71
    11
 72
    -7
 73
    12
  0
VERTEX
  5
1342BE
  8
0
 10
0.0
 20
0.0
 30
0.0
 70
   128
 71
     6
 72
     5
 73
   -11
  0
VERTEX
  5
1342BF
  8
0
 10
0.0
 20
0.0
 30
0.0
 70
   128
 71
    12
 72
    -6
 73
    11
  0
VERTEX
  5
1342C0
  8
0
 10
0.0
 20
0.0
 30
0.0
 70
   128
 71
     3
 72
     2
 73
   -13
  0
VERTEX
  5
1342C1
  8
0
 10
0.0
 20
0.0
 30
0.0
 70
   128
 71
    14
 72
    -3
 73
    13
  0
VERTEX
  5
1342C2
  8
0
 10
0.0
 20
0.0
 30
0.0
 70
   128
 71
     8
 72
     7
 73
   -14
  0
VERTEX
  5
1342C3
  8
0
 10
0.0
 20
0.0
 30
0.0
 70
   128
 71
    13
 72
    -8
 73
    14
  0
VERTEX
  5
1342C4
  8
0
 10
0.0
 20
0.0
 30
0.0
 70
   128
 71
     9
 72
    10
 73
   -16
  0
VERTEX
  5
1342C5
  8
0
 10
0.0
 20
0.0
 30
0.0
 70
   128
 71
    15
 72
    -9
 73
    16
  0
VERTEX
  5
1342C6
  8
0
 10
0.0
 20
0.0
 30
0.0
 70
   128
 71
     1
 72
     4
 73
   -15
  0
VERTEX
  5
1342C7
  8
0
 10
0.0
 20
0.0
 30
0.0
 70
   128
 71
    16
 72
    -1
 73
    15
  0
VERTEX
  5
1342C8
  8
0
 10
0.0
 20
0.0
 30
0.0
 70
   128
 71
     5
 72
     6
 73
   -18
  0
VERTEX
  5
1342C9
  8
0
 10
0.0
 20
0.0
 30
0.0
 70
   128
 71
    17
 72
    -5
 73
    18
  0
VERTEX
  5
1342CA
  8
0
 10
0.0
 20
0.0
 30
0.0
 70
   128
 71
    10
 72
     9
 73
   -17
  0
VERTEX
  5
1342CB
  8
0
 10
0.0
 20
0.0
 30
0.0
 70
   128
 71
    18
 72
   -10
 73
    17
  0
SEQEND
  5
134616
  8
0
  0
POLYLINE
  5
1342CC
  8
0
 66
     1
 10
0.0
 20
0.0
 30
0.0
 70
    64
 71
    18
 72
    16
  0
VERTEX
  5
1342CD
  8
0
 10
-0.0000000000000023
 20
-3.300000570249999
 30
147.29999853307
 70
   192
  0
VERTEX
  5
1342CE
  8
0
 10
-0.0000000000000024
 20
-4.000000960969997
 30
148.0
 70
   192
  0
VERTEX
  5
1342CF
  8
0
 10
-0.0000000000000021
 20
-4.000000960969997
 30
124.0
 70
   192
  0
VERTEX
  5
1342D0
  8
0
 10
-0.000000000000002
 20
-3.300000570249999
 30
124.70000146693
 70
   192
  0
VERTEX
  5
1342D1
  8
0
 10
-12.0
 20
-4.000000960969997
 30
135.9999999999999
 70
   192
  0
VERTEX
  5
1342D2
  8
0
 10
-11.29999853307
 20
-3.300000570249999
 30
135.9999999999999
 70
   192
  0
VERTEX
  5
1342D3
  8
0
 10
-8.485281374238557
 20
-4.000000960969997
 30
127.5147186257614
 70
   192
  0
VERTEX
  5
1342D4
  8
0
 10
-7.99030559013182
 20
-3.300000570250002
 30
128.0096944098681
 70
   192
  0
VERTEX
  5
1342D5
  8
0
 10
-4.417136514742467
 20
-4.000000960969998
 30
124.8425403872508
 70
   192
  0
VERTEX
  5
1342D6
  8
0
 10
-4.159469678079982
 20
-3.300000570250001
 30
125.4933935619289
 70
   192
  0
VERTEX
  5
1342D7
  8
0
 10
-11.15745961274915
 20
-4.000000960969997
 30
131.5828634852575
 70
   192
  0
VERTEX
  5
1342D8
  8
0
 10
-10.5066064380711
 20
-3.30000057025
 30
131.84053032192
 70
   192
  0
VERTEX
  5
1342D9
  8
0
 10
-8.4852813742386
 20
-4.000000960969999
 30
144.4852813742386
 70
   192
  0
VERTEX
  5
1342DA
  8
0
 10
-7.990305590131862
 20
-3.300000570250002
 30
143.9903055901318
 70
   192
  0
VERTEX
  5
1342DB
  8
0
 10
-11.15745961274919
 20
-4.000000960969998
 30
140.4171365147425
 70
   192
  0
VERTEX
  5
1342DC
  8
0
 10
-10.50660643807113
 20
-3.300000570250001
 30
140.15946967808
 70
   192
  0
VERTEX
  5
1342DD
  8
0
 10
-4.417136514742493
 20
-4.000000960969997
 30
147.1574596127491
 70
   192
  0
VERTEX
  5
1342DE
  8
0
 10
-4.159469678080005
 20
-3.30000057025
 30
146.5066064380711
 70
   192
  0
VERTEX
  5
1342DF
  8
0
 10
0.0
 20
0.0
 30
0.0
 70
   128
 71
     8
 72
    10
 73
    -9
  0
VERTEX
  5
1342E0
  8
0
 10
0.0
 20
0.0
 30
0.0
 70
   128
 71
     7
 72
    -8
 73
     9
  0
VERTEX
  5
1342E1
  8
0
 10
0.0
 20
0.0
 30
0.0
 70
   128
 71
    10
 72
     4
 73
    -3
  0
VERTEX
  5
1342E2
  8
0
 10
0.0
 20
0.0
 30
0.0
 70
   128
 71
     9
 72
   -10
 73
     3
  0
VERTEX
  5
1342E3
  8
0
 10
0.0
 20
0.0
 30
0.0
 70
   128
 71
     6
 72
    12
 73
   -11
  0
VERTEX
  5
1342E4
  8
0
 10
0.0
 20
0.0
 30
0.0
 70
   128
 71
     5
 72
    -6
 73
    11
  0
VERTEX
  5
1342E5
  8
0
 10
0.0
 20
0.0
 30
0.0
 70
   128
 71
    12
 72
     8
 73
    -7
  0
VERTEX
  5
1342E6
  8
0
 10
0.0
 20
0.0
 30
0.0
 70
   128
 71
    11
 72
   -12
 73
     7
  0
VERTEX
  5
1342E7
  8
0
 10
0.0
 20
0.0
 30
0.0
 70
   128
 71
    14
 72
    16
 73
   -15
  0
VERTEX
  5
1342E8
  8
0
 10
0.0
 20
0.0
 30
0.0
 70
   128
 71
    13
 72
   -14
 73
    15
  0
VERTEX
  5
1342E9
  8
0
 10
0.0
 20
0.0
 30
0.0
 70
   128
 71
    16
 72
     6
 73
    -5
  0
VERTEX
  5
1342EA
  8
0
 10
0.0
 20
0.0
 30
0.0
 70
   128
 71
    15
 72
   -16
 73
     5
  0
VERTEX
  5
1342EB
  8
0
 10
0.0
 20
0.0
 30
0.0
 70
   128
 71
     1
 72
    18
 73
   -17
  0
VERTEX
  5
1342EC
  8
0
 10
0.0
 20
0.0
 30
0.0
 70
   128
 71
     2
 72
    -1
 73
    17
  0
VERTEX
  5
1342ED
  8
0
 10
0.0
 20
0.0
 30
0.0
 70
   128
 71
    18
 72
    14
 73
   -13
  0
VERTEX
  5
1342EE
  8
0
 10
0.0
 20
0.0
 30
0.0
 70
   128
 71
    17
 72
   -18
 73
    13
  0
SEQEND
  5
134617
  8
0
  0
POLYLINE
  5
1342EF
  8
0
 66
     1
 10
0.0
 20
0.0
 30
0.0
 70
    64
 71
    18
 72
    16
  0
VERTEX
  5
1342F0
  8
0
 10
-0.0000000000000024
 20
-4.000000960969997
 30
148.0
 70
   192
  0
VERTEX
  5
1342F1
  8
0
 10
-0.0000000000000026
 20
-6.299999999999999
 30
148.0
 70
   192
  0
VERTEX
  5
1342F2
  8
0
 10
-0.0000000000000022
 20
-6.299999999999999
 30
124.0
 70
   192
  0
VERTEX
  5
1342F3
  8
0
 10
-0.0000000000000021
 20
-4.000000960969997
 30
124.0
 70
   192
  0
VERTEX
  5
1342F4
  8
0
 10
-12.0
 20
-6.299999999999999
 30
136.0000000000001
 70
   192
  0
VERTEX
  5
1342F5
  8
0
 10
-12.0
 20
-4.000000960969997
 30
135.9999999999999
 70
   192
  0
VERTEX
  5
1342F6
  8
0
 10
-8.4852813742386
 20
-6.300000000000001
 30
127.5147186257615
 70
   192
  0
VERTEX
  5
1342F7
  8
0
 10
-8.485281374238557
 20
-4.000000960969997
 30
127.5147186257614
 70
   192
  0
VERTEX
  5
1342F8
  8
0
 10
-4.417136514742493
 20
-6.3
 30
124.8425403872508
 70
   192
  0
VERTEX
  5
1342F9
  8
0
 10
-4.417136514742467
 20
-4.000000960969998
 30
124.8425403872508
 70
   192
  0
VERTEX
  5
1342FA
  8
0
 10
-11.15745961274919
 20
-6.3
 30
131.5828634852576
 70
   192
  0
VERTEX
  5
1342FB
  8
0
 10
-11.15745961274915
 20
-4.000000960969997
 30
131.5828634852575
 70
   192
  0
VERTEX
  5
1342FC
  8
0
 10
-8.485281374238559
 20
-6.3
 30
144.4852813742386
 70
   192
  0
VERTEX
  5
1342FD
  8
0
 10
-8.4852813742386
 20
-4.000000960969999
 30
144.4852813742386
 70
   192
  0
VERTEX
  5
1342FE
  8
0
 10
-11.15745961274915
 20
-6.299999999999999
 30
140.4171365147425
 70
   192
  0
VERTEX
  5
1342FF
  8
0
 10
-11.15745961274919
 20
-4.000000960969998
 30
140.4171365147425
 70
   192
  0
VERTEX
  5
134300
  8
0
 10
-4.417136514742467
 20
-6.299999999999999
 30
147.1574596127491
 70
   192
  0
VERTEX
  5
134301
  8
0
 10
-4.417136514742493
 20
-4.000000960969997
 30
147.1574596127491
 70
   192
  0
VERTEX
  5
134302
  8
0
 10
0.0
 20
0.0
 30
0.0
 70
   128
 71
     8
 72
    10
 73
    -9
  0
VERTEX
  5
134303
  8
0
 10
0.0
 20
0.0
 30
0.0
 70
   128
 71
     7
 72
    -8
 73
     9
  0
VERTEX
  5
134304
  8
0
 10
0.0
 20
0.0
 30
0.0
 70
   128
 71
    10
 72
     4
 73
    -3
  0
VERTEX
  5
134305
  8
0
 10
0.0
 20
0.0
 30
0.0
 70
   128
 71
     9
 72
   -10
 73
     3
  0
VERTEX
  5
134306
  8
0
 10
0.0
 20
0.0
 30
0.0
 70
   128
 71
     6
 72
    12
 73
   -11
  0
VERTEX
  5
134307
  8
0
 10
0.0
 20
0.0
 30
0.0
 70
   128
 71
     5
 72
    -6
 73
    11
  0
VERTEX
  5
134308
  8
0
 10
0.0
 20
0.0
 30
0.0
 70
   128
 71
    12
 72
     8
 73
    -7
  0
VERTEX
  5
134309
  8
0
 10
0.0
 20
0.0
 30
0.0
 70
   128
 71
    11
 72
   -12
 73
     7
  0
VERTEX
  5
13430A
  8
0
 10
0.0
 20
0.0
 30
0.0
 70
   128
 71
    14
 72
    16
 73
   -15
  0
VERTEX
  5
13430B
  8
0
 10
0.0
 20
0.0
 30
0.0
 70
   128
 71
    13
 72
   -14
 73
    15
  0
VERTEX
  5
13430C
  8
0
 10
0.0
 20
0.0
 30
0.0
 70
   128
 71
    16
 72
     6
 73
    -5
  0
VERTEX
  5
13430D
  8
0
 10
0.0
 20
0.0
 30
0.0
 70
   128
 71
    15
 72
   -16
 73
     5
  0
VERTEX
  5
13430E
  8
0
 10
0.0
 20
0.0
 30
0.0
 70
   128
 71
     1
 72
    18
 73
   -17
  0
VERTEX
  5
13430F
  8
0
 10
0.0
 20
0.0
 30
0.0
 70
   128
 71
     2
 72
    -1
 73
    17
  0
VERTEX
  5
134310
  8
0
 10
0.0
 20
0.0
 30
0.0
 70
   128
 71
    18
 72
    14
 73
   -13
  0
VERTEX
  5
134311
  8
0
 10
0.0
 20
0.0
 30
0.0
 70
   128
 71
    17
 72
   -18
 73
    13
  0
SEQEND
  5
134618
  8
0
  0
ENDBLK
  5
1345FF
  8
0
  0
BLOCK
  8
0
  2
*X3
 70
     1
 10
0.0
 20
0.0
 30
0.0
  3
*X3
  1

  0
POLYLINE
  5
134313
  8
0
 66
     1
 10
0.0
 20
0.0
 30
0.0
 70
    64
 71
    20
 72
    20
  0
VERTEX
  5
134314
  8
0
 10
-34.0
 20
20.0
 30
10.0
 70
   192
  0
VERTEX
  5
134315
  8
0
 10
-34.0
 20
-20.0
 30
10.0
 70
   192
  0
VERTEX
  5
134316
  8
0
 10
-33.48904167641088
 20
-21.95616670564347
 30
10.0
 70
   192
  0
VERTEX
  5
134317
  8
0
 10
-31.95616670564348
 20
-23.48904167641086
 30
9.999999999999998
 70
   192
  0
VERTEX
  5
134318
  8
0
 10
-30.0
 20
-24.0
 30
10.0
 70
   192
  0
VERTEX
  5
134319
  8
0
 10
30.0
 20
-24.0
 30
10.0
 70
   192
  0
VERTEX
  5
13431A
  8
0
 10
31.95616670564349
 20
-23.48904167641087
 30
10.0
 70
   192
  0
VERTEX
  5
13431B
  8
0
 10
33.48904167641088
 20
-21.95616670564348
 30
10.0
 70
   192
  0
VERTEX
  5
13431C
  8
0
 10
34.0
 20
-20.0
 30
10.0
 70
   192
  0
VERTEX
  5
13431D
  8
0
 10
34.0
 20
20.0
 30
10.0
 70
   192
  0
VERTEX
  5
13431E
  8
0
 10
33.48904167641088
 20
21.95616670564347
 30
10.0
 70
   192
  0
VERTEX
  5
13431F
  8
0
 10
31.95616670564348
 20
23.48904167641086
 30
9.999999999999998
 70
   192
  0
VERTEX
  5
134320
  8
0
 10
30.0
 20
24.0
 30
10.0
 70
   192
  0
VERTEX
  5
134321
  8
0
 10
-30.0
 20
24.0
 30
10.0
 70
   192
  0
VERTEX
  5
134322
  8
0
 10
-31.95616670564349
 20
23.48904167641087
 30
10.0
 70
   192
  0
VERTEX
  5
134323
  8
0
 10
-33.48904167641088
 20
21.95616670564348
 30
10.0
 70
   192
  0
VERTEX
  5
134324
  8
0
 10
-19.12664991614
 20
9.326649916142001
 30
10.0
 70
   192
  0
VERTEX
  5
134325
  8
0
 10
19.12664991614
 20
9.326649916141998
 30
10.0
 70
   192
  0
VERTEX
  5
134326
  8
0
 10
19.12664991614
 20
-9.326649916142001
 30
10.0
 70
   192
  0
VERTEX
  5
134327
  8
0
 10
-19.12664991614
 20
-9.326649916141998
 30
10.0
 70
   192
  0
VERTEX
  5
134328
  8
0
 10
0.0
 20
0.0
 30
0.0
 70
   128
 71
    -1
 72
    17
 73
   -18
  0
VERTEX
  5
134329
  8
0
 10
0.0
 20
0.0
 30
0.0
 70
   128
 71
    16
 72
    -1
 73
   -18
  0
VERTEX
  5
13432A
  8
0
 10
0.0
 20
0.0
 30
0.0
 70
   128
 71
    15
 72
   -16
 73
   -18
  0
VERTEX
  5
13432B
  8
0
 10
0.0
 20
0.0
 30
0.0
 70
   128
 71
    14
 72
   -15
 73
   -18
  0
VERTEX
  5
13432C
  8
0
 10
0.0
 20
0.0
 30
0.0
 70
   128
 71
    13
 72
   -14
 73
   -18
  0
VERTEX
  5
13432D
  8
0
 10
0.0
 20
0.0
 30
0.0
 70
   128
 71
    12
 72
   -13
 73
   -18
  0
VERTEX
  5
13432E
  8
0
 10
0.0
 20
0.0
 30
0.0
 70
   128
 71
    11
 72
   -12
 73
   -18
  0
VERTEX
  5
13432F
  8
0
 10
0.0
 20
0.0
 30
0.0
 70
   128
 71
    10
 72
   -11
 73
   -18
  0
VERTEX
  5
134330
  8
0
 10
0.0
 20
0.0
 30
0.0
 70
   128
 71
   -19
 72
     9
 73
   -10
  0
VERTEX
  5
134331
  8
0
 10
0.0
 20
0.0
 30
0.0
 70
   128
 71
    18
 72
   -19
 73
   -10
  0
VERTEX
  5
134332
  8
0
 10
0.0
 20
0.0
 30
0.0
 70
   128
 71
     7
 72
     8
 73
    -9
  0
VERTEX
  5
134333
  8
0
 10
0.0
 20
0.0
 30
0.0
 70
   128
 71
     6
 72
    -7
 73
    -9
  0
VERTEX
  5
134334
  8
0
 10
0.0
 20
0.0
 30
0.0
 70
   128
 71
     5
 72
    -6
 73
    -9
  0
VERTEX
  5
134335
  8
0
 10
0.0
 20
0.0
 30
0.0
 70
   128
 71
     4
 72
    -5
 73
    -9
  0
VERTEX
  5
134336
  8
0
 10
0.0
 20
0.0
 30
0.0
 70
   128
 71
     3
 72
    -4
 73
    -9
  0
VERTEX
  5
134337
  8
0
 10
0.0
 20
0.0
 30
0.0
 70
   128
 71
     2
 72
    -3
 73
    -9
  0
VERTEX
  5
134338
  8
0
 10
0.0
 20
0.0
 30
0.0
 70
   128
 71
   -20
 72
    -2
 73
    -9
  0
VERTEX
  5
134339
  8
0
 10
0.0
 20
0.0
 30
0.0
 70
   128
 71
    19
 72
   -20
 73
    -9
  0
VERTEX
  5
13433A
  8
0
 10
0.0
 20
0.0
 30
0.0
 70
   128
 71
   -17
 72
     1
 73
    -2
  0
VERTEX
  5
13433B
  8
0
 10
0.0
 20
0.0
 30
0.0
 70
   128
 71
    20
 72
   -17
 73
    -2
  0
SEQEND
  5
13461B
  8
0
  0
POLYLINE
  5
13433C
  8
0
 66
     1
 10
0.0
 20
0.0
 30
0.0
 70
    64
 71
    12
 72
    10
  0
VERTEX
  5
13433D
  8
0
 10
-34.0
 20
20.0
 30
10.0
 70
   192
  0
VERTEX
  5
13433E
  8
0
 10
-33.48904167641088
 20
21.95616670564348
 30
10.0
 70
   192
  0
VERTEX
  5
13433F
  8
0
 10
-31.95616670564349
 20
23.48904167641087
 30
10.0
 70
   192
  0
VERTEX
  5
134340
  8
0
 10
-30.0
 20
24.0
 30
10.0
 70
   192
  0
VERTEX
  5
134341
  8
0
 10
-30.0
 20
24.48904167641087
 30
9.872260419102716
 70
   192
  0
VERTEX
  5
134342
  8
0
 10
-30.00000000000001
 20
24.87226041910272
 30
9.48904167641087
 70
   192
  0
VERTEX
  5
134343
  8
0
 10
-30.0
 20
25.00000000000001
 30
9.000000000000002
 70
   192
  0
VERTEX
  5
134344
  8
0
 10
-32.44520838205435
 20
24.36130209551359
 30
9.0
 70
   192
  0
VERTEX
  5
134345
  8
0
 10
-34.36130209551359
 20
22.44520838205435
 30
9.0
 70
   192
  0
VERTEX
  5
134346
  8
0
 10
-35.0
 20
20.0
 30
9.0
 70
   192
  0
VERTEX
  5
134347
  8
0
 10
-34.87226041910272
 20
20.0
 30
9.489041676410869
 70
   192
  0
VERTEX
  5
134348
  8
0
 10
-34.48904167641088
 20
20.0
 30
9.872260419102718
 70
   192
  0
VERTEX
  5
134349
  8
0
 10
0.0
 20
0.0
 30
0.0
 70
   128
 71
     6
 72
     7
 73
     8
  0
VERTEX
  5
13434A
  8
0
 10
0.0
 20
0.0
 30
0.0
 70
   128
 71
     9
 72
    11
 73
    -6
  0
VERTEX
  5
13434B
  8
0
 10
0.0
 20
0.0
 30
0.0
 70
   128
 71
     8
 72
    -9
 73
     6
  0
VERTEX
  5
13434C
  8
0
 10
0.0
 20
0.0
 30
0.0
 70
   128
 71
     9
 72
    10
 73
    11
  0
VERTEX
  5
13434D
  8
0
 10
0.0
 20
0.0
 30
0.0
 70
   128
 71
    12
 72
     5
 73
    -6
  0
VERTEX
  5
13434E
  8
0
 10
0.0
 20
0.0
 30
0.0
 70
   128
 71
    11
 72
   -12
 73
     6
  0
VERTEX
  5
13434F
  8
0
 10
0.0
 20
0.0
 30
0.0
 70
   128
 71
    12
 72
     1
 73
     2
  0
VERTEX
  5
134350
  8
0
 10
0.0
 20
0.0
 30
0.0
 70
   128
 71
     3
 72
     5
 73
   -12
  0
VERTEX
  5
134351
  8
0
 10
0.0
 20
0.0
 30
0.0
 70
   128
 71
     2
 72
    -3
 73
    12
  0
VERTEX
  5
134352
  8
0
 10
0.0
 20
0.0
 30
0.0
 70
   128
 71
     3
 72
     4
 73
     5
  0
SEQEND
  5
13461C
  8
0
  0
POLYLINE
  5
134353
  8
0
 66
     1
 10
0.0
 20
0.0
 30
0.0
 70
    64
 71
     8
 72
     6
  0
VERTEX
  5
134354
  8
0
 10
-34.0
 20
-20.0
 30
10.0
 70
   192
  0
VERTEX
  5
134355
  8
0
 10
-34.0
 20
20.0
 30
10.0
 70
   192
  0
VERTEX
  5
134356
  8
0
 10
-34.48904167641088
 20
20.0
 30
9.872260419102718
 70
   192
  0
VERTEX
  5
134357
  8
0
 10
-34.87226041910272
 20
20.0
 30
9.489041676410869
 70
   192
  0
VERTEX
  5
134358
  8
0
 10
-35.0
 20
20.0
 30
9.0
 70
   192
  0
VERTEX
  5
134359
  8
0
 10
-35.0
 20
-19.99999999904
 30
9.0
 70
   192
  0
VERTEX
  5
13435A
  8
0
 10
-34.87226041910272
 20
-19.99999999933604
 30
9.489041676410867
 70
   192
  0
VERTEX
  5
13435B
  8
0
 10
-34.48904167641087
 20
-19.99999999970393
 30
9.872260419102716
 70
   192
  0
VERTEX
  5
13435C
  8
0
 10
0.0
 20
0.0
 30
0.0
 70
   128
 71
     5
 72
     6
 73
    -7
  0
VERTEX
  5
13435D
  8
0
 10
0.0
 20
0.0
 30
0.0
 70
   128
 71
     4
 72
    -5
 73
     7
  0
VERTEX
  5
13435E
  8
0
 10
0.0
 20
0.0
 30
0.0
 70
   128
 71
     8
 72
     3
 73
    -4
  0
VERTEX
  5
13435F
  8
0
 10
0.0
 20
0.0
 30
0.0
 70
   128
 71
     7
 72
    -8
 73
     4
  0
VERTEX
  5
134360
  8
0
 10
0.0
 20
0.0
 30
0.0
 70
   128
 71
     1
 72
     2
 73
    -3
  0
VERTEX
  5
134361
  8
0
 10
0.0
 20
0.0
 30
0.0
 70
   128
 71
     8
 72
    -1
 73
     3
  0
SEQEND
  5
13461D
  8
0
  0
POLYLINE
  5
134362
  8
0
 66
     1
 10
0.0
 20
0.0
 30
0.0
 70
    64
 71
    12
 72
    10
  0
VERTEX
  5
134363
  8
0
 10
-30.0
 20
-25.0
 30
9.0
 70
   192
  0
VERTEX
  5
134364
  8
0
 10
-30.00000000006936
 20
-24.87226041910271
 30
9.489041676410867
 70
   192
  0
VERTEX
  5
134365
  8
0
 10
-30.00000000006936
 20
-24.48904167641087
 30
9.872260419102716
 70
   192
  0
VERTEX
  5
134366
  8
0
 10
-30.0
 20
-24.0
 30
10.0
 70
   192
  0
VERTEX
  5
134367
  8
0
 10
-31.95616670564348
 20
-23.48904167641086
 30
9.999999999999998
 70
   192
  0
VERTEX
  5
134368
  8
0
 10
-33.48904167641088
 20
-21.95616670564347
 30
10.0
 70
   192
  0
VERTEX
  5
134369
  8
0
 10
-34.0
 20
-20.0
 30
10.0
 70
   192
  0
VERTEX
  5
13436A
  8
0
 10
-34.48904167641087
 20
-19.99999999970393
 30
9.872260419102716
 70
   192
  0
VERTEX
  5
13436B
  8
0
 10
-34.87226041910272
 20
-19.99999999933604
 30
9.489041676410867
 70
   192
  0
VERTEX
  5
13436C
  8
0
 10
-35.0
 20
-19.99999999904
 30
9.0
 70
   192
  0
VERTEX
  5
13436D
  8
0
 10
-34.36130209586043
 20
-22.44520838121698
 30
8.999999999999998
 70
   192
  0
VERTEX
  5
13436E
  8
0
 10
-32.44520838240119
 20
-24.36130209504411
 30
9.0
 70
   192
  0
VERTEX
  5
13436F
  8
0
 10
0.0
 20
0.0
 30
0.0
 70
   128
 71
     6
 72
     7
 73
     8
  0
VERTEX
  5
134370
  8
0
 10
0.0
 20
0.0
 30
0.0
 70
   128
 71
     9
 72
    11
 73
     6
  0
VERTEX
  5
134371
  8
0
 10
0.0
 20
0.0
 30
0.0
 70
   128
 71
     8
 72
     9
 73
     6
  0
VERTEX
  5
134372
  8
0
 10
0.0
 20
0.0
 30
0.0
 70
   128
 71
     9
 72
    10
 73
    11
  0
VERTEX
  5
134373
  8
0
 10
0.0
 20
0.0
 30
0.0
 70
   128
 71
    12
 72
     5
 73
    -6
  0
VERTEX
  5
134374
  8
0
 10
0.0
 20
0.0
 30
0.0
 70
   128
 71
    11
 72
   -12
 73
     6
  0
VERTEX
  5
134375
  8
0
 10
0.0
 20
0.0
 30
0.0
 70
   128
 71
    12
 72
     1
 73
     2
  0
VERTEX
  5
134376
  8
0
 10
0.0
 20
0.0
 30
0.0
 70
   128
 71
     3
 72
     5
 73
    12
  0
VERTEX
  5
134377
  8
0
 10
0.0
 20
0.0
 30
0.0
 70
   128
 71
     2
 72
     3
 73
    12
  0
VERTEX
  5
134378
  8
0
 10
0.0
 20
0.0
 30
0.0
 70
   128
 71
     3
 72
     4
 73
     5
  0
SEQEND
  5
13461E
  8
0
  0
POLYLINE
  5
134379
  8
0
 66
     1
 10
0.0
 20
0.0
 30
0.0
 70
    64
 71
     8
 72
     6
  0
VERTEX
  5
13437A
  8
0
 10
30.0
 20
-24.0
 30
10.0
 70
   192
  0
VERTEX
  5
13437B
  8
0
 10
-30.0
 20
-24.0
 30
10.0
 70
   192
  0
VERTEX
  5
13437C
  8
0
 10
-30.00000000006936
 20
-24.48904167641087
 30
9.872260419102716
 70
   192
  0
VERTEX
  5
13437D
  8
0
 10
-30.00000000006936
 20
-24.87226041910271
 30
9.489041676410867
 70
   192
  0
VERTEX
  5
13437E
  8
0
 10
-30.0
 20
-25.0
 30
9.0
 70
   192
  0
VERTEX
  5
13437F
  8
0
 10
29.99999999904
 20
-25.0
 30
9.0
 70
   192
  0
VERTEX
  5
134380
  8
0
 10
29.99999999950948
 20
-24.87226041910272
 30
9.489041676410867
 70
   192
  0
VERTEX
  5
134381
  8
0
 10
29.99999999987738
 20
-24.48904167641087
 30
9.872260419102718
 70
   192
  0
VERTEX
  5
134382
  8
0
 10
0.0
 20
0.0
 30
0.0
 70
   128
 71
     5
 72
     6
 73
    -7
  0
VERTEX
  5
134383
  8
0
 10
0.0
 20
0.0
 30
0.0
 70
   128
 71
     4
 72
    -5
 73
     7
  0
VERTEX
  5
134384
  8
0
 10
0.0
 20
0.0
 30
0.0
 70
   128
 71
     8
 72
     3
 73
    -4
  0
VERTEX
  5
134385
  8
0
 10
0.0
 20
0.0
 30
0.0
 70
   128
 71
     7
 72
    -8
 73
     4
  0
VERTEX
  5
134386
  8
0
 10
0.0
 20
0.0
 30
0.0
 70
   128
 71
     1
 72
     2
 73
    -3
  0
VERTEX
  5
134387
  8
0
 10
0.0
 20
0.0
 30
0.0
 70
   128
 71
     8
 72
    -1
 73
     3
  0
SEQEND
  5
13461F
  8
0
  0
POLYLINE
  5
134388
  8
0
 66
     1
 10
0.0
 20
0.0
 30
0.0
 70
    64
 71
    12
 72
    10
  0
VERTEX
  5
134389
  8
0
 10
34.0
 20
-20.0
 30
10.0
 70
   192
  0
VERTEX
  5
13438A
  8
0
 10
33.48904167641088
 20
-21.95616670564348
 30
10.0
 70
   192
  0
VERTEX
  5
13438B
  8
0
 10
31.95616670564349
 20
-23.48904167641087
 30
10.0
 70
   192
  0
VERTEX
  5
13438C
  8
0
 10
30.0
 20
-24.0
 30
10.0
 70
   192
  0
VERTEX
  5
13438D
  8
0
 10
29.99999999987738
 20
-24.48904167641087
 30
9.872260419102718
 70
   192
  0
VERTEX
  5
13438E
  8
0
 10
29.99999999950948
 20
-24.87226041910272
 30
9.489041676410867
 70
   192
  0
VERTEX
  5
13438F
  8
0
 10
29.99999999904
 20
-25.0
 30
9.0
 70
   192
  0
VERTEX
  5
134390
  8
0
 10
32.44520838147522
 20
-24.36130209583829
 30
9.0
 70
   192
  0
VERTEX
  5
134391
  8
0
 10
34.36130209536881
 20
-22.44520838231258
 30
8.999999999999998
 70
   192
  0
VERTEX
  5
134392
  8
0
 10
35.0
 20
-20.0
 30
9.0
 70
   192
  0
VERTEX
  5
134393
  8
0
 10
34.87226041910272
 20
-20.0
 30
9.489041676410869
 70
   192
  0
VERTEX
  5
134394
  8
0
 10
34.48904167641088
 20
-20.0
 30
9.872260419102718
 70
   192
  0
VERTEX
  5
134395
  8
0
 10
0.0
 20
0.0
 30
0.0
 70
   128
 71
     6
 72
     7
 73
     8
  0
VERTEX
  5
134396
  8
0
 10
0.0
 20
0.0
 30
0.0
 70
   128
 71
     9
 72
    11
 73
    -6
  0
VERTEX
  5
134397
  8
0
 10
0.0
 20
0.0
 30
0.0
 70
   128
 71
     8
 72
    -9
 73
     6
  0
VERTEX
  5
134398
  8
0
 10
0.0
 20
0.0
 30
0.0
 70
   128
 71
     9
 72
    10
 73
    11
  0
VERTEX
  5
134399
  8
0
 10
0.0
 20
0.0
 30
0.0
 70
   128
 71
    12
 72
     5
 73
    -6
  0
VERTEX
  5
13439A
  8
0
 10
0.0
 20
0.0
 30
0.0
 70
   128
 71
    11
 72
   -12
 73
     6
  0
VERTEX
  5
13439B
  8
0
 10
0.0
 20
0.0
 30
0.0
 70
   128
 71
    12
 72
     1
 73
     2
  0
VERTEX
  5
13439C
  8
0
 10
0.0
 20
0.0
 30
0.0
 70
   128
 71
     3
 72
     5
 73
   -12
  0
VERTEX
  5
13439D
  8
0
 10
0.0
 20
0.0
 30
0.0
 70
   128
 71
     2
 72
    -3
 73
    12
  0
VERTEX
  5
13439E
  8
0
 10
0.0
 20
0.0
 30
0.0
 70
   128
 71
     3
 72
     4
 73
     5
  0
SEQEND
  5
134620
  8
0
  0
POLYLINE
  5
13439F
  8
0
 66
     1
 10
0.0
 20
0.0
 30
0.0
 70
    64
 71
     8
 72
     6
  0
VERTEX
  5
1343A0
  8
0
 10
34.0
 20
20.0
 30
10.0
 70
   192
  0
VERTEX
  5
1343A1
  8
0
 10
34.0
 20
-20.0
 30
10.0
 70
   192
  0
VERTEX
  5
1343A2
  8
0
 10
34.48904167641088
 20
-20.0
 30
9.872260419102718
 70
   192
  0
VERTEX
  5
1343A3
  8
0
 10
34.87226041910272
 20
-20.0
 30
9.489041676410869
 70
   192
  0
VERTEX
  5
1343A4
  8
0
 10
35.0
 20
-20.0
 30
9.0
 70
   192
  0
VERTEX
  5
1343A5
  8
0
 10
35.0
 20
19.99999999904
 30
9.0
 70
   192
  0
VERTEX
  5
1343A6
  8
0
 10
34.87226041910272
 20
19.99999999933604
 30
9.489041676410867
 70
   192
  0
VERTEX
  5
1343A7
  8
0
 10
34.48904167641087
 20
19.99999999970393
 30
9.872260419102716
 70
   192
  0
VERTEX
  5
1343A8
  8
0
 10
0.0
 20
0.0
 30
0.0
 70
   128
 71
     5
 72
     6
 73
    -7
  0
VERTEX
  5
1343A9
  8
0
 10
0.0
 20
0.0
 30
0.0
 70
   128
 71
     4
 72
    -5
 73
     7
  0
VERTEX
  5
1343AA
  8
0
 10
0.0
 20
0.0
 30
0.0
 70
   128
 71
     8
 72
     3
 73
    -4
  0
VERTEX
  5
1343AB
  8
0
 10
0.0
 20
0.0
 30
0.0
 70
   128
 71
     7
 72
    -8
 73
     4
  0
VERTEX
  5
1343AC
  8
0
 10
0.0
 20
0.0
 30
0.0
 70
   128
 71
     1
 72
     2
 73
    -3
  0
VERTEX
  5
1343AD
  8
0
 10
0.0
 20
0.0
 30
0.0
 70
   128
 71
     8
 72
    -1
 73
     3
  0
SEQEND
  5
134621
  8
0
  0
POLYLINE
  5
1343AE
  8
0
 66
     1
 10
0.0
 20
0.0
 30
0.0
 70
    64
 71
    12
 72
    10
  0
VERTEX
  5
1343AF
  8
0
 10
30.0
 20
25.0
 30
9.0
 70
   192
  0
VERTEX
  5
1343B0
  8
0
 10
30.00000000006936
 20
24.87226041910271
 30
9.489041676410867
 70
   192
  0
VERTEX
  5
1343B1
  8
0
 10
30.00000000006936
 20
24.48904167641087
 30
9.872260419102716
 70
   192
  0
VERTEX
  5
1343B2
  8
0
 10
30.0
 20
24.0
 30
10.0
 70
   192
  0
VERTEX
  5
1343B3
  8
0
 10
31.95616670564348
 20
23.48904167641086
 30
9.999999999999998
 70
   192
  0
VERTEX
  5
1343B4
  8
0
 10
33.48904167641088
 20
21.95616670564347
 30
10.0
 70
   192
  0
VERTEX
  5
1343B5
  8
0
 10
34.0
 20
20.0
 30
10.0
 70
   192
  0
VERTEX
  5
1343B6
  8
0
 10
34.48904167641087
 20
19.99999999970393
 30
9.872260419102716
 70
   192
  0
VERTEX
  5
1343B7
  8
0
 10
34.87226041910272
 20
19.99999999933604
 30
9.489041676410867
 70
   192
  0
VERTEX
  5
1343B8
  8
0
 10
35.0
 20
19.99999999904
 30
9.0
 70
   192
  0
VERTEX
  5
1343B9
  8
0
 10
34.36130209586043
 20
22.44520838121698
 30
8.999999999999998
 70
   192
  0
VERTEX
  5
1343BA
  8
0
 10
32.44520838240119
 20
24.36130209504411
 30
9.0
 70
   192
  0
VERTEX
  5
1343BB
  8
0
 10
0.0
 20
0.0
 30
0.0
 70
   128
 71
     6
 72
     7
 73
     8
  0
VERTEX
  5
1343BC
  8
0
 10
0.0
 20
0.0
 30
0.0
 70
   128
 71
     9
 72
    11
 73
     6
  0
VERTEX
  5
1343BD
  8
0
 10
0.0
 20
0.0
 30
0.0
 70
   128
 71
     8
 72
     9
 73
     6
  0
VERTEX
  5
1343BE
  8
0
 10
0.0
 20
0.0
 30
0.0
 70
   128
 71
     9
 72
    10
 73
    11
  0
VERTEX
  5
1343BF
  8
0
 10
0.0
 20
0.0
 30
0.0
 70
   128
 71
    12
 72
     5
 73
    -6
  0
VERTEX
  5
1343C0
  8
0
 10
0.0
 20
0.0
 30
0.0
 70
   128
 71
    11
 72
   -12
 73
     6
  0
VERTEX
  5
1343C1
  8
0
 10
0.0
 20
0.0
 30
0.0
 70
   128
 71
    12
 72
     1
 73
     2
  0
VERTEX
  5
1343C2
  8
0
 10
0.0
 20
0.0
 30
0.0
 70
   128
 71
     3
 72
     5
 73
    12
  0
VERTEX
  5
1343C3
  8
0
 10
0.0
 20
0.0
 30
0.0
 70
   128
 71
     2
 72
     3
 73
    12
  0
VERTEX
  5
1343C4
  8
0
 10
0.0
 20
0.0
 30
0.0
 70
   128
 71
     3
 72
     4
 73
     5
  0
SEQEND
  5
134622
  8
0
  0
POLYLINE
  5
1343C5
  8
0
 66
     1
 10
0.0
 20
0.0
 30
0.0
 70
    64
 71
     8
 72
     6
  0
VERTEX
  5
1343C6
  8
0
 10
-30.0
 20
24.0
 30
10.0
 70
   192
  0
VERTEX
  5
1343C7
  8
0
 10
30.0
 20
24.0
 30
10.0
 70
   192
  0
VERTEX
  5
1343C8
  8
0
 10
30.00000000006936
 20
24.48904167641087
 30
9.872260419102716
 70
   192
  0
VERTEX
  5
1343C9
  8
0
 10
30.00000000006936
 20
24.87226041910271
 30
9.489041676410867
 70
   192
  0
VERTEX
  5
1343CA
  8
0
 10
30.0
 20
25.0
 30
9.0
 70
   192
  0
VERTEX
  5
1343CB
  8
0
 10
-30.0
 20
25.0
 30
9.0
 70
   192
  0
VERTEX
  5
1343CC
  8
0
 10
-30.00000000000001
 20
24.87226041910272
 30
9.48904167641087
 70
   192
  0
VERTEX
  5
1343CD
  8
0
 10
-30.0
 20
24.48904167641087
 30
9.872260419102716
 70
   192
  0
VERTEX
  5
1343CE
  8
0
 10
0.0
 20
0.0
 30
0.0
 70
   128
 71
     5
 72
     6
 73
    -7
  0
VERTEX
  5
1343CF
  8
0
 10
0.0
 20
0.0
 30
0.0
 70
   128
 71
     4
 72
    -5
 73
     7
  0
VERTEX
  5
1343D0
  8
0
 10
0.0
 20
0.0
 30
0.0
 70
   128
 71
     8
 72
     3
 73
    -4
  0
VERTEX
  5
1343D1
  8
0
 10
0.0
 20
0.0
 30
0.0
 70
   128
 71
     7
 72
    -8
 73
     4
  0
VERTEX
  5
1343D2
  8
0
 10
0.0
 20
0.0
 30
0.0
 70
   128
 71
     1
 72
     2
 73
    -3
  0
VERTEX
  5
1343D3
  8
0
 10
0.0
 20
0.0
 30
0.0
 70
   128
 71
     8
 72
    -1
 73
     3
  0
SEQEND
  5
134623
  8
0
  0
POLYLINE
  5
1343D4
  8
0
 66
     1
 10
0.0
 20
0.0
 30
0.0
 70
    64
 71
     4
 72
     2
  0
VERTEX
  5
1343D5
  8
0
 10
-30.0
 20
25.0
 30
9.0
 70
   192
  0
VERTEX
  5
1343D6
  8
0
 10
30.0
 20
25.0
 30
9.0
 70
   192
  0
VERTEX
  5
1343D7
  8
0
 10
30.0
 20
25.0
 30
0.0
 70
   192
  0
VERTEX
  5
1343D8
  8
0
 10
-30.0
 20
25.0
 30
0.0
 70
   192
  0
VERTEX
  5
1343D9
  8
0
 10
0.0
 20
0.0
 30
0.0
 70
   128
 71
     3
 72
     4
 73
    -1
  0
VERTEX
  5
1343DA
  8
0
 10
0.0
 20
0.0
 30
0.0
 70
   128
 71
     2
 72
    -3
 73
     1
  0
SEQEND
  5
134624
  8
0
  0
POLYLINE
  5
1343DB
  8
0
 66
     1
 10
0.0
 20
0.0
 30
0.0
 70
    64
 71
     8
 72
     6
  0
VERTEX
  5
1343DC
  8
0
 10
-35.0
 20
20.0
 30
9.0
 70
   192
  0
VERTEX
  5
1343DD
  8
0
 10
-34.36130209551359
 20
22.44520838205435
 30
9.0
 70
   192
  0
VERTEX
  5
1343DE
  8
0
 10
-32.44520838205435
 20
24.36130209551359
 30
9.0
 70
   192
  0
VERTEX
  5
1343DF
  8
0
 10
-30.0
 20
25.0
 30
9.0
 70
   192
  0
VERTEX
  5
1343E0
  8
0
 10
-30.0
 20
25.0
 30
0.0
 70
   192
  0
VERTEX
  5
1343E1
  8
0
 10
-32.44520838205435
 20
24.36130209551359
 30
0.0000000000000006
 70
   192
  0
VERTEX
  5
1343E2
  8
0
 10
-34.36130209551359
 20
22.44520838205435
 30
0.0000000000000006
 70
   192
  0
VERTEX
  5
1343E3
  8
0
 10
-35.0
 20
20.0
 30
0.0
 70
   192
  0
VERTEX
  5
1343E4
  8
0
 10
0.0
 20
0.0
 30
0.0
 70
   128
 71
     4
 72
     5
 73
    -6
  0
VERTEX
  5
1343E5
  8
0
 10
0.0
 20
0.0
 30
0.0
 70
   128
 71
     3
 72
    -4
 73
     6
  0
VERTEX
  5
1343E6
  8
0
 10
0.0
 20
0.0
 30
0.0
 70
   128
 71
     7
 72
     2
 73
    -3
  0
VERTEX
  5
1343E7
  8
0
 10
0.0
 20
0.0
 30
0.0
 70
   128
 71
     6
 72
    -7
 73
     3
  0
VERTEX
  5
1343E8
  8
0
 10
0.0
 20
0.0
 30
0.0
 70
   128
 71
     8
 72
     1
 73
    -2
  0
VERTEX
  5
1343E9
  8
0
 10
0.0
 20
0.0
 30
0.0
 70
   128
 71
     7
 72
    -8
 73
     2
  0
SEQEND
  5
134625
  8
0
  0
POLYLINE
  5
1343EA
  8
0
 66
     1
 10
0.0
 20
0.0
 30
0.0
 70
    64
 71
     4
 72
     2
  0
VERTEX
  5
1343EB
  8
0
 10
-35.0
 20
-19.99999999904
 30
9.0
 70
   192
  0
VERTEX
  5
1343EC
  8
0
 10
-35.0
 20
20.0
 30
9.0
 70
   192
  0
VERTEX
  5
1343ED
  8
0
 10
-35.0
 20
20.0
 30
0.0
 70
   192
  0
VERTEX
  5
1343EE
  8
0
 10
-35.0
 20
-20.0
 30
0.0
 70
   192
  0
VERTEX
  5
1343EF
  8
0
 10
0.0
 20
0.0
 30
0.0
 70
   128
 71
     3
 72
     4
 73
    -1
  0
VERTEX
  5
1343F0
  8
0
 10
0.0
 20
0.0
 30
0.0
 70
   128
 71
     2
 72
    -3
 73
     1
  0
SEQEND
  5
134626
  8
0
  0
POLYLINE
  5
1343F1
  8
0
 66
     1
 10
0.0
 20
0.0
 30
0.0
 70
    64
 71
     8
 72
     6
  0
VERTEX
  5
1343F2
  8
0
 10
-30.0
 20
-25.0
 30
9.0
 70
   192
  0
VERTEX
  5
1343F3
  8
0
 10
-32.44520838240119
 20
-24.36130209504411
 30
9.0
 70
   192
  0
VERTEX
  5
1343F4
  8
0
 10
-34.36130209586043
 20
-22.44520838121698
 30
8.999999999999998
 70
   192
  0
VERTEX
  5
1343F5
  8
0
 10
-35.0
 20
-19.99999999904
 30
9.0
 70
   192
  0
VERTEX
  5
1343F6
  8
0
 10
-35.0
 20
-20.0
 30
0.0
 70
   192
  0
VERTEX
  5
1343F7
  8
0
 10
-34.36130209551359
 20
-22.44520838205434
 30
0.0000000000000006
 70
   192
  0
VERTEX
  5
1343F8
  8
0
 10
-32.44520838205435
 20
-24.36130209551358
 30
0.0000000000000006
 70
   192
  0
VERTEX
  5
1343F9
  8
0
 10
-30.0
 20
-25.0
 30
0.0
 70
   192
  0
VERTEX
  5
1343FA
  8
0
 10
0.0
 20
0.0
 30
0.0
 70
   128
 71
     4
 72
     5
 73
    -6
  0
VERTEX
  5
1343FB
  8
0
 10
0.0
 20
0.0
 30
0.0
 70
   128
 71
     3
 72
    -4
 73
     6
  0
VERTEX
  5
1343FC
  8
0
 10
0.0
 20
0.0
 30
0.0
 70
   128
 71
     7
 72
     2
 73
    -3
  0
VERTEX
  5
1343FD
  8
0
 10
0.0
 20
0.0
 30
0.0
 70
   128
 71
     6
 72
    -7
 73
     3
  0
VERTEX
  5
1343FE
  8
0
 10
0.0
 20
0.0
 30
0.0
 70
   128
 71
     8
 72
     1
 73
    -2
  0
VERTEX
  5
1343FF
  8
0
 10
0.0
 20
0.0
 30
0.0
 70
   128
 71
     7
 72
    -8
 73
     2
  0
SEQEND
  5
134627
  8
0
  0
POLYLINE
  5
134400
  8
0
 66
     1
 10
0.0
 20
0.0
 30
0.0
 70
    64
 71
     4
 72
     2
  0
VERTEX
  5
134401
  8
0
 10
29.99999999904
 20
-25.0
 30
9.0
 70
   192
  0
VERTEX
  5
134402
  8
0
 10
-30.0
 20
-25.0
 30
9.0
 70
   192
  0
VERTEX
  5
134403
  8
0
 10
-30.0
 20
-25.0
 30
0.0
 70
   192
  0
VERTEX
  5
134404
  8
0
 10
30.0
 20
-25.0
 30
0.0
 70
   192
  0
VERTEX
  5
134405
  8
0
 10
0.0
 20
0.0
 30
0.0
 70
   128
 71
     3
 72
     4
 73
    -1
  0
VERTEX
  5
134406
  8
0
 10
0.0
 20
0.0
 30
0.0
 70
   128
 71
     2
 72
    -3
 73
     1
  0
SEQEND
  5
134628
  8
0
  0
POLYLINE
  5
134407
  8
0
 66
     1
 10
0.0
 20
0.0
 30
0.0
 70
    64
 71
     8
 72
     6
  0
VERTEX
  5
134408
  8
0
 10
35.0
 20
-20.0
 30
9.0
 70
   192
  0
VERTEX
  5
134409
  8
0
 10
34.36130209536881
 20
-22.44520838231258
 30
8.999999999999998
 70
   192
  0
VERTEX
  5
13440A
  8
0
 10
32.44520838147522
 20
-24.36130209583829
 30
9.0
 70
   192
  0
VERTEX
  5
13440B
  8
0
 10
29.99999999904
 20
-25.0
 30
9.0
 70
   192
  0
VERTEX
  5
13440C
  8
0
 10
30.0
 20
-25.0
 30
0.0
 70
   192
  0
VERTEX
  5
13440D
  8
0
 10
32.44520838205435
 20
-24.36130209551359
 30
0.0000000000000006
 70
   192
  0
VERTEX
  5
13440E
  8
0
 10
34.36130209551359
 20
-22.44520838205435
 30
0.0000000000000006
 70
   192
  0
VERTEX
  5
13440F
  8
0
 10
35.0
 20
-20.0
 30
0.0
 70
   192
  0
VERTEX
  5
134410
  8
0
 10
0.0
 20
0.0
 30
0.0
 70
   128
 71
     4
 72
     5
 73
    -6
  0
VERTEX
  5
134411
  8
0
 10
0.0
 20
0.0
 30
0.0
 70
   128
 71
     3
 72
    -4
 73
     6
  0
VERTEX
  5
134412
  8
0
 10
0.0
 20
0.0
 30
0.0
 70
   128
 71
     7
 72
     2
 73
    -3
  0
VERTEX
  5
134413
  8
0
 10
0.0
 20
0.0
 30
0.0
 70
   128
 71
     6
 72
    -7
 73
     3
  0
VERTEX
  5
134414
  8
0
 10
0.0
 20
0.0
 30
0.0
 70
   128
 71
     8
 72
     1
 73
    -2
  0
VERTEX
  5
134415
  8
0
 10
0.0
 20
0.0
 30
0.0
 70
   128
 71
     7
 72
    -8
 73
     2
  0
SEQEND
  5
134629
  8
0
  0
POLYLINE
  5
134416
  8
0
 66
     1
 10
0.0
 20
0.0
 30
0.0
 70
    64
 71
     4
 72
     2
  0
VERTEX
  5
134417
  8
0
 10
35.0
 20
19.99999999904
 30
9.0
 70
   192
  0
VERTEX
  5
134418
  8
0
 10
35.0
 20
-20.0
 30
9.0
 70
   192
  0
VERTEX
  5
134419
  8
0
 10
35.0
 20
-20.0
 30
0.0
 70
   192
  0
VERTEX
  5
13441A
  8
0
 10
35.0
 20
20.0
 30
0.0
 70
   192
  0
VERTEX
  5
13441B
  8
0
 10
0.0
 20
0.0
 30
0.0
 70
   128
 71
     3
 72
     4
 73
    -1
  0
VERTEX
  5
13441C
  8
0
 10
0.0
 20
0.0
 30
0.0
 70
   128
 71
     2
 72
    -3
 73
     1
  0
SEQEND
  5
13462A
  8
0
  0
POLYLINE
  5
13441D
  8
0
 66
     1
 10
0.0
 20
0.0
 30
0.0
 70
    64
 71
     8
 72
     6
  0
VERTEX
  5
13441E
  8
0
 10
30.0
 20
25.0
 30
9.0
 70
   192
  0
VERTEX
  5
13441F
  8
0
 10
32.44520838240119
 20
24.36130209504411
 30
9.0
 70
   192
  0
VERTEX
  5
134420
  8
0
 10
34.36130209586043
 20
22.44520838121698
 30
8.999999999999998
 70
   192
  0
VERTEX
  5
134421
  8
0
 10
35.0
 20
19.99999999904
 30
9.0
 70
   192
  0
VERTEX
  5
134422
  8
0
 10
35.0
 20
20.0
 30
0.0
 70
   192
  0
VERTEX
  5
134423
  8
0
 10
34.36130209551359
 20
22.44520838205434
 30
0.0000000000000006
 70
   192
  0
VERTEX
  5
134424
  8
0
 10
32.44520838205435
 20
24.36130209551358
 30
0.0000000000000006
 70
   192
  0
VERTEX
  5
134425
  8
0
 10
30.0
 20
25.0
 30
0.0
 70
   192
  0
VERTEX
  5
134426
  8
0
 10
0.0
 20
0.0
 30
0.0
 70
   128
 71
     4
 72
     5
 73
    -6
  0
VERTEX
  5
134427
  8
0
 10
0.0
 20
0.0
 30
0.0
 70
   128
 71
     3
 72
    -4
 73
     6
  0
VERTEX
  5
134428
  8
0
 10
0.0
 20
0.0
 30
0.0
 70
   128
 71
     7
 72
     2
 73
    -3
  0
VERTEX
  5
134429
  8
0
 10
0.0
 20
0.0
 30
0.0
 70
   128
 71
     6
 72
    -7
 73
     3
  0
VERTEX
  5
13442A
  8
0
 10
0.0
 20
0.0
 30
0.0
 70
   128
 71
     8
 72
     1
 73
    -2
  0
VERTEX
  5
13442B
  8
0
 10
0.0
 20
0.0
 30
0.0
 70
   128
 71
     7
 72
    -8
 73
     2
  0
SEQEND
  5
13462B
  8
0
  0
POLYLINE
  5
13442C
  8
0
 66
     1
 10
0.0
 20
0.0
 30
0.0
 70
    64
 71
    32
 72
    32
  0
VERTEX
  5
13442D
  8
0
 10
35.0
 20
-20.0
 30
0.0
 70
   192
  0
VERTEX
  5
13442E
  8
0
 10
34.36130209551359
 20
-22.44520838205435
 30
0.0000000000000006
 70
   192
  0
VERTEX
  5
13442F
  8
0
 10
32.44520838205435
 20
-24.36130209551359
 30
0.0000000000000006
 70
   192
  0
VERTEX
  5
134430
  8
0
 10
30.0
 20
-25.0
 30
0.0
 70
   192
  0
VERTEX
  5
134431
  8
0
 10
-30.0
 20
-25.0
 30
0.0
 70
   192
  0
VERTEX
  5
134432
  8
0
 10
-32.44520838205435
 20
-24.36130209551358
 30
0.0000000000000006
 70
   192
  0
VERTEX
  5
134433
  8
0
 10
-34.36130209551359
 20
-22.44520838205434
 30
0.0000000000000006
 70
   192
  0
VERTEX
  5
134434
  8
0
 10
-35.0
 20
-20.0
 30
0.0
 70
   192
  0
VERTEX
  5
134435
  8
0
 10
-35.0
 20
20.0
 30
0.0
 70
   192
  0
VERTEX
  5
134436
  8
0
 10
-34.36130209551359
 20
22.44520838205435
 30
0.0000000000000006
 70
   192
  0
VERTEX
  5
134437
  8
0
 10
-32.44520838205435
 20
24.36130209551359
 30
0.0000000000000006
 70
   192
  0
VERTEX
  5
134438
  8
0
 10
-30.0
 20
25.0
 30
0.0
 70
   192
  0
VERTEX
  5
134439
  8
0
 10
30.0
 20
25.0
 30
0.0
 70
   192
  0
VERTEX
  5
13443A
  8
0
 10
32.44520838205435
 20
24.36130209551358
 30
0.0000000000000006
 70
   192
  0
VERTEX
  5
13443B
  8
0
 10
34.36130209551359
 20
22.44520838205434
 30
0.0000000000000006
 70
   192
  0
VERTEX
  5
13443C
  8
0
 10
35.0
 20
20.0
 30
0.0
 70
   192
  0
VERTEX
  5
13443D
  8
0
 10
34.2
 20
20.0
 30
0.0
 70
   192
  0
VERTEX
  5
13443E
  8
0
 10
33.66349376023141
 20
22.05397504092563
 30
0.0000000000000006
 70
   192
  0
VERTEX
  5
13443F
  8
0
 10
32.05397504092565
 20
23.6634937602314
 30
0.0000000000000006
 70
   192
  0
VERTEX
  5
134440
  8
0
 10
30.0
 20
24.2
 30
0.0
 70
   192
  0
VERTEX
  5
134441
  8
0
 10
-30.0
 20
24.2
 30
0.0
 70
   192
  0
VERTEX
  5
134442
  8
0
 10
-32.05397504092564
 20
23.66349376023142
 30
0.0000000000000006
 70
   192
  0
VERTEX
  5
134443
  8
0
 10
-33.66349376023141
 20
22.05397504092566
 30
0.0000000000000006
 70
   192
  0
VERTEX
  5
134444
  8
0
 10
-34.2
 20
20.0
 30
0.0
 70
   192
  0
VERTEX
  5
134445
  8
0
 10
-34.2
 20
-20.0
 30
0.0
 70
   192
  0
VERTEX
  5
134446
  8
0
 10
-33.66349376023141
 20
-22.05397504092563
 30
0.0000000000000006
 70
   192
  0
VERTEX
  5
134447
  8
0
 10
-32.05397504092565
 20
-23.6634937602314
 30
0.0000000000000006
 70
   192
  0
VERTEX
  5
134448
  8
0
 10
-30.0
 20
-24.2
 30
0.0
 70
   192
  0
VERTEX
  5
134449
  8
0
 10
30.0
 20
-24.2
 30
0.0
 70
   192
  0
VERTEX
  5
13444A
  8
0
 10
32.05397504092564
 20
-23.66349376023142
 30
0.0000000000000006
 70
   192
  0
VERTEX
  5
13444B
  8
0
 10
33.66349376023141
 20
-22.05397504092566
 30
0.0000000000000006
 70
   192
  0
VERTEX
  5
13444C
  8
0
 10
34.2
 20
-20.0
 30
0.0
 70
   192
  0
VERTEX
  5
13444D
  8
0
 10
0.0
 20
0.0
 30
0.0
 70
   128
 71
   -15
 72
    17
 73
   -18
  0
VERTEX
  5
13444E
  8
0
 10
0.0
 20
0.0
 30
0.0
 70
   128
 71
   -19
 72
    14
 73
   -15
  0
VERTEX
  5
13444F
  8
0
 10
0.0
 20
0.0
 30
0.0
 70
   128
 71
    18
 72
   -19
 73
   -15
  0
VERTEX
  5
134450
  8
0
 10
0.0
 20
0.0
 30
0.0
 70
   128
 71
    19
 72
   -20
 73
   -14
  0
VERTEX
  5
134451
  8
0
 10
0.0
 20
0.0
 30
0.0
 70
   128
 71
    13
 72
   -14
 73
   -20
  0
VERTEX
  5
134452
  8
0
 10
0.0
 20
0.0
 30
0.0
 70
   128
 71
   -21
 72
    12
 73
   -13
  0
VERTEX
  5
134453
  8
0
 10
0.0
 20
0.0
 30
0.0
 70
   128
 71
    20
 72
   -21
 73
   -13
  0
VERTEX
  5
134454
  8
0
 10
0.0
 20
0.0
 30
0.0
 70
   128
 71
   -21
 72
    11
 73
   -12
  0
VERTEX
  5
134455
  8
0
 10
0.0
 20
0.0
 30
0.0
 70
   128
 71
    21
 72
   -22
 73
   -11
  0
VERTEX
  5
134456
  8
0
 10
0.0
 20
0.0
 30
0.0
 70
   128
 71
   -23
 72
    10
 73
   -11
  0
VERTEX
  5
134457
  8
0
 10
0.0
 20
0.0
 30
0.0
 70
   128
 71
    22
 72
   -23
 73
   -11
  0
VERTEX
  5
134458
  8
0
 10
0.0
 20
0.0
 30
0.0
 70
   128
 71
    23
 72
   -24
 73
   -10
  0
VERTEX
  5
134459
  8
0
 10
0.0
 20
0.0
 30
0.0
 70
   128
 71
     9
 72
   -10
 73
   -24
  0
VERTEX
  5
13445A
  8
0
 10
0.0
 20
0.0
 30
0.0
 70
   128
 71
   -25
 72
     8
 73
    -9
  0
VERTEX
  5
13445B
  8
0
 10
0.0
 20
0.0
 30
0.0
 70
   128
 71
    24
 72
   -25
 73
    -9
  0
VERTEX
  5
13445C
  8
0
 10
0.0
 20
0.0
 30
0.0
 70
   128
 71
   -25
 72
     7
 73
    -8
  0
VERTEX
  5
13445D
  8
0
 10
0.0
 20
0.0
 30
0.0
 70
   128
 71
    25
 72
   -26
 73
    -7
  0
VERTEX
  5
13445E
  8
0
 10
0.0
 20
0.0
 30
0.0
 70
   128
 71
   -27
 72
     6
 73
    -7
  0
VERTEX
  5
13445F
  8
0
 10
0.0
 20
0.0
 30
0.0
 70
   128
 71
    26
 72
   -27
 73
    -7
  0
VERTEX
  5
134460
  8
0
 10
0.0
 20
0.0
 30
0.0
 70
   128
 71
    27
 72
   -28
 73
    -6
  0
VERTEX
  5
134461
  8
0
 10
0.0
 20
0.0
 30
0.0
 70
   128
 71
     5
 72
    -6
 73
   -28
  0
VERTEX
  5
134462
  8
0
 10
0.0
 20
0.0
 30
0.0
 70
   128
 71
   -29
 72
     4
 73
    -5
  0
VERTEX
  5
134463
  8
0
 10
0.0
 20
0.0
 30
0.0
 70
   128
 71
    28
 72
   -29
 73
    -5
  0
VERTEX
  5
134464
  8
0
 10
0.0
 20
0.0
 30
0.0
 70
   128
 71
   -29
 72
     3
 73
    -4
  0
VERTEX
  5
134465
  8
0
 10
0.0
 20
0.0
 30
0.0
 70
   128
 71
    29
 72
   -30
 73
    -3
  0
VERTEX
  5
134466
  8
0
 10
0.0
 20
0.0
 30
0.0
 70
   128
 71
   -31
 72
     2
 73
    -3
  0
VERTEX
  5
134467
  8
0
 10
0.0
 20
0.0
 30
0.0
 70
   128
 71
    30
 72
   -31
 73
    -3
  0
VERTEX
  5
134468
  8
0
 10
0.0
 20
0.0
 30
0.0
 70
   128
 71
    31
 72
   -32
 73
    -2
  0
VERTEX
  5
134469
  8
0
 10
0.0
 20
0.0
 30
0.0
 70
   128
 71
     1
 72
    -2
 73
   -32
  0
VERTEX
  5
13446A
  8
0
 10
0.0
 20
0.0
 30
0.0
 70
   128
 71
   -17
 72
    16
 73
    -1
  0
VERTEX
  5
13446B
  8
0
 10
0.0
 20
0.0
 30
0.0
 70
   128
 71
    32
 72
   -17
 73
    -1
  0
VERTEX
  5
13446C
  8
0
 10
0.0
 20
0.0
 30
0.0
 70
   128
 71
   -17
 72
    15
 73
   -16
  0
SEQEND
  5
13462C
  8
0
  0
POLYLINE
  5
13446D
  8
0
 66
     1
 10
0.0
 20
0.0
 30
0.0
 70
    64
 71
     4
 72
     2
  0
VERTEX
  5
13446E
  8
0
 10
34.2
 20
-20.0
 30
9.200000000000001
 70
   192
  0
VERTEX
  5
13446F
  8
0
 10
34.2
 20
20.0
 30
9.200000000000001
 70
   192
  0
VERTEX
  5
134470
  8
0
 10
34.2
 20
20.0
 30
0.0
 70
   192
  0
VERTEX
  5
134471
  8
0
 10
34.2
 20
-20.0
 30
0.0
 70
   192
  0
VERTEX
  5
134472
  8
0
 10
0.0
 20
0.0
 30
0.0
 70
   128
 71
     3
 72
     4
 73
    -1
  0
VERTEX
  5
134473
  8
0
 10
0.0
 20
0.0
 30
0.0
 70
   128
 71
     2
 72
    -3
 73
     1
  0
SEQEND
  5
13462D
  8
0
  0
POLYLINE
  5
134474
  8
0
 66
     1
 10
0.0
 20
0.0
 30
0.0
 70
    64
 71
     8
 72
     6
  0
VERTEX
  5
134475
  8
0
 10
34.2
 20
-20.0
 30
0.0
 70
   192
  0
VERTEX
  5
134476
  8
0
 10
33.66349376023141
 20
-22.05397504092566
 30
0.0000000000000006
 70
   192
  0
VERTEX
  5
134477
  8
0
 10
32.05397504092564
 20
-23.66349376023142
 30
0.0000000000000006
 70
   192
  0
VERTEX
  5
134478
  8
0
 10
30.0
 20
-24.2
 30
0.0
 70
   192
  0
VERTEX
  5
134479
  8
0
 10
30.0
 20
-24.2
 30
9.200000000000001
 70
   192
  0
VERTEX
  5
13447A
  8
0
 10
32.05397504092565
 20
-23.66349376023141
 30
9.200000000000001
 70
   192
  0
VERTEX
  5
13447B
  8
0
 10
33.66349376023141
 20
-22.05397504092565
 30
9.2
 70
   192
  0
VERTEX
  5
13447C
  8
0
 10
34.2
 20
-20.0
 30
9.200000000000001
 70
   192
  0
VERTEX
  5
13447D
  8
0
 10
0.0
 20
0.0
 30
0.0
 70
   128
 71
     4
 72
     5
 73
    -6
  0
VERTEX
  5
13447E
  8
0
 10
0.0
 20
0.0
 30
0.0
 70
   128
 71
     3
 72
    -4
 73
     6
  0
VERTEX
  5
13447F
  8
0
 10
0.0
 20
0.0
 30
0.0
 70
   128
 71
     7
 72
     2
 73
    -3
  0
VERTEX
  5
134480
  8
0
 10
0.0
 20
0.0
 30
0.0
 70
   128
 71
     6
 72
    -7
 73
     3
  0
VERTEX
  5
134481
  8
0
 10
0.0
 20
0.0
 30
0.0
 70
   128
 71
     8
 72
     1
 73
    -2
  0
VERTEX
  5
134482
  8
0
 10
0.0
 20
0.0
 30
0.0
 70
   128
 71
     7
 72
    -8
 73
     2
  0
SEQEND
  5
13462E
  8
0
  0
POLYLINE
  5
134483
  8
0
 66
     1
 10
0.0
 20
0.0
 30
0.0
 70
    64
 71
    28
 72
    28
  0
VERTEX
  5
134484
  8
0
 10
34.2
 20
-20.0
 30
9.200000000000001
 70
   192
  0
VERTEX
  5
134485
  8
0
 10
33.66349376023141
 20
-22.05397504092565
 30
9.2
 70
   192
  0
VERTEX
  5
134486
  8
0
 10
32.05397504092565
 20
-23.66349376023141
 30
9.200000000000001
 70
   192
  0
VERTEX
  5
134487
  8
0
 10
30.0
 20
-24.2
 30
9.200000000000001
 70
   192
  0
VERTEX
  5
134488
  8
0
 10
-30.0
 20
-24.2
 30
9.2
 70
   192
  0
VERTEX
  5
134489
  8
0
 10
-32.05397504092564
 20
-23.66349376023141
 30
9.2
 70
   192
  0
VERTEX
  5
13448A
  8
0
 10
-33.66349376023141
 20
-22.05397504092565
 30
9.2
 70
   192
  0
VERTEX
  5
13448B
  8
0
 10
-34.2
 20
-20.0
 30
9.2
 70
   192
  0
VERTEX
  5
13448C
  8
0
 10
-34.2
 20
20.0
 30
9.2
 70
   192
  0
VERTEX
  5
13448D
  8
0
 10
-33.66349376023141
 20
22.05397504092565
 30
9.2
 70
   192
  0
VERTEX
  5
13448E
  8
0
 10
-32.05397504092565
 20
23.66349376023141
 30
9.200000000000001
 70
   192
  0
VERTEX
  5
13448F
  8
0
 10
-30.0
 20
24.2
 30
9.2
 70
   192
  0
VERTEX
  5
134490
  8
0
 10
30.0
 20
24.2
 30
9.200000000000001
 70
   192
  0
VERTEX
  5
134491
  8
0
 10
32.05397504092564
 20
23.66349376023141
 30
9.2
 70
   192
  0
VERTEX
  5
134492
  8
0
 10
33.66349376023141
 20
22.05397504092565
 30
9.200000000000001
 70
   192
  0
VERTEX
  5
134493
  8
0
 10
34.2
 20
20.0
 30
9.200000000000001
 70
   192
  0
VERTEX
  5
134494
  8
0
 10
-18.68270233517
 20
-7.999999999999998
 30
9.2
 70
   192
  0
VERTEX
  5
134495
  8
0
 10
-17.8
 20
-7.999999999999998
 30
9.2
 70
   192
  0
VERTEX
  5
134496
  8
0
 10
-17.8
 20
-8.882702335169999
 30
9.2
 70
   192
  0
VERTEX
  5
134497
  8
0
 10
17.8
 20
-8.882702335170002
 30
9.2
 70
   192
  0
VERTEX
  5
134498
  8
0
 10
17.8
 20
-8.000000000000002
 30
9.2
 70
   192
  0
VERTEX
  5
134499
  8
0
 10
18.68270233517
 20
-8.000000000000002
 30
9.2
 70
   192
  0
VERTEX
  5
13449A
  8
0
 10
18.68270233517
 20
7.999999999999998
 30
9.2
 70
   192
  0
VERTEX
  5
13449B
  8
0
 10
17.8
 20
7.999999999999998
 30
9.2
 70
   192
  0
VERTEX
  5
13449C
  8
0
 10
17.8
 20
8.882702335169999
 30
9.2
 70
   192
  0
VERTEX
  5
13449D
  8
0
 10
-17.8
 20
8.882702335170002
 30
9.2
 70
   192
  0
VERTEX
  5
13449E
  8
0
 10
-17.8
 20
8.000000000000002
 30
9.2
 70
   192
  0
VERTEX
  5
13449F
  8
0
 10
-18.68270233517
 20
8.000000000000002
 30
9.2
 70
   192
  0
VERTEX
  5
1344A0
  8
0
 10
0.0
 20
0.0
 30
0.0
 70
   128
 71
    17
 72
    18
 73
   -19
  0
VERTEX
  5
1344A1
  8
0
 10
0.0
 20
0.0
 30
0.0
 70
   128
 71
    -5
 72
   -17
 73
   -19
  0
VERTEX
  5
1344A2
  8
0
 10
0.0
 20
0.0
 30
0.0
 70
   128
 71
   -20
 72
     4
 73
    -5
  0
VERTEX
  5
1344A3
  8
0
 10
0.0
 20
0.0
 30
0.0
 70
   128
 71
    19
 72
   -20
 73
    -5
  0
VERTEX
  5
1344A4
  8
0
 10
0.0
 20
0.0
 30
0.0
 70
   128
 71
   -20
 72
   -22
 73
    -4
  0
VERTEX
  5
1344A5
  8
0
 10
0.0
 20
0.0
 30
0.0
 70
   128
 71
    20
 72
    21
 73
   -22
  0
VERTEX
  5
1344A6
  8
0
 10
0.0
 20
0.0
 30
0.0
 70
   128
 71
     2
 72
     3
 73
    -4
  0
VERTEX
  5
1344A7
  8
0
 10
0.0
 20
0.0
 30
0.0
 70
   128
 71
     1
 72
    -2
 73
    -4
  0
VERTEX
  5
1344A8
  8
0
 10
0.0
 20
0.0
 30
0.0
 70
   128
 71
    16
 72
    -1
 73
    -4
  0
VERTEX
  5
1344A9
  8
0
 10
0.0
 20
0.0
 30
0.0
 70
   128
 71
   -23
 72
   -16
 73
    -4
  0
VERTEX
  5
1344AA
  8
0
 10
0.0
 20
0.0
 30
0.0
 70
   128
 71
    22
 72
   -23
 73
    -4
  0
VERTEX
  5
1344AB
  8
0
 10
0.0
 20
0.0
 30
0.0
 70
   128
 71
   -23
 72
   -25
 73
   -16
  0
VERTEX
  5
1344AC
  8
0
 10
0.0
 20
0.0
 30
0.0
 70
   128
 71
    23
 72
    24
 73
   -25
  0
VERTEX
  5
1344AD
  8
0
 10
0.0
 20
0.0
 30
0.0
 70
   128
 71
    14
 72
    15
 73
   -16
  0
VERTEX
  5
1344AE
  8
0
 10
0.0
 20
0.0
 30
0.0
 70
   128
 71
    13
 72
   -14
 73
   -16
  0
VERTEX
  5
1344AF
  8
0
 10
0.0
 20
0.0
 30
0.0
 70
   128
 71
    12
 72
   -13
 73
   -16
  0
VERTEX
  5
1344B0
  8
0
 10
0.0
 20
0.0
 30
0.0
 70
   128
 71
   -26
 72
   -12
 73
   -16
  0
VERTEX
  5
1344B1
  8
0
 10
0.0
 20
0.0
 30
0.0
 70
   128
 71
    25
 72
   -26
 73
   -16
  0
VERTEX
  5
1344B2
  8
0
 10
0.0
 20
0.0
 30
0.0
 70
   128
 71
   -26
 72
   -28
 73
   -12
  0
VERTEX
  5
1344B3
  8
0
 10
0.0
 20
0.0
 30
0.0
 70
   128
 71
    26
 72
    27
 73
   -28
  0
VERTEX
  5
1344B4
  8
0
 10
0.0
 20
0.0
 30
0.0
 70
   128
 71
    10
 72
    11
 73
   -12
  0
VERTEX
  5
1344B5
  8
0
 10
0.0
 20
0.0
 30
0.0
 70
   128
 71
     9
 72
   -10
 73
   -12
  0
VERTEX
  5
1344B6
  8
0
 10
0.0
 20
0.0
 30
0.0
 70
   128
 71
     8
 72
    -9
 73
   -12
  0
VERTEX
  5
1344B7
  8
0
 10
0.0
 20
0.0
 30
0.0
 70
   128
 71
     7
 72
    -8
 73
   -12
  0
VERTEX
  5
1344B8
  8
0
 10
0.0
 20
0.0
 30
0.0
 70
   128
 71
     6
 72
    -7
 73
   -12
  0
VERTEX
  5
1344B9
  8
0
 10
0.0
 20
0.0
 30
0.0
 70
   128
 71
     5
 72
    -6
 73
   -12
  0
VERTEX
  5
1344BA
  8
0
 10
0.0
 20
0.0
 30
0.0
 70
   128
 71
   -17
 72
    -5
 73
   -12
  0
VERTEX
  5
1344BB
  8
0
 10
0.0
 20
0.0
 30
0.0
 70
   128
 71
    28
 72
   -17
 73
   -12
  0
SEQEND
  5
13462F
  8
0
  0
POLYLINE
  5
1344BC
  8
0
 66
     1
 10
0.0
 20
0.0
 30
0.0
 70
    64
 71
     8
 72
     6
  0
VERTEX
  5
1344BD
  8
0
 10
30.0
 20
24.2
 30
0.0
 70
   192
  0
VERTEX
  5
1344BE
  8
0
 10
32.05397504092565
 20
23.6634937602314
 30
0.0000000000000006
 70
   192
  0
VERTEX
  5
1344BF
  8
0
 10
33.66349376023141
 20
22.05397504092563
 30
0.0000000000000006
 70
   192
  0
VERTEX
  5
1344C0
  8
0
 10
34.2
 20
20.0
 30
0.0
 70
   192
  0
VERTEX
  5
1344C1
  8
0
 10
34.2
 20
20.0
 30
9.200000000000001
 70
   192
  0
VERTEX
  5
1344C2
  8
0
 10
33.66349376023141
 20
22.05397504092565
 30
9.200000000000001
 70
   192
  0
VERTEX
  5
1344C3
  8
0
 10
32.05397504092564
 20
23.66349376023141
 30
9.2
 70
   192
  0
VERTEX
  5
1344C4
  8
0
 10
30.0
 20
24.2
 30
9.200000000000001
 70
   192
  0
VERTEX
  5
1344C5
  8
0
 10
0.0
 20
0.0
 30
0.0
 70
   128
 71
     4
 72
     5
 73
    -6
  0
VERTEX
  5
1344C6
  8
0
 10
0.0
 20
0.0
 30
0.0
 70
   128
 71
     3
 72
    -4
 73
     6
  0
VERTEX
  5
1344C7
  8
0
 10
0.0
 20
0.0
 30
0.0
 70
   128
 71
     7
 72
     2
 73
    -3
  0
VERTEX
  5
1344C8
  8
0
 10
0.0
 20
0.0
 30
0.0
 70
   128
 71
     6
 72
    -7
 73
     3
  0
VERTEX
  5
1344C9
  8
0
 10
0.0
 20
0.0
 30
0.0
 70
   128
 71
     8
 72
     1
 73
    -2
  0
VERTEX
  5
1344CA
  8
0
 10
0.0
 20
0.0
 30
0.0
 70
   128
 71
     7
 72
    -8
 73
     2
  0
SEQEND
  5
134630
  8
0
  0
POLYLINE
  5
1344CB
  8
0
 66
     1
 10
0.0
 20
0.0
 30
0.0
 70
    64
 71
     4
 72
     2
  0
VERTEX
  5
1344CC
  8
0
 10
-30.0
 20
24.2
 30
0.0
 70
   192
  0
VERTEX
  5
1344CD
  8
0
 10
30.0
 20
24.2
 30
0.0
 70
   192
  0
VERTEX
  5
1344CE
  8
0
 10
30.0
 20
24.2
 30
9.200000000000001
 70
   192
  0
VERTEX
  5
1344CF
  8
0
 10
-30.0
 20
24.2
 30
9.2
 70
   192
  0
VERTEX
  5
1344D0
  8
0
 10
0.0
 20
0.0
 30
0.0
 70
   128
 71
     3
 72
     4
 73
    -1
  0
VERTEX
  5
1344D1
  8
0
 10
0.0
 20
0.0
 30
0.0
 70
   128
 71
     2
 72
    -3
 73
     1
  0
SEQEND
  5
134631
  8
0
  0
POLYLINE
  5
1344D2
  8
0
 66
     1
 10
0.0
 20
0.0
 30
0.0
 70
    64
 71
     8
 72
     6
  0
VERTEX
  5
1344D3
  8
0
 10
-34.2
 20
20.0
 30
0.0
 70
   192
  0
VERTEX
  5
1344D4
  8
0
 10
-33.66349376023141
 20
22.05397504092566
 30
0.0000000000000006
 70
   192
  0
VERTEX
  5
1344D5
  8
0
 10
-32.05397504092564
 20
23.66349376023142
 30
0.0000000000000006
 70
   192
  0
VERTEX
  5
1344D6
  8
0
 10
-30.0
 20
24.2
 30
0.0
 70
   192
  0
VERTEX
  5
1344D7
  8
0
 10
-30.0
 20
24.2
 30
9.2
 70
   192
  0
VERTEX
  5
1344D8
  8
0
 10
-32.05397504092565
 20
23.66349376023141
 30
9.200000000000001
 70
   192
  0
VERTEX
  5
1344D9
  8
0
 10
-33.66349376023141
 20
22.05397504092565
 30
9.2
 70
   192
  0
VERTEX
  5
1344DA
  8
0
 10
-34.2
 20
20.0
 30
9.2
 70
   192
  0
VERTEX
  5
1344DB
  8
0
 10
0.0
 20
0.0
 30
0.0
 70
   128
 71
     4
 72
     5
 73
    -6
  0
VERTEX
  5
1344DC
  8
0
 10
0.0
 20
0.0
 30
0.0
 70
   128
 71
     3
 72
    -4
 73
     6
  0
VERTEX
  5
1344DD
  8
0
 10
0.0
 20
0.0
 30
0.0
 70
   128
 71
     7
 72
     2
 73
    -3
  0
VERTEX
  5
1344DE
  8
0
 10
0.0
 20
0.0
 30
0.0
 70
   128
 71
     6
 72
    -7
 73
     3
  0
VERTEX
  5
1344DF
  8
0
 10
0.0
 20
0.0
 30
0.0
 70
   128
 71
     8
 72
     1
 73
    -2
  0
VERTEX
  5
1344E0
  8
0
 10
0.0
 20
0.0
 30
0.0
 70
   128
 71
     7
 72
    -8
 73
     2
  0
SEQEND
  5
134632
  8
0
  0
POLYLINE
  5
1344E1
  8
0
 66
     1
 10
0.0
 20
0.0
 30
0.0
 70
    64
 71
     4
 72
     2
  0
VERTEX
  5
1344E2
  8
0
 10
-34.2
 20
-20.0
 30
0.0
 70
   192
  0
VERTEX
  5
1344E3
  8
0
 10
-34.2
 20
20.0
 30
0.0
 70
   192
  0
VERTEX
  5
1344E4
  8
0
 10
-34.2
 20
20.0
 30
9.2
 70
   192
  0
VERTEX
  5
1344E5
  8
0
 10
-34.2
 20
-20.0
 30
9.2
 70
   192
  0
VERTEX
  5
1344E6
  8
0
 10
0.0
 20
0.0
 30
0.0
 70
   128
 71
     3
 72
     4
 73
    -1
  0
VERTEX
  5
1344E7
  8
0
 10
0.0
 20
0.0
 30
0.0
 70
   128
 71
     2
 72
    -3
 73
     1
  0
SEQEND
  5
134633
  8
0
  0
POLYLINE
  5
1344E8
  8
0
 66
     1
 10
0.0
 20
0.0
 30
0.0
 70
    64
 71
     8
 72
     6
  0
VERTEX
  5
1344E9
  8
0
 10
-30.0
 20
-24.2
 30
0.0
 70
   192
  0
VERTEX
  5
1344EA
  8
0
 10
-32.05397504092565
 20
-23.6634937602314
 30
0.0000000000000006
 70
   192
  0
VERTEX
  5
1344EB
  8
0
 10
-33.66349376023141
 20
-22.05397504092563
 30
0.0000000000000006
 70
   192
  0
VERTEX
  5
1344EC
  8
0
 10
-34.2
 20
-20.0
 30
0.0
 70
   192
  0
VERTEX
  5
1344ED
  8
0
 10
-34.2
 20
-20.0
 30
9.2
 70
   192
  0
VERTEX
  5
1344EE
  8
0
 10
-33.66349376023141
 20
-22.05397504092565
 30
9.2
 70
   192
  0
VERTEX
  5
1344EF
  8
0
 10
-32.05397504092564
 20
-23.66349376023141
 30
9.2
 70
   192
  0
VERTEX
  5
1344F0
  8
0
 10
-30.0
 20
-24.2
 30
9.2
 70
   192
  0
VERTEX
  5
1344F1
  8
0
 10
0.0
 20
0.0
 30
0.0
 70
   128
 71
     4
 72
     5
 73
    -6
  0
VERTEX
  5
1344F2
  8
0
 10
0.0
 20
0.0
 30
0.0
 70
   128
 71
     3
 72
    -4
 73
     6
  0
VERTEX
  5
1344F3
  8
0
 10
0.0
 20
0.0
 30
0.0
 70
   128
 71
     7
 72
     2
 73
    -3
  0
VERTEX
  5
1344F4
  8
0
 10
0.0
 20
0.0
 30
0.0
 70
   128
 71
     6
 72
    -7
 73
     3
  0
VERTEX
  5
1344F5
  8
0
 10
0.0
 20
0.0
 30
0.0
 70
   128
 71
     8
 72
     1
 73
    -2
  0
VERTEX
  5
1344F6
  8
0
 10
0.0
 20
0.0
 30
0.0
 70
   128
 71
     7
 72
    -8
 73
     2
  0
SEQEND
  5
134634
  8
0
  0
POLYLINE
  5
1344F7
  8
0
 66
     1
 10
0.0
 20
0.0
 30
0.0
 70
    64
 71
     4
 72
     2
  0
VERTEX
  5
1344F8
  8
0
 10
30.0
 20
-24.2
 30
0.0
 70
   192
  0
VERTEX
  5
1344F9
  8
0
 10
-30.0
 20
-24.2
 30
0.0
 70
   192
  0
VERTEX
  5
1344FA
  8
0
 10
-30.0
 20
-24.2
 30
9.2
 70
   192
  0
VERTEX
  5
1344FB
  8
0
 10
30.0
 20
-24.2
 30
9.200000000000001
 70
   192
  0
VERTEX
  5
1344FC
  8
0
 10
0.0
 20
0.0
 30
0.0
 70
   128
 71
     3
 72
     4
 73
    -1
  0
VERTEX
  5
1344FD
  8
0
 10
0.0
 20
0.0
 30
0.0
 70
   128
 71
     2
 72
    -3
 73
     1
  0
SEQEND
  5
134635
  8
0
  0
POLYLINE
  5
1344FE
  8
0
 66
     1
 10
0.0
 20
0.0
 30
0.0
 70
    64
 71
     4
 72
     2
  0
VERTEX
  5
1344FF
  8
0
 10
-20.39027686225
 20
-5.580303905273998
 30
5.538094609393001
 70
   192
  0
VERTEX
  5
134500
  8
0
 10
-18.68270233517
 20
-7.999999999999998
 30
9.2
 70
   192
  0
VERTEX
  5
134501
  8
0
 10
-18.68270233517
 20
8.000000000000002
 30
9.2
 70
   192
  0
VERTEX
  5
134502
  8
0
 10
-20.39027686225
 20
5.580303905274001
 30
5.538094609393001
 70
   192
  0
VERTEX
  5
134503
  8
0
 10
0.0
 20
0.0
 30
0.0
 70
   128
 71
     3
 72
     4
 73
    -1
  0
VERTEX
  5
134504
  8
0
 10
0.0
 20
0.0
 30
0.0
 70
   128
 71
     2
 72
    -3
 73
     1
  0
SEQEND
  5
134636
  8
0
  0
POLYLINE
  5
134505
  8
0
 66
     1
 10
0.0
 20
0.0
 30
0.0
 70
    64
 71
     4
 72
     2
  0
VERTEX
  5
134506
  8
0
 10
-20.39027686225
 20
-5.580303905273998
 30
5.538094609393001
 70
   192
  0
VERTEX
  5
134507
  8
0
 10
-19.66523063262
 20
-5.356899388026998
 30
5.2
 70
   192
  0
VERTEX
  5
134508
  8
0
 10
-17.8
 20
-7.999999999999998
 30
9.2
 70
   192
  0
VERTEX
  5
134509
  8
0
 10
-18.68270233517
 20
-7.999999999999998
 30
9.2
 70
   192
  0
VERTEX
  5
13450A
  8
0
 10
0.0
 20
0.0
 30
0.0
 70
   128
 71
     3
 72
     4
 73
    -1
  0
VERTEX
  5
13450B
  8
0
 10
0.0
 20
0.0
 30
0.0
 70
   128
 71
     2
 72
    -3
 73
     1
  0
SEQEND
  5
134637
  8
0
  0
POLYLINE
  5
13450C
  8
0
 66
     1
 10
0.0
 20
0.0
 30
0.0
 70
    64
 71
     4
 72
     2
  0
VERTEX
  5
13450D
  8
0
 10
18.68270233517
 20
-8.000000000000002
 30
9.2
 70
   192
  0
VERTEX
  5
13450E
  8
0
 10
17.8
 20
-8.000000000000002
 30
9.2
 70
   192
  0
VERTEX
  5
13450F
  8
0
 10
19.66523063262
 20
-5.356899388027002
 30
5.2
 70
   192
  0
VERTEX
  5
134510
  8
0
 10
20.39027686225
 20
-5.580303905274001
 30
5.538094609393001
 70
   192
  0
VERTEX
  5
134511
  8
0
 10
0.0
 20
0.0
 30
0.0
 70
   128
 71
     3
 72
     4
 73
    -1
  0
VERTEX
  5
134512
  8
0
 10
0.0
 20
0.0
 30
0.0
 70
   128
 71
     2
 72
    -3
 73
     1
  0
SEQEND
  5
134638
  8
0
  0
POLYLINE
  5
134513
  8
0
 66
     1
 10
0.0
 20
0.0
 30
0.0
 70
    64
 71
     4
 72
     2
  0
VERTEX
  5
134514
  8
0
 10
-17.8
 20
-7.999999999999998
 30
9.2
 70
   192
  0
VERTEX
  5
134515
  8
0
 10
-19.66523063262
 20
-5.356899388026998
 30
5.2
 70
   192
  0
VERTEX
  5
134516
  8
0
 10
-19.66523063262
 20
5.356899388027002
 30
5.2
 70
   192
  0
VERTEX
  5
134517
  8
0
 10
-17.8
 20
8.000000000000002
 30
9.2
 70
   192
  0
VERTEX
  5
134518
  8
0
 10
0.0
 20
0.0
 30
0.0
 70
   128
 71
     3
 72
     4
 73
    -1
  0
VERTEX
  5
134519
  8
0
 10
0.0
 20
0.0
 30
0.0
 70
   128
 71
     2
 72
    -3
 73
     1
  0
SEQEND
  5
134639
  8
0
  0
POLYLINE
  5
13451A
  8
0
 66
     1
 10
0.0
 20
0.0
 30
0.0
 70
    64
 71
     8
 72
     6
  0
VERTEX
  5
13451B
  8
0
 10
-18.60535160877563
 20
-8.805644465239807
 30
9.906505227773637
 70
   192
  0
VERTEX
  5
13451C
  8
0
 10
-18.60530753281933
 20
8.805626367476574
 30
9.906486230367578
 70
   192
  0
VERTEX
  5
13451D
  8
0
 10
-19.12664991614
 20
-9.326649916141998
 30
10.0
 70
   192
  0
VERTEX
  5
13451E
  8
0
 10
-19.12664991614
 20
9.326649916142001
 30
10.0
 70
   192
  0
VERTEX
  5
13451F
  8
0
 10
-18.16464077066623
 20
-8.364735937409959
 30
9.650885795929916
 70
   192
  0
VERTEX
  5
134520
  8
0
 10
-18.16462106288491
 20
8.364709359802243
 30
9.650868306448853
 70
   192
  0
VERTEX
  5
134521
  8
0
 10
-17.8
 20
-7.999999999999998
 30
9.2
 70
   192
  0
VERTEX
  5
134522
  8
0
 10
-17.8
 20
8.000000000000002
 30
9.2
 70
   192
  0
VERTEX
  5
134523
  8
0
 10
0.0
 20
0.0
 30
0.0
 70
   128
 71
     1
 72
     2
 73
     3
  0
VERTEX
  5
134524
  8
0
 10
0.0
 20
0.0
 30
0.0
 70
   128
 71
     4
 72
     3
 73
     2
  0
VERTEX
  5
134525
  8
0
 10
0.0
 20
0.0
 30
0.0
 70
   128
 71
     1
 72
     5
 73
     6
  0
VERTEX
  5
134526
  8
0
 10
0.0
 20
0.0
 30
0.0
 70
   128
 71
     2
 72
     1
 73
     6
  0
VERTEX
  5
134527
  8
0
 10
0.0
 20
0.0
 30
0.0
 70
   128
 71
     5
 72
     7
 73
     8
  0
VERTEX
  5
134528
  8
0
 10
0.0
 20
0.0
 30
0.0
 70
   128
 71
     6
 72
     5
 73
     8
  0
SEQEND
  5
13463A
  8
0
  0
POLYLINE
  5
134529
  8
0
 66
     1
 10
0.0
 20
0.0
 30
0.0
 70
    64
 71
     8
 72
     6
  0
VERTEX
  5
13452A
  8
0
 10
19.12664991614
 20
-9.326649916142001
 30
10.0
 70
   192
  0
VERTEX
  5
13452B
  8
0
 10
18.60564446540547
 20
-8.805351608957341
 30
9.906505227840107
 70
   192
  0
VERTEX
  5
13452C
  8
0
 10
18.164735937299
 20
-8.364640770554272
 30
9.650885795834673
 70
   192
  0
VERTEX
  5
13452D
  8
0
 10
17.8
 20
-8.000000000000002
 30
9.2
 70
   192
  0
VERTEX
  5
13452E
  8
0
 10
-17.8
 20
-7.999999999999998
 30
9.2
 70
   192
  0
VERTEX
  5
13452F
  8
0
 10
-18.16464077066623
 20
-8.364735937409959
 30
9.650885795929916
 70
   192
  0
VERTEX
  5
134530
  8
0
 10
-18.60535160877563
 20
-8.805644465239807
 30
9.906505227773637
 70
   192
  0
VERTEX
  5
134531
  8
0
 10
-19.12664991614
 20
-9.326649916141998
 30
10.0
 70
   192
  0
VERTEX
  5
134532
  8
0
 10
0.0
 20
0.0
 30
0.0
 70
   128
 71
     6
 72
     1
 73
     2
  0
VERTEX
  5
134533
  8
0
 10
0.0
 20
0.0
 30
0.0
 70
   128
 71
     2
 72
     3
 73
     6
  0
VERTEX
  5
134534
  8
0
 10
0.0
 20
0.0
 30
0.0
 70
   128
 71
     4
 72
     5
 73
     6
  0
VERTEX
  5
134535
  8
0
 10
0.0
 20
0.0
 30
0.0
 70
   128
 71
     3
 72
     4
 73
     6
  0
VERTEX
  5
134536
  8
0
 10
0.0
 20
0.0
 30
0.0
 70
   128
 71
     6
 72
     7
 73
     1
  0
VERTEX
  5
134537
  8
0
 10
0.0
 20
0.0
 30
0.0
 70
   128
 71
     7
 72
     8
 73
     1
  0
SEQEND
  5
13463B
  8
0
  0
POLYLINE
  5
134538
  8
0
 66
     1
 10
0.0
 20
0.0
 30
0.0
 70
    64
 71
     8
 72
     6
  0
VERTEX
  5
134539
  8
0
 10
17.8
 20
7.999999999999998
 30
9.2
 70
   192
  0
VERTEX
  5
13453A
  8
0
 10
17.8
 20
-8.000000000000002
 30
9.2
 70
   192
  0
VERTEX
  5
13453B
  8
0
 10
18.164735937299
 20
-8.364640770554272
 30
9.650885795834673
 70
   192
  0
VERTEX
  5
13453C
  8
0
 10
18.60564446540547
 20
-8.805351608957341
 30
9.906505227840107
 70
   192
  0
VERTEX
  5
13453D
  8
0
 10
19.12664991614
 20
-9.326649916142001
 30
10.0
 70
   192
  0
VERTEX
  5
13453E
  8
0
 10
19.12664991614
 20
9.326649916141998
 30
10.0
 70
   192
  0
VERTEX
  5
13453F
  8
0
 10
18.60535160868587
 20
8.805644465157881
 30
9.906505227740437
 70
   192
  0
VERTEX
  5
134540
  8
0
 10
18.16464077068082
 20
8.364735937418633
 30
9.650885795942129
 70
   192
  0
VERTEX
  5
134541
  8
0
 10
0.0
 20
0.0
 30
0.0
 70
   128
 71
     5
 72
     6
 73
     7
  0
VERTEX
  5
134542
  8
0
 10
0.0
 20
0.0
 30
0.0
 70
   128
 71
     7
 72
     8
 73
     5
  0
VERTEX
  5
134543
  8
0
 10
0.0
 20
0.0
 30
0.0
 70
   128
 71
     1
 72
     2
 73
     3
  0
VERTEX
  5
134544
  8
0
 10
0.0
 20
0.0
 30
0.0
 70
   128
 71
     8
 72
     1
 73
     3
  0
VERTEX
  5
134545
  8
0
 10
0.0
 20
0.0
 30
0.0
 70
   128
 71
     3
 72
     4
 73
     8
  0
VERTEX
  5
134546
  8
0
 10
0.0
 20
0.0
 30
0.0
 70
   128
 71
     4
 72
     5
 73
     8
  0
SEQEND
  5
13463C
  8
0
  0
POLYLINE
  5
134547
  8
0
 66
     1
 10
0.0
 20
0.0
 30
0.0
 70
    64
 71
     4
 72
     2
  0
VERTEX
  5
134548
  8
0
 10
17.8
 20
-8.000000000000002
 30
9.2
 70
   192
  0
VERTEX
  5
134549
  8
0
 10
17.8
 20
7.999999999999998
 30
9.2
 70
   192
  0
VERTEX
  5
13454A
  8
0
 10
19.66523063262
 20
5.356899388026998
 30
5.2
 70
   192
  0
VERTEX
  5
13454B
  8
0
 10
19.66523063262
 20
-5.356899388027002
 30
5.2
 70
   192
  0
VERTEX
  5
13454C
  8
0
 10
0.0
 20
0.0
 30
0.0
 70
   128
 71
     3
 72
     4
 73
    -1
  0
VERTEX
  5
13454D
  8
0
 10
0.0
 20
0.0
 30
0.0
 70
   128
 71
     2
 72
    -3
 73
     1
  0
SEQEND
  5
13463D
  8
0
  0
POLYLINE
  5
13454E
  8
0
 66
     1
 10
0.0
 20
0.0
 30
0.0
 70
    64
 71
     4
 72
     2
  0
VERTEX
  5
13454F
  8
0
 10
19.66523063262
 20
-5.356899388027002
 30
5.2
 70
   192
  0
VERTEX
  5
134550
  8
0
 10
19.66523063262
 20
5.356899388026998
 30
5.2
 70
   192
  0
VERTEX
  5
134551
  8
0
 10
20.39027686225
 20
5.580303905273998
 30
5.538094609393001
 70
   192
  0
VERTEX
  5
134552
  8
0
 10
20.39027686225
 20
-5.580303905274001
 30
5.538094609393001
 70
   192
  0
VERTEX
  5
134553
  8
0
 10
0.0
 20
0.0
 30
0.0
 70
   128
 71
     3
 72
     4
 73
    -1
  0
VERTEX
  5
134554
  8
0
 10
0.0
 20
0.0
 30
0.0
 70
   128
 71
     2
 72
    -3
 73
     1
  0
SEQEND
  5
13463E
  8
0
  0
POLYLINE
  5
134555
  8
0
 66
     1
 10
0.0
 20
0.0
 30
0.0
 70
    64
 71
     4
 72
     2
  0
VERTEX
  5
134556
  8
0
 10
20.39027686225
 20
-5.580303905274001
 30
5.538094609393001
 70
   192
  0
VERTEX
  5
134557
  8
0
 10
20.39027686225
 20
5.580303905273998
 30
5.538094609393001
 70
   192
  0
VERTEX
  5
134558
  8
0
 10
18.68270233517
 20
7.999999999999998
 30
9.2
 70
   192
  0
VERTEX
  5
134559
  8
0
 10
18.68270233517
 20
-8.000000000000002
 30
9.2
 70
   192
  0
VERTEX
  5
13455A
  8
0
 10
0.0
 20
0.0
 30
0.0
 70
   128
 71
     3
 72
     4
 73
    -1
  0
VERTEX
  5
13455B
  8
0
 10
0.0
 20
0.0
 30
0.0
 70
   128
 71
     2
 72
    -3
 73
     1
  0
SEQEND
  5
13463F
  8
0
  0
POLYLINE
  5
13455C
  8
0
 66
     1
 10
0.0
 20
0.0
 30
0.0
 70
    64
 71
     4
 72
     2
  0
VERTEX
  5
13455D
  8
0
 10
-18.68270233517
 20
8.000000000000002
 30
9.2
 70
   192
  0
VERTEX
  5
13455E
  8
0
 10
-17.8
 20
8.000000000000002
 30
9.2
 70
   192
  0
VERTEX
  5
13455F
  8
0
 10
-19.66523063262
 20
5.356899388027002
 30
5.2
 70
   192
  0
VERTEX
  5
134560
  8
0
 10
-20.39027686225
 20
5.580303905274001
 30
5.538094609393001
 70
   192
  0
VERTEX
  5
134561
  8
0
 10
0.0
 20
0.0
 30
0.0
 70
   128
 71
     3
 72
     4
 73
    -1
  0
VERTEX
  5
134562
  8
0
 10
0.0
 20
0.0
 30
0.0
 70
   128
 71
     2
 72
    -3
 73
     1
  0
SEQEND
  5
134640
  8
0
  0
POLYLINE
  5
134563
  8
0
 66
     1
 10
0.0
 20
0.0
 30
0.0
 70
    64
 71
     4
 72
     2
  0
VERTEX
  5
134564
  8
0
 10
17.8
 20
7.999999999999998
 30
9.2
 70
   192
  0
VERTEX
  5
134565
  8
0
 10
18.68270233517
 20
7.999999999999998
 30
9.2
 70
   192
  0
VERTEX
  5
134566
  8
0
 10
20.39027686225
 20
5.580303905273998
 30
5.538094609393001
 70
   192
  0
VERTEX
  5
134567
  8
0
 10
19.66523063262
 20
5.356899388026998
 30
5.2
 70
   192
  0
VERTEX
  5
134568
  8
0
 10
0.0
 20
0.0
 30
0.0
 70
   128
 71
     3
 72
     4
 73
    -1
  0
VERTEX
  5
134569
  8
0
 10
0.0
 20
0.0
 30
0.0
 70
   128
 71
     2
 72
    -3
 73
     1
  0
SEQEND
  5
134641
  8
0
  0
POLYLINE
  5
13456A
  8
0
 66
     1
 10
0.0
 20
0.0
 30
0.0
 70
    64
 71
     4
 72
     2
  0
VERTEX
  5
13456B
  8
0
 10
-19.66523063262
 20
-5.356899388026998
 30
5.2
 70
   192
  0
VERTEX
  5
13456C
  8
0
 10
-20.39027686225
 20
-5.580303905273998
 30
5.538094609393001
 70
   192
  0
VERTEX
  5
13456D
  8
0
 10
-20.39027686225
 20
5.580303905274001
 30
5.538094609393001
 70
   192
  0
VERTEX
  5
13456E
  8
0
 10
-19.66523063262
 20
5.356899388027002
 30
5.2
 70
   192
  0
VERTEX
  5
13456F
  8
0
 10
0.0
 20
0.0
 30
0.0
 70
   128
 71
     3
 72
     4
 73
    -1
  0
VERTEX
  5
134570
  8
0
 10
0.0
 20
0.0
 30
0.0
 70
   128
 71
     2
 72
    -3
 73
     1
  0
SEQEND
  5
134642
  8
0
  0
POLYLINE
  5
134571
  8
0
 66
     1
 10
0.0
 20
0.0
 30
0.0
 70
    64
 71
     8
 72
     6
  0
VERTEX
  5
134572
  8
0
 10
-18.60530753281933
 20
8.805626367476574
 30
9.906486230367578
 70
   192
  0
VERTEX
  5
134573
  8
0
 10
18.60535160868587
 20
8.805644465157881
 30
9.906505227740437
 70
   192
  0
VERTEX
  5
134574
  8
0
 10
19.12664991614
 20
9.326649916141998
 30
10.0
 70
   192
  0
VERTEX
  5
134575
  8
0
 10
-19.12664991614
 20
9.326649916142001
 30
10.0
 70
   192
  0
VERTEX
  5
134576
  8
0
 10
-18.16462106288491
 20
8.364709359802243
 30
9.650868306448853
 70
   192
  0
VERTEX
  5
134577
  8
0
 10
18.16464077068082
 20
8.364735937418633
 30
9.650885795942129
 70
   192
  0
VERTEX
  5
134578
  8
0
 10
-17.8
 20
8.000000000000002
 30
9.2
 70
   192
  0
VERTEX
  5
134579
  8
0
 10
17.8
 20
7.999999999999998
 30
9.2
 70
   192
  0
VERTEX
  5
13457A
  8
0
 10
0.0
 20
0.0
 30
0.0
 70
   128
 71
     1
 72
     2
 73
     3
  0
VERTEX
  5
13457B
  8
0
 10
0.0
 20
0.0
 30
0.0
 70
   128
 71
     1
 72
     3
 73
     4
  0
VERTEX
  5
13457C
  8
0
 10
0.0
 20
0.0
 30
0.0
 70
   128
 71
     1
 72
     5
 73
     6
  0
VERTEX
  5
13457D
  8
0
 10
0.0
 20
0.0
 30
0.0
 70
   128
 71
     2
 72
     1
 73
     6
  0
VERTEX
  5
13457E
  8
0
 10
0.0
 20
0.0
 30
0.0
 70
   128
 71
     5
 72
     7
 73
     8
  0
VERTEX
  5
13457F
  8
0
 10
0.0
 20
0.0
 30
0.0
 70
   128
 71
     6
 72
     5
 73
     8
  0
SEQEND
  5
134643
  8
0
  0
POLYLINE
  5
134580
  8
0
 66
     1
 10
0.0
 20
0.0
 30
0.0
 70
    64
 71
     4
 72
     2
  0
VERTEX
  5
134581
  8
0
 10
-13.78218699924
 20
9.865230632620001
 30
5.2
 70
   192
  0
VERTEX
  5
134582
  8
0
 10
13.78218699924
 20
9.865230632619998
 30
5.2
 70
   192
  0
VERTEX
  5
134583
  8
0
 10
17.8
 20
7.999999999999998
 30
9.2
 70
   192
  0
VERTEX
  5
134584
  8
0
 10
-17.8
 20
8.000000000000002
 30
9.2
 70
   192
  0
VERTEX
  5
134585
  8
0
 10
0.0
 20
0.0
 30
0.0
 70
   128
 71
     3
 72
     4
 73
    -1
  0
VERTEX
  5
134586
  8
0
 10
0.0
 20
0.0
 30
0.0
 70
   128
 71
     2
 72
    -3
 73
     1
  0
SEQEND
  5
134644
  8
0
  0
POLYLINE
  5
134587
  8
0
 66
     1
 10
0.0
 20
0.0
 30
0.0
 70
    64
 71
     4
 72
     2
  0
VERTEX
  5
134588
  8
0
 10
-17.8
 20
-7.999999999999998
 30
9.2
 70
   192
  0
VERTEX
  5
134589
  8
0
 10
-13.78218699924
 20
-9.865230632619998
 30
5.2
 70
   192
  0
VERTEX
  5
13458A
  8
0
 10
-14.12178722851
 20
-10.59027686225
 30
5.538094609393001
 70
   192
  0
VERTEX
  5
13458B
  8
0
 10
-17.8
 20
-8.882702335169999
 30
9.2
 70
   192
  0
VERTEX
  5
13458C
  8
0
 10
0.0
 20
0.0
 30
0.0
 70
   128
 71
     3
 72
     4
 73
    -1
  0
VERTEX
  5
13458D
  8
0
 10
0.0
 20
0.0
 30
0.0
 70
   128
 71
     2
 72
    -3
 73
     1
  0
SEQEND
  5
134645
  8
0
  0
POLYLINE
  5
13458E
  8
0
 66
     1
 10
0.0
 20
0.0
 30
0.0
 70
    64
 71
     4
 72
     2
  0
VERTEX
  5
13458F
  8
0
 10
-17.8
 20
8.882702335170002
 30
9.2
 70
   192
  0
VERTEX
  5
134590
  8
0
 10
-14.12178722851
 20
10.59027686225
 30
5.538094609393001
 70
   192
  0
VERTEX
  5
134591
  8
0
 10
-13.78218699924
 20
9.865230632620001
 30
5.2
 70
   192
  0
VERTEX
  5
134592
  8
0
 10
-17.8
 20
8.000000000000002
 30
9.2
 70
   192
  0
VERTEX
  5
134593
  8
0
 10
0.0
 20
0.0
 30
0.0
 70
   128
 71
     3
 72
     4
 73
    -1
  0
VERTEX
  5
134594
  8
0
 10
0.0
 20
0.0
 30
0.0
 70
   128
 71
     2
 72
    -3
 73
     1
  0
SEQEND
  5
134646
  8
0
  0
POLYLINE
  5
134595
  8
0
 66
     1
 10
0.0
 20
0.0
 30
0.0
 70
    64
 71
     4
 72
     2
  0
VERTEX
  5
134596
  8
0
 10
-17.8
 20
-8.882702335169999
 30
9.2
 70
   192
  0
VERTEX
  5
134597
  8
0
 10
-14.12178722851
 20
-10.59027686225
 30
5.538094609393001
 70
   192
  0
VERTEX
  5
134598
  8
0
 10
14.12178722851
 20
-10.59027686225
 30
5.538094609393001
 70
   192
  0
VERTEX
  5
134599
  8
0
 10
17.8
 20
-8.882702335170002
 30
9.2
 70
   192
  0
VERTEX
  5
13459A
  8
0
 10
0.0
 20
0.0
 30
0.0
 70
   128
 71
     3
 72
     4
 73
    -1
  0
VERTEX
  5
13459B
  8
0
 10
0.0
 20
0.0
 30
0.0
 70
   128
 71
     2
 72
    -3
 73
     1
  0
SEQEND
  5
134647
  8
0
  0
POLYLINE
  5
13459C
  8
0
 66
     1
 10
0.0
 20
0.0
 30
0.0
 70
    64
 71
     4
 72
     2
  0
VERTEX
  5
13459D
  8
0
 10
17.8
 20
-8.882702335170002
 30
9.2
 70
   192
  0
VERTEX
  5
13459E
  8
0
 10
14.12178722851
 20
-10.59027686225
 30
5.538094609393001
 70
   192
  0
VERTEX
  5
13459F
  8
0
 10
13.78218699924
 20
-9.865230632620001
 30
5.2
 70
   192
  0
VERTEX
  5
1345A0
  8
0
 10
17.8
 20
-8.000000000000002
 30
9.2
 70
   192
  0
VERTEX
  5
1345A1
  8
0
 10
0.0
 20
0.0
 30
0.0
 70
   128
 71
     3
 72
     4
 73
    -1
  0
VERTEX
  5
1345A2
  8
0
 10
0.0
 20
0.0
 30
0.0
 70
   128
 71
     2
 72
    -3
 73
     1
  0
SEQEND
  5
134648
  8
0
  0
POLYLINE
  5
1345A3
  8
0
 66
     1
 10
0.0
 20
0.0
 30
0.0
 70
    64
 71
     4
 72
     2
  0
VERTEX
  5
1345A4
  8
0
 10
17.8
 20
7.999999999999998
 30
9.2
 70
   192
  0
VERTEX
  5
1345A5
  8
0
 10
13.78218699924
 20
9.865230632619998
 30
5.2
 70
   192
  0
VERTEX
  5
1345A6
  8
0
 10
14.12178722851
 20
10.59027686225
 30
5.538094609393001
 70
   192
  0
VERTEX
  5
1345A7
  8
0
 10
17.8
 20
8.882702335169999
 30
9.2
 70
   192
  0
VERTEX
  5
1345A8
  8
0
 10
0.0
 20
0.0
 30
0.0
 70
   128
 71
     3
 72
     4
 73
    -1
  0
VERTEX
  5
1345A9
  8
0
 10
0.0
 20
0.0
 30
0.0
 70
   128
 71
     2
 72
    -3
 73
     1
  0
SEQEND
  5
134649
  8
0
  0
POLYLINE
  5
1345AA
  8
0
 66
     1
 10
0.0
 20
0.0
 30
0.0
 70
    64
 71
     4
 72
     2
  0
VERTEX
  5
1345AB
  8
0
 10
-17.8
 20
-7.999999999999998
 30
9.2
 70
   192
  0
VERTEX
  5
1345AC
  8
0
 10
17.8
 20
-8.000000000000002
 30
9.2
 70
   192
  0
VERTEX
  5
1345AD
  8
0
 10
13.78218699924
 20
-9.865230632620001
 30
5.2
 70
   192
  0
VERTEX
  5
1345AE
  8
0
 10
-13.78218699924
 20
-9.865230632619998
 30
5.2
 70
   192
  0
VERTEX
  5
1345AF
  8
0
 10
0.0
 20
0.0
 30
0.0
 70
   128
 71
     3
 72
     4
 73
    -1
  0
VERTEX
  5
1345B0
  8
0
 10
0.0
 20
0.0
 30
0.0
 70
   128
 71
     2
 72
    -3
 73
     1
  0
SEQEND
  5
13464A
  8
0
  0
POLYLINE
  5
1345B1
  8
0
 66
     1
 10
0.0
 20
0.0
 30
0.0
 70
    64
 71
     4
 72
     2
  0
VERTEX
  5
1345B2
  8
0
 10
-14.12178722851
 20
-10.59027686225
 30
5.538094609393001
 70
   192
  0
VERTEX
  5
1345B3
  8
0
 10
-13.78218699924
 20
-9.865230632619998
 30
5.2
 70
   192
  0
VERTEX
  5
1345B4
  8
0
 10
13.78218699924
 20
-9.865230632620001
 30
5.2
 70
   192
  0
VERTEX
  5
1345B5
  8
0
 10
14.12178722851
 20
-10.59027686225
 30
5.538094609393001
 70
   192
  0
VERTEX
  5
1345B6
  8
0
 10
0.0
 20
0.0
 30
0.0
 70
   128
 71
     3
 72
     4
 73
    -1
  0
VERTEX
  5
1345B7
  8
0
 10
0.0
 20
0.0
 30
0.0
 70
   128
 71
     2
 72
    -3
 73
     1
  0
SEQEND
  5
13464B
  8
0
  0
POLYLINE
  5
1345B8
  8
0
 66
     1
 10
0.0
 20
0.0
 30
0.0
 70
    64
 71
     4
 72
     2
  0
VERTEX
  5
1345B9
  8
0
 10
-17.8
 20
8.882702335170002
 30
9.2
 70
   192
  0
VERTEX
  5
1345BA
  8
0
 10
17.8
 20
8.882702335169999
 30
9.2
 70
   192
  0
VERTEX
  5
1345BB
  8
0
 10
14.12178722851
 20
10.59027686225
 30
5.538094609393001
 70
   192
  0
VERTEX
  5
1345BC
  8
0
 10
-14.12178722851
 20
10.59027686225
 30
5.538094609393001
 70
   192
  0
VERTEX
  5
1345BD
  8
0
 10
0.0
 20
0.0
 30
0.0
 70
   128
 71
     3
 72
     4
 73
    -1
  0
VERTEX
  5
1345BE
  8
0
 10
0.0
 20
0.0
 30
0.0
 70
   128
 71
     2
 72
    -3
 73
     1
  0
SEQEND
  5
13464C
  8
0
  0
POLYLINE
  5
1345BF
  8
0
 66
     1
 10
0.0
 20
0.0
 30
0.0
 70
    64
 71
     4
 72
     2
  0
VERTEX
  5
1345C0
  8
0
 10
-14.12178722851
 20
10.59027686225
 30
5.538094609393001
 70
   192
  0
VERTEX
  5
1345C1
  8
0
 10
14.12178722851
 20
10.59027686225
 30
5.538094609393001
 70
   192
  0
VERTEX
  5
1345C2
  8
0
 10
13.78218699924
 20
9.865230632619998
 30
5.2
 70
   192
  0
VERTEX
  5
1345C3
  8
0
 10
-13.78218699924
 20
9.865230632620001
 30
5.2
 70
   192
  0
VERTEX
  5
1345C4
  8
0
 10
0.0
 20
0.0
 30
0.0
 70
   128
 71
     3
 72
     4
 73
    -1
  0
VERTEX
  5
1345C5
  8
0
 10
0.0
 20
0.0
 30
0.0
 70
   128
 71
     2
 72
    -3
 73
     1
  0
SEQEND
  5
13464D
  8
0
  0
ENDBLK
  5
13461A
  8
0
  0
ENDSEC
  0
SECTION
  2
ENTITIES
  0
INSERT
  5
133046
  8
0
  2
*X1
 10
0.0
 20
0.0
 30
0.0
  0
INSERT
  5
133047
  8
0
  2
*X2
 10
0.0
 20
0.0
 30
0.0
  0
INSERT
  5
133048
  8
0
  2
*X3
 10
0.0
 20
0.0
 30
0.0
  0
ENDSEC
  0
EOF
