  0
SECTION
  2
HEADER
  9
$ACADVER
  1
AC1009
  9
$DWGCODEPAGE
  3
ansi_1250
  9
$INSBASE
 10
0.0
 20
0.0
 30
0.0
  9
$EXTMIN
 10
-31.38001594034418
 20
-20.11259066771143
 30
-158.6016100204134
  9
$EXTMAX
 10
33.61998405976789
 20
24.88740933255642
 30
226.3983899795997
  9
$LIMMIN
 10
0.0
 20
0.0
  9
$LIMMAX
 10
420.0
 20
297.0
  9
$ORTHOMODE
 70
     0
  9
$REGENMODE
 70
     1
  9
$FILLMODE
 70
     1
  9
$QTEXTMODE
 70
     0
  9
$MIRRTEXT
 70
     0
  9
$DRAGMODE
 70
     2
  9
$LTSCALE
 40
1.0
  9
$OSMODE
 70
   511
  9
$ATTMODE
 70
     1
  9
$TEXTSIZE
 40
2.5
  9
$TRACEWID
 40
1.0
  9
$TEXTSTYLE
  7
STANDARD
  9
$CLAYER
  8
0
  9
$CELTYPE
  6
BYLAYER
  9
$CECOLOR
 62
   256
  9
$DIMSCALE
 40
1.0
  9
$DIMASZ
 40
2.5
  9
$DIMEXO
 40
0.625
  9
$DIMDLI
 40
3.75
  9
$DIMRND
 40
0.0
  9
$DIMDLE
 40
0.0
  9
$DIMEXE
 40
1.25
  9
$DIMTP
 40
0.0
  9
$DIMTM
 40
0.0
  9
$DIMTXT
 40
2.5
  9
$DIMCEN
 40
-2.5
  9
$DIMTSZ
 40
0.0
  9
$DIMTOL
 70
     0
  9
$DIMLIM
 70
     0
  9
$DIMTIH
 70
     0
  9
$DIMTOH
 70
     0
  9
$DIMSE1
 70
     0
  9
$DIMSE2
 70
     0
  9
$DIMTAD
 70
     1
  9
$DIMZIN
 70
     8
  9
$DIMBLK
  1

  9
$DIMASO
 70
     1
  9
$DIMSHO
 70
     1
  9
$DIMPOST
  1

  9
$DIMAPOST
  1

  9
$DIMALT
 70
     0
  9
$DIMALTD
 70
     3
  9
$DIMALTF
 40
0.03937007874016
  9
$DIMLFAC
 40
1.0
  9
$DIMTOFL
 70
     1
  9
$DIMTVP
 40
0.0
  9
$DIMTIX
 70
     0
  9
$DIMSOXD
 70
     0
  9
$DIMSAH
 70
     0
  9
$DIMBLK1
  1

  9
$DIMBLK2
  1

  9
$DIMSTYLE
  2
ISO-25
  9
$DIMCLRD
 70
     0
  9
$DIMCLRE
 70
     0
  9
$DIMCLRT
 70
     0
  9
$DIMTFAC
 40
1.0
  9
$DIMGAP
 40
0.625
  9
$LUNITS
 70
     2
  9
$LUPREC
 70
     3
  9
$SKETCHINC
 40
1.0
  9
$FILLETRAD
 40
10.0
  9
$AUNITS
 70
     0
  9
$AUPREC
 70
     0
  9
$MENU
  1
.
  9
$ELEVATION
 40
0.0
  9
$PELEVATION
 40
0.0
  9
$THICKNESS
 40
0.0
  9
$LIMCHECK
 70
     0
  9
$CHAMFERA
 40
10.0
  9
$CHAMFERB
 40
10.0
  9
$SKPOLY
 70
     0
  9
$TDCREATE
 40
2455022.720692848
  9
$TDUPDATE
 40
2460528.530280093
  9
$TDINDWG
 40
0.0653688542
  9
$TDUSRTIMER
 40
0.1399254051
  9
$USRTIMER
 70
     1
  9
$ANGBASE
 50
0.0
  9
$ANGDIR
 70
     0
  9
$PDMODE
 70
     0
  9
$PDSIZE
 40
0.0
  9
$PLINEWID
 40
0.0
  9
$COORDS
 70
     1
  9
$SPLFRAME
 70
     0
  9
$SPLINETYPE
 70
     6
  9
$SPLINESEGS
 70
     8
  9
$ATTDIA
 70
     0
  9
$ATTREQ
 70
     1
  9
$HANDLING
 70
     1
  9
$HANDSEED
  5
5D9B1
  9
$SURFTAB1
 70
     6
  9
$SURFTAB2
 70
     6
  9
$SURFTYPE
 70
     6
  9
$SURFU
 70
     6
  9
$SURFV
 70
     6
  9
$UCSNAME
  2

  9
$UCSORG
 10
0.0
 20
0.0
 30
0.0
  9
$UCSXDIR
 10
1.0
 20
0.0
 30
0.0
  9
$UCSYDIR
 10
0.0
 20
1.0
 30
0.0
  9
$PUCSNAME
  2

  9
$PUCSORG
 10
0.0
 20
0.0
 30
0.0
  9
$PUCSXDIR
 10
1.0
 20
0.0
 30
0.0
  9
$PUCSYDIR
 10
0.0
 20
1.0
 30
0.0
  9
$USERI1
 70
     0
  9
$USERI2
 70
     0
  9
$USERI3
 70
     0
  9
$USERI4
 70
     0
  9
$USERI5
 70
     0
  9
$USERR1
 40
0.0
  9
$USERR2
 40
0.0
  9
$USERR3
 40
0.0
  9
$USERR4
 40
0.0
  9
$USERR5
 40
0.0
  9
$WORLDVIEW
 70
     1
  9
$SHADEDGE
 70
     3
  9
$SHADEDIF
 70
    70
  9
$TILEMODE
 70
     1
  9
$MAXACTVP
 70
    64
  9
$PLIMCHECK
 70
     0
  9
$PEXTMIN
 10
1.000000000000000E+20
 20
1.000000000000000E+20
 30
1.000000000000000E+20
  9
$PEXTMAX
 10
-1.000000000000000E+20
 20
-1.000000000000000E+20
 30
-1.000000000000000E+20
  9
$PLIMMIN
 10
0.0
 20
0.0
  9
$PLIMMAX
 10
0.0
 20
0.0
  9
$UNITMODE
 70
     0
  9
$VISRETAIN
 70
     1
  9
$PLINEGEN
 70
     0
  9
$PSLTSCALE
 70
     1
  0
ENDSEC
  0
SECTION
  2
TABLES
  0
TABLE
  2
VPORT
 70
     1
  0
VPORT
  2
*ACTIVE
 70
     0
 10
0.0
 20
0.0
 11
1.0
 21
1.0
 12
-93.98827316582704
 22
-28.5355468528639
 13
0.0
 23
0.0
 14
10.0
 24
10.0
 15
10.0
 25
10.0
 16
0.5773502691896226
 26
0.5773502691896226
 36
0.5773502691896262
 17
-134.1869158878506
 27
-0.0000000000001421
 37
0.0000000000001066
 40
366.4436655205325
 41
1.89041095890411
 42
50.0
 43
0.0
 44
0.0
 50
0.0
 51
0.0
 71
    16
 72
  1000
 73
     1
 74
     3
 75
     0
 76
     0
 77
     0
 78
     0
  0
ENDTAB
  0
TABLE
  2
LTYPE
 70
     1
  0
LTYPE
  2
CONTINUOUS
 70
     0
  3
Solid line
 72
    65
 73
     0
 40
0.0
  0
ENDTAB
  0
TABLE
  2
LAYER
 70
     1
  0
LAYER
  2
0
 70
     0
 62
     7
  6
CONTINUOUS
  0
ENDTAB
  0
TABLE
  2
STYLE
 70
     2
  0
STYLE
  2
STANDARD
 70
     0
 40
0.0
 41
1.0
 50
0.0
 71
     0
 42
2.5
  3
arial.ttf
  4

  0
STYLE
  2
ANNOTATIVE
 70
     0
 40
0.0
 41
1.0
 50
0.0
 71
     0
 42
2.5
  3
arial.ttf
  4

  0
ENDTAB
  0
TABLE
  2
VIEW
 70
     0
  0
ENDTAB
  0
TABLE
  2
UCS
 70
     0
  0
ENDTAB
  0
TABLE
  2
APPID
 70
     2
  0
APPID
  2
ACAD
 70
     0
  0
APPID
  2
ACADANNOTATIVE
 70
     0
  0
ENDTAB
  0
TABLE
  2
DIMSTYLE
 70
     2
  0
DIMSTYLE
  2
ISO-25
 70
     0
  3

  4

  5

  6

  7

 40
1.0
 41
2.5
 42
0.625
 43
3.75
 44
1.25
 45
0.0
 46
0.0
 47
0.0
 48
0.0
140
2.5
141
-2.5
142
0.0
143
0.03937007874016
144
1.0
145
0.0
146
1.0
147
0.625
 71
     0
 72
     0
 73
     0
 74
     0
 75
     0
 76
     0
 77
     1
 78
     8
170
     0
171
     3
172
     1
173
     0
174
     0
175
     0
176
     0
177
     0
178
     0
  0
DIMSTYLE
  2
ANNOTATIVE
 70
     0
  3

  4

  5

  6

  7

 40
0.0
 41
2.5
 42
0.625
 43
3.75
 44
1.25
 45
0.0
 46
0.0
 47
0.0
 48
0.0
140
2.5
141
-2.5
142
0.0
143
0.03937007874016
144
1.0
145
0.0
146
1.0
147
0.625
 71
     0
 72
     0
 73
     0
 74
     0
 75
     0
 76
     0
 77
     1
 78
     8
170
     0
171
     3
172
     1
173
     0
174
     0
175
     0
176
     0
177
     0
178
     0
  0
ENDTAB
  0
ENDSEC
  0
SECTION
  2
BLOCKS
  0
BLOCK
  8
0
  2
$MODEL_SPACE
 70
     0
 10
0.0
 20
0.0
 30
0.0
  3
$MODEL_SPACE
  1

  0
ENDBLK
  5
21
  8
0
  0
BLOCK
 67
     1
  8
0
  2
$PAPER_SPACE
 70
     0
 10
0.0
 20
0.0
 30
0.0
  3
$PAPER_SPACE
  1

  0
ENDBLK
  5
1D
 67
     1
  8
0
  0
BLOCK
  8
0
  2
*X1
 70
     1
 10
0.0
 20
0.0
 30
0.0
  3
*X1
  1

  0
POLYLINE
  5
5D2B8
  8
0
 66
     1
 10
0.0
 20
0.0
 30
0.0
 70
    64
 71
    16
 72
    14
  0
VERTEX
  5
5D2B9
  8
0
 10
8.739928819417441
 20
-19.11259066779602
 30
196.3329613482263
 70
   192
  0
VERTEX
  5
5D2BA
  8
0
 10
9.39989846864738
 20
-19.11259066779166
 30
192.8729776129076
 70
   192
  0
VERTEX
  5
5D2BB
  8
0
 10
9.399898468623942
 20
-10.61259066779166
 30
192.8729776129133
 70
   192
  0
VERTEX
  5
5D2BC
  8
0
 10
8.140576039340699
 20
-10.61259066779858
 30
197.5728329021115
 70
   192
  0
VERTEX
  5
5D2BD
  8
0
 10
6.646786981425954
 20
-19.11259066780412
 30
199.5195767040832
 70
   192
  0
VERTEX
  5
5D2BE
  8
0
 10
4.700043179424843
 20
-10.61259066781057
 30
201.0133657620285
 70
   192
  0
VERTEX
  5
5D2BF
  8
0
 10
0.0001878902239477
 20
-10.6125906678244
 30
202.2726881913133
 70
   192
  0
VERTEX
  5
5D2C0
  8
0
 10
0.000187890246556
 20
-19.1124865758644
 30
202.2726881913069
 70
   192
  0
VERTEX
  5
5D2C1
  8
0
 10
3.460171625569463
 20
-19.11259066781442
 30
201.6127185420756
 70
   192
  0
VERTEX
  5
5D2C2
  8
0
 10
-3.459795845075994
 20
-19.11259066783342
 30
201.6127185420753
 70
   192
  0
VERTEX
  5
5D2C3
  8
0
 10
-4.699667398976948
 20
-10.61259066783638
 30
201.0133657620285
 70
   192
  0
VERTEX
  5
5D2C4
  8
0
 10
-6.646411200931382
 20
-19.11259066784062
 30
199.5195767040832
 70
   192
  0
VERTEX
  5
5D2C5
  8
0
 10
-8.140200258892808
 20
-10.61259066784329
 30
197.5728329021115
 70
   192
  0
VERTEX
  5
5D2C6
  8
0
 10
-9.399522688176058
 20
-10.61259066784329
 30
192.8729776129102
 70
   192
  0
VERTEX
  5
5D2C7
  8
0
 10
-9.399522688152716
 20
-19.11259066784329
 30
192.872977612907
 70
   192
  0
VERTEX
  5
5D2C8
  8
0
 10
-8.739553038922148
 20
-19.11259066784402
 30
196.3329613482275
 70
   192
  0
VERTEX
  5
5D2C9
  8
0
 10
0.0
 20
0.0
 30
0.0
 70
   128
 71
     1
 72
     2
 73
     3
  0
VERTEX
  5
5D2CA
  8
0
 10
0.0
 20
0.0
 30
0.0
 70
   128
 71
     1
 72
     3
 73
     4
  0
VERTEX
  5
5D2CB
  8
0
 10
0.0
 20
0.0
 30
0.0
 70
   128
 71
     4
 72
     5
 73
     1
  0
VERTEX
  5
5D2CC
  8
0
 10
0.0
 20
0.0
 30
0.0
 70
   128
 71
     6
 72
     7
 73
     8
  0
VERTEX
  5
5D2CD
  8
0
 10
0.0
 20
0.0
 30
0.0
 70
   128
 71
     6
 72
     8
 73
     9
  0
VERTEX
  5
5D2CE
  8
0
 10
0.0
 20
0.0
 30
0.0
 70
   128
 71
    10
 72
     8
 73
     7
  0
VERTEX
  5
5D2CF
  8
0
 10
0.0
 20
0.0
 30
0.0
 70
   128
 71
    10
 72
     7
 73
    11
  0
VERTEX
  5
5D2D0
  8
0
 10
0.0
 20
0.0
 30
0.0
 70
   128
 71
    11
 72
    12
 73
    10
  0
VERTEX
  5
5D2D1
  8
0
 10
0.0
 20
0.0
 30
0.0
 70
   128
 71
    13
 72
    14
 73
    15
  0
VERTEX
  5
5D2D2
  8
0
 10
0.0
 20
0.0
 30
0.0
 70
   128
 71
    13
 72
    15
 73
    16
  0
VERTEX
  5
5D2D3
  8
0
 10
0.0
 20
0.0
 30
0.0
 70
   128
 71
     4
 72
     6
 73
     9
  0
VERTEX
  5
5D2D4
  8
0
 10
0.0
 20
0.0
 30
0.0
 70
   128
 71
     4
 72
     9
 73
     5
  0
VERTEX
  5
5D2D5
  8
0
 10
0.0
 20
0.0
 30
0.0
 70
   128
 71
    11
 72
    13
 73
    16
  0
VERTEX
  5
5D2D6
  8
0
 10
0.0
 20
0.0
 30
0.0
 70
   128
 71
    11
 72
    16
 73
    12
  0
SEQEND
  5
5D961
  8
0
  0
POLYLINE
  5
5D2D7
  8
0
 66
     1
 10
0.0
 20
0.0
 30
0.0
 70
    64
 71
    52
 72
    28
  0
VERTEX
  5
5D2D8
  8
0
 10
8.880314178912878
 20
-10.61259066779452
 30
194.8120925809286
 70
   192
  0
VERTEX
  5
5D2D9
  8
0
 10
9.250187890224026
 20
-10.61259066779207
 30
192.8729776129137
 70
   192
  0
VERTEX
  5
5D2DA
  8
0
 10
8.88031417891202
 20
-10.61259066779166
 30
190.9338626448928
 70
   192
  0
VERTEX
  5
5D2DB
  8
0
 10
9.399898468623944
 20
-10.61259066779166
 30
192.8729776129102
 70
   192
  0
VERTEX
  5
5D2DC
  8
0
 10
8.600729675051268
 20
-10.61259066779636
 30
196.2778536763609
 70
   192
  0
VERTEX
  5
5D2DD
  8
0
 10
8.409595853437242
 20
-10.61259066779711
 30
196.5688372876593
 70
   192
  0
VERTEX
  5
5D2DE
  8
0
 10
8.409595853436334
 20
-10.61259066779166
 30
189.1771179381657
 70
   192
  0
VERTEX
  5
5D2DF
  8
0
 10
8.600729675051758
 20
-10.61259066779134
 30
189.4681015494664
 70
   192
  0
VERTEX
  5
5D2E0
  8
0
 10
8.140576039340699
 20
-10.61259066779858
 30
197.5728329021115
 70
   192
  0
VERTEX
  5
5D2E1
  8
0
 10
7.002695208379125
 20
-10.61259066780255
 30
198.7107137330734
 70
   192
  0
VERTEX
  5
5D2E2
  8
0
 10
7.002695208379095
 20
-10.61259066779394
 30
187.0352414927523
 70
   192
  0
VERTEX
  5
5D2E3
  8
0
 10
8.140576039338631
 20
-10.61259066779166
 30
188.1731223237115
 70
   192
  0
VERTEX
  5
5D2E4
  8
0
 10
6.540925616199132
 20
-10.61259066780434
 30
199.413715338889
 70
   192
  0
VERTEX
  5
5D2E5
  8
0
 10
5.837924010385102
 20
-10.61259066780661
 30
199.8754849310679
 70
   192
  0
VERTEX
  5
5D2E6
  8
0
 10
5.837924010384201
 20
-10.61259066779628
 30
185.8704702947578
 70
   192
  0
VERTEX
  5
5D2E7
  8
0
 10
6.540925616200076
 20
-10.61259066779469
 30
186.332239886938
 70
   192
  0
VERTEX
  5
5D2E8
  8
0
 10
4.700043179424843
 20
-10.61259066781057
 30
201.0133657620285
 70
   192
  0
VERTEX
  5
5D2E9
  8
0
 10
3.696047564970206
 20
-10.61259066781353
 30
201.2823855761261
 70
   192
  0
VERTEX
  5
5D2EA
  8
0
 10
3.696047564971121
 20
-10.61259066780113
 30
184.4635696497003
 70
   192
  0
VERTEX
  5
5D2EB
  8
0
 10
4.700043179423051
 20
-10.61259066779857
 30
184.732589463797
 70
   192
  0
VERTEX
  5
5D2EC
  8
0
 10
3.405063953670748
 20
-10.61259066781447
 30
201.4735193977407
 70
   192
  0
VERTEX
  5
5D2ED
  8
0
 10
1.939302858244387
 20
-10.6125906678187
 30
201.753103901601
 70
   192
  0
VERTEX
  5
5D2EE
  8
0
 10
1.939302858241522
 20
-10.61259066780561
 30
183.9928513242246
 70
   192
  0
VERTEX
  5
5D2EF
  8
0
 10
3.405063953671988
 20
-10.61259066780178
 30
184.2724358280858
 70
   192
  0
VERTEX
  5
5D2F0
  8
0
 10
0.0001878902247121
 20
-10.61259066781065
 30
183.6229776129131
 70
   192
  0
VERTEX
  5
5D2F1
  8
0
 10
-1.938927077794173
 20
-10.61259066781625
 30
183.9928513242247
 70
   192
  0
VERTEX
  5
5D2F2
  8
0
 10
0.0001878902239445
 20
-10.61259066781054
 30
183.4732670345133
 70
   192
  0
VERTEX
  5
5D2F3
  8
0
 10
0.0001878902239477
 20
-10.6125906678244
 30
202.2726881913133
 70
   192
  0
VERTEX
  5
5D2F4
  8
0
 10
-1.93892707779737
 20
-10.61259066782935
 30
201.7531039016008
 70
   192
  0
VERTEX
  5
5D2F5
  8
0
 10
0.0001878902233798
 20
-10.61259066782429
 30
202.122977612913
 70
   192
  0
VERTEX
  5
5D2F6
  8
0
 10
-3.404688173223885
 20
-10.61259066783317
 30
201.4735193977402
 70
   192
  0
VERTEX
  5
5D2F7
  8
0
 10
-3.695671784522665
 20
-10.61259066783382
 30
201.282385576126
 70
   192
  0
VERTEX
  5
5D2F8
  8
0
 10
-3.695671784522046
 20
-10.61259066782143
 30
184.4635696497
 70
   192
  0
VERTEX
  5
5D2F9
  8
0
 10
-3.404688173222645
 20
-10.61259066782048
 30
184.2724358280854
 70
   192
  0
VERTEX
  5
5D2FA
  8
0
 10
-5.837548229936189
 20
-10.61259066782834
 30
185.8704702947577
 70
   192
  0
VERTEX
  5
5D2FB
  8
0
 10
-4.699667398975161
 20
-10.61259066782438
 30
184.732589463797
 70
   192
  0
VERTEX
  5
5D2FC
  8
0
 10
-4.699667398976948
 20
-10.61259066783638
 30
201.0133657620285
 70
   192
  0
VERTEX
  5
5D2FD
  8
0
 10
-5.837548229938113
 20
-10.61259066783867
 30
199.8754849310669
 70
   192
  0
VERTEX
  5
5D2FE
  8
0
 10
-7.002319427930078
 20
-10.6125906678324
 30
187.0352414927512
 70
   192
  0
VERTEX
  5
5D2FF
  8
0
 10
-6.540549835751024
 20
-10.61259066783061
 30
186.3322398869371
 70
   192
  0
VERTEX
  5
5D300
  8
0
 10
-6.540549835751967
 20
-10.61259066784026
 30
199.4137153388881
 70
   192
  0
VERTEX
  5
5D301
  8
0
 10
-7.002319427931131
 20
-10.61259066784101
 30
198.7107137330736
 70
   192
  0
VERTEX
  5
5D302
  8
0
 10
-8.409220072988422
 20
-10.61259066783784
 30
189.1771179381657
 70
   192
  0
VERTEX
  5
5D303
  8
0
 10
-8.140200258890744
 20
-10.61259066783636
 30
188.1731223237115
 70
   192
  0
VERTEX
  5
5D304
  8
0
 10
-8.140200258892808
 20
-10.61259066784329
 30
197.5728329021115
 70
   192
  0
VERTEX
  5
5D305
  8
0
 10
-8.409220072989696
 20
-10.61259066784329
 30
196.5688372876581
 70
   192
  0
VERTEX
  5
5D306
  8
0
 10
-8.879938398463239
 20
-10.61259066784043
 30
190.9338626448895
 70
   192
  0
VERTEX
  5
5D307
  8
0
 10
-8.600353894603156
 20
-10.61259066783858
 30
189.4681015494651
 70
   192
  0
VERTEX
  5
5D308
  8
0
 10
-8.600353894603648
 20
-10.61259066784361
 30
196.2778536763597
 70
   192
  0
VERTEX
  5
5D309
  8
0
 10
-8.879938398464336
 20
-10.61259066784329
 30
194.8120925809311
 70
   192
  0
VERTEX
  5
5D30A
  8
0
 10
-9.24981210977592
 20
-10.61259066784288
 30
192.8729776129124
 70
   192
  0
VERTEX
  5
5D30B
  8
0
 10
-9.399522688176058
 20
-10.61259066784329
 30
192.8729776129102
 70
   192
  0
VERTEX
  5
5D30C
  8
0
 10
0.0
 20
0.0
 30
0.0
 70
   128
 71
     4
 72
     3
 73
    -2
  0
VERTEX
  5
5D30D
  8
0
 10
0.0
 20
0.0
 30
0.0
 70
   128
 71
     2
 72
     1
 73
    -4
  0
VERTEX
  5
5D30E
  8
0
 10
0.0
 20
0.0
 30
0.0
 70
   128
 71
     1
 72
     6
 73
     5
  0
VERTEX
  5
5D30F
  8
0
 10
0.0
 20
0.0
 30
0.0
 70
   128
 71
     3
 72
     8
 73
     7
  0
VERTEX
  5
5D310
  8
0
 10
0.0
 20
0.0
 30
0.0
 70
   128
 71
     6
 72
    10
 73
     9
  0
VERTEX
  5
5D311
  8
0
 10
0.0
 20
0.0
 30
0.0
 70
   128
 71
     7
 72
    12
 73
    11
  0
VERTEX
  5
5D312
  8
0
 10
0.0
 20
0.0
 30
0.0
 70
   128
 71
    10
 72
    14
 73
    13
  0
VERTEX
  5
5D313
  8
0
 10
0.0
 20
0.0
 30
0.0
 70
   128
 71
    11
 72
    16
 73
    15
  0
VERTEX
  5
5D314
  8
0
 10
0.0
 20
0.0
 30
0.0
 70
   128
 71
    14
 72
    18
 73
    17
  0
VERTEX
  5
5D315
  8
0
 10
0.0
 20
0.0
 30
0.0
 70
   128
 71
    15
 72
    20
 73
    19
  0
VERTEX
  5
5D316
  8
0
 10
0.0
 20
0.0
 30
0.0
 70
   128
 71
    18
 72
    22
 73
    21
  0
VERTEX
  5
5D317
  8
0
 10
0.0
 20
0.0
 30
0.0
 70
   128
 71
    19
 72
    24
 73
    23
  0
VERTEX
  5
5D318
  8
0
 10
0.0
 20
0.0
 30
0.0
 70
   128
 71
    27
 72
    26
 73
   -25
  0
VERTEX
  5
5D319
  8
0
 10
0.0
 20
0.0
 30
0.0
 70
   128
 71
    25
 72
    23
 73
   -27
  0
VERTEX
  5
5D31A
  8
0
 10
0.0
 20
0.0
 30
0.0
 70
   128
 71
    28
 72
    22
 73
   -30
  0
VERTEX
  5
5D31B
  8
0
 10
0.0
 20
0.0
 30
0.0
 70
   128
 71
    30
 72
    29
 73
   -28
  0
VERTEX
  5
5D31C
  8
0
 10
0.0
 20
0.0
 30
0.0
 70
   128
 71
    29
 72
    32
 73
    31
  0
VERTEX
  5
5D31D
  8
0
 10
0.0
 20
0.0
 30
0.0
 70
   128
 71
    26
 72
    34
 73
    33
  0
VERTEX
  5
5D31E
  8
0
 10
0.0
 20
0.0
 30
0.0
 70
   128
 71
    33
 72
    36
 73
    35
  0
VERTEX
  5
5D31F
  8
0
 10
0.0
 20
0.0
 30
0.0
 70
   128
 71
    32
 72
    38
 73
    37
  0
VERTEX
  5
5D320
  8
0
 10
0.0
 20
0.0
 30
0.0
 70
   128
 71
    35
 72
    40
 73
    39
  0
VERTEX
  5
5D321
  8
0
 10
0.0
 20
0.0
 30
0.0
 70
   128
 71
    38
 72
    42
 73
    41
  0
VERTEX
  5
5D322
  8
0
 10
0.0
 20
0.0
 30
0.0
 70
   128
 71
    39
 72
    44
 73
    43
  0
VERTEX
  5
5D323
  8
0
 10
0.0
 20
0.0
 30
0.0
 70
   128
 71
    42
 72
    46
 73
    45
  0
VERTEX
  5
5D324
  8
0
 10
0.0
 20
0.0
 30
0.0
 70
   128
 71
    43
 72
    48
 73
    47
  0
VERTEX
  5
5D325
  8
0
 10
0.0
 20
0.0
 30
0.0
 70
   128
 71
    46
 72
    50
 73
    49
  0
VERTEX
  5
5D326
  8
0
 10
0.0
 20
0.0
 30
0.0
 70
   128
 71
    52
 72
    50
 73
   -51
  0
VERTEX
  5
5D327
  8
0
 10
0.0
 20
0.0
 30
0.0
 70
   128
 71
    51
 72
    47
 73
   -52
  0
SEQEND
  5
5D962
  8
0
  0
POLYLINE
  5
5D328
  8
0
 66
     1
 10
0.0
 20
0.0
 30
0.0
 70
    64
 71
    32
 72
    32
  0
VERTEX
  5
5D329
  8
0
 10
0.0001878902080588
 20
-5.112590667826322
 30
204.8729776129171
 70
   192
  0
VERTEX
  5
5D32A
  8
0
 10
4.417324404950606
 20
-5.112590667813576
 30
204.0304372256666
 70
   192
  0
VERTEX
  5
5D32B
  8
0
 10
8.485469264446909
 20
-5.112590667800437
 30
201.3582589871562
 70
   192
  0
VERTEX
  5
5D32C
  8
0
 10
11.15764750295781
 20
-5.112590667790097
 30
197.2901141276604
 70
   192
  0
VERTEX
  5
5D32D
  8
0
 10
12.00018789020899
 20
-5.112590667784522
 30
192.872977612918
 70
   192
  0
VERTEX
  5
5D32E
  8
0
 10
11.15764750295848
 20
-5.112590667783585
 30
188.4558410981755
 70
   192
  0
VERTEX
  5
5D32F
  8
0
 10
8.48546926444817
 20
-5.112590667787927
 30
184.3876962386792
 70
   192
  0
VERTEX
  5
5D330
  8
0
 10
4.417324404952233
 20
-5.112590667797126
 30
181.7155180001683
 70
   192
  0
VERTEX
  5
5D331
  8
0
 10
0.0001878902097796
 20
-5.112590667808628
 30
180.8729776129171
 70
   192
  0
VERTEX
  5
5D332
  8
0
 10
-4.416948624532718
 20
-5.112590667821384
 30
181.7155180001676
 70
   192
  0
VERTEX
  5
5D333
  8
0
 10
-8.485093484028978
 20
-5.112590667834528
 30
184.3876962386779
 70
   192
  0
VERTEX
  5
5D334
  8
0
 10
-11.15727172253985
 20
-5.112590667844863
 30
188.4558410981738
 70
   192
  0
VERTEX
  5
5D335
  8
0
 10
-11.99981210979102
 20
-5.112590667850428
 30
192.8729776129162
 70
   192
  0
VERTEX
  5
5D336
  8
0
 10
-11.15727172254052
 20
-5.112590667851376
 30
197.2901141276587
 70
   192
  0
VERTEX
  5
5D337
  8
0
 10
-8.485093484030237
 20
-5.11259066784704
 30
201.358258987155
 70
   192
  0
VERTEX
  5
5D338
  8
0
 10
-4.416948624534345
 20
-5.112590667837837
 30
204.0304372256659
 70
   192
  0
VERTEX
  5
5D339
  8
0
 10
0.0001878902094743
 20
-5.112590667811948
 30
185.3729776129171
 70
   192
  0
VERTEX
  5
5D33A
  8
0
 10
2.760898211923462
 20
-5.11259066780476
 30
185.8995653549491
 70
   192
  0
VERTEX
  5
5D33B
  8
0
 10
5.303488749108382
 20
-5.112590667799011
 30
187.5696767540184
 70
   192
  0
VERTEX
  5
5D33C
  8
0
 10
6.973600148177304
 20
-5.112590667796296
 30
190.1122672912036
 70
   192
  0
VERTEX
  5
5D33D
  8
0
 10
7.500187890208871
 20
-5.112590667796881
 30
192.8729776129177
 70
   192
  0
VERTEX
  5
5D33E
  8
0
 10
6.973600148176907
 20
-5.112590667800367
 30
195.6336879346316
 70
   192
  0
VERTEX
  5
5D33F
  8
0
 10
5.303488749107616
 20
-5.112590667806829
 30
198.1762784718165
 70
   192
  0
VERTEX
  5
5D340
  8
0
 10
2.760898211922457
 20
-5.112590667815041
 30
199.8463898708854
 70
   192
  0
VERTEX
  5
5D341
  8
0
 10
0.0001878902083918
 20
-5.112590667823006
 30
200.3729776129171
 70
   192
  0
VERTEX
  5
5D342
  8
0
 10
-2.760522431505613
 20
-5.112590667830204
 30
199.846389870885
 70
   192
  0
VERTEX
  5
5D343
  8
0
 10
-5.303112968690551
 20
-5.112590667835956
 30
198.1762784718157
 70
   192
  0
VERTEX
  5
5D344
  8
0
 10
-6.973224367759487
 20
-5.112590667838666
 30
195.6336879346306
 70
   192
  0
VERTEX
  5
5D345
  8
0
 10
-7.49981210979106
 20
-5.112590667838073
 30
192.8729776129166
 70
   192
  0
VERTEX
  5
5D346
  8
0
 10
-6.973224367759088
 20
-5.112590667834596
 30
190.1122672912026
 70
   192
  0
VERTEX
  5
5D347
  8
0
 10
-5.303112968689785
 20
-5.112590667828138
 30
187.5696767540176
 70
   192
  0
VERTEX
  5
5D348
  8
0
 10
-2.760522431504608
 20
-5.112590667819923
 30
185.8995653549487
 70
   192
  0
VERTEX
  5
5D349
  8
0
 10
0.0
 20
0.0
 30
0.0
 70
   128
 71
    -9
 72
    17
 73
   -18
  0
VERTEX
  5
5D34A
  8
0
 10
0.0
 20
0.0
 30
0.0
 70
   128
 71
     8
 72
    -9
 73
   -18
  0
VERTEX
  5
5D34B
  8
0
 10
0.0
 20
0.0
 30
0.0
 70
   128
 71
   -19
 72
     7
 73
    -8
  0
VERTEX
  5
5D34C
  8
0
 10
0.0
 20
0.0
 30
0.0
 70
   128
 71
    18
 72
   -19
 73
    -8
  0
VERTEX
  5
5D34D
  8
0
 10
0.0
 20
0.0
 30
0.0
 70
   128
 71
   -20
 72
     6
 73
    -7
  0
VERTEX
  5
5D34E
  8
0
 10
0.0
 20
0.0
 30
0.0
 70
   128
 71
    19
 72
   -20
 73
    -7
  0
VERTEX
  5
5D34F
  8
0
 10
0.0
 20
0.0
 30
0.0
 70
   128
 71
   -21
 72
     5
 73
    -6
  0
VERTEX
  5
5D350
  8
0
 10
0.0
 20
0.0
 30
0.0
 70
   128
 71
    20
 72
   -21
 73
    -6
  0
VERTEX
  5
5D351
  8
0
 10
0.0
 20
0.0
 30
0.0
 70
   128
 71
   -22
 72
     4
 73
    -5
  0
VERTEX
  5
5D352
  8
0
 10
0.0
 20
0.0
 30
0.0
 70
   128
 71
    21
 72
   -22
 73
    -5
  0
VERTEX
  5
5D353
  8
0
 10
0.0
 20
0.0
 30
0.0
 70
   128
 71
   -23
 72
     3
 73
    -4
  0
VERTEX
  5
5D354
  8
0
 10
0.0
 20
0.0
 30
0.0
 70
   128
 71
    22
 72
   -23
 73
    -4
  0
VERTEX
  5
5D355
  8
0
 10
0.0
 20
0.0
 30
0.0
 70
   128
 71
   -24
 72
     2
 73
    -3
  0
VERTEX
  5
5D356
  8
0
 10
0.0
 20
0.0
 30
0.0
 70
   128
 71
    23
 72
   -24
 73
    -3
  0
VERTEX
  5
5D357
  8
0
 10
0.0
 20
0.0
 30
0.0
 70
   128
 71
   -25
 72
     1
 73
    -2
  0
VERTEX
  5
5D358
  8
0
 10
0.0
 20
0.0
 30
0.0
 70
   128
 71
    24
 72
   -25
 73
    -2
  0
VERTEX
  5
5D359
  8
0
 10
0.0
 20
0.0
 30
0.0
 70
   128
 71
   -26
 72
    16
 73
    -1
  0
VERTEX
  5
5D35A
  8
0
 10
0.0
 20
0.0
 30
0.0
 70
   128
 71
    25
 72
   -26
 73
    -1
  0
VERTEX
  5
5D35B
  8
0
 10
0.0
 20
0.0
 30
0.0
 70
   128
 71
   -27
 72
    15
 73
   -16
  0
VERTEX
  5
5D35C
  8
0
 10
0.0
 20
0.0
 30
0.0
 70
   128
 71
    26
 72
   -27
 73
   -16
  0
VERTEX
  5
5D35D
  8
0
 10
0.0
 20
0.0
 30
0.0
 70
   128
 71
   -28
 72
    14
 73
   -15
  0
VERTEX
  5
5D35E
  8
0
 10
0.0
 20
0.0
 30
0.0
 70
   128
 71
    27
 72
   -28
 73
   -15
  0
VERTEX
  5
5D35F
  8
0
 10
0.0
 20
0.0
 30
0.0
 70
   128
 71
   -29
 72
    13
 73
   -14
  0
VERTEX
  5
5D360
  8
0
 10
0.0
 20
0.0
 30
0.0
 70
   128
 71
    28
 72
   -29
 73
   -14
  0
VERTEX
  5
5D361
  8
0
 10
0.0
 20
0.0
 30
0.0
 70
   128
 71
   -30
 72
    12
 73
   -13
  0
VERTEX
  5
5D362
  8
0
 10
0.0
 20
0.0
 30
0.0
 70
   128
 71
    29
 72
   -30
 73
   -13
  0
VERTEX
  5
5D363
  8
0
 10
0.0
 20
0.0
 30
0.0
 70
   128
 71
   -31
 72
    11
 73
   -12
  0
VERTEX
  5
5D364
  8
0
 10
0.0
 20
0.0
 30
0.0
 70
   128
 71
    30
 72
   -31
 73
   -12
  0
VERTEX
  5
5D365
  8
0
 10
0.0
 20
0.0
 30
0.0
 70
   128
 71
   -32
 72
    10
 73
   -11
  0
VERTEX
  5
5D366
  8
0
 10
0.0
 20
0.0
 30
0.0
 70
   128
 71
    31
 72
   -32
 73
   -11
  0
VERTEX
  5
5D367
  8
0
 10
0.0
 20
0.0
 30
0.0
 70
   128
 71
   -17
 72
     9
 73
   -10
  0
VERTEX
  5
5D368
  8
0
 10
0.0
 20
0.0
 30
0.0
 70
   128
 71
    32
 72
   -17
 73
   -10
  0
SEQEND
  5
5D963
  8
0
  0
POLYLINE
  5
5D369
  8
0
 66
     1
 10
0.0
 20
0.0
 30
0.0
 70
    64
 71
    18
 72
    16
  0
VERTEX
  5
5D36A
  8
0
 10
0.0001878902149421
 20
-7.612590667826325
 30
204.8729776129152
 70
   192
  0
VERTEX
  5
5D36B
  8
0
 10
0.0001878902080588
 20
-5.112590667826322
 30
204.8729776129171
 70
   192
  0
VERTEX
  5
5D36C
  8
0
 10
0.0001878902097796
 20
-5.112590667808628
 30
180.8729776129171
 70
   192
  0
VERTEX
  5
5D36D
  8
0
 10
0.000187890216663
 20
-7.612590667808631
 30
180.8729776129152
 70
   192
  0
VERTEX
  5
5D36E
  8
0
 10
12.00018789020899
 20
-5.112590667784522
 30
192.872977612918
 70
   192
  0
VERTEX
  5
5D36F
  8
0
 10
12.00018789021584
 20
-7.612590667784524
 30
192.8729776129161
 70
   192
  0
VERTEX
  5
5D370
  8
0
 10
8.48546926444817
 20
-5.112590667787927
 30
184.3876962386792
 70
   192
  0
VERTEX
  5
5D371
  8
0
 10
8.485469264454997
 20
-7.612590667787917
 30
184.3876962386773
 70
   192
  0
VERTEX
  5
5D372
  8
0
 10
4.417324404952233
 20
-5.112590667797126
 30
181.7155180001683
 70
   192
  0
VERTEX
  5
5D373
  8
0
 10
4.417324404959085
 20
-7.612590667797119
 30
181.7155180001664
 70
   192
  0
VERTEX
  5
5D374
  8
0
 10
11.15764750295848
 20
-5.112590667783585
 30
188.4558410981755
 70
   192
  0
VERTEX
  5
5D375
  8
0
 10
11.15764750296531
 20
-7.61259066778358
 30
188.4558410981736
 70
   192
  0
VERTEX
  5
5D376
  8
0
 10
8.485469264446909
 20
-5.112590667800437
 30
201.3582589871562
 70
   192
  0
VERTEX
  5
5D377
  8
0
 10
8.48546926445382
 20
-7.61259066780043
 30
201.3582589871544
 70
   192
  0
VERTEX
  5
5D378
  8
0
 10
11.15764750295781
 20
-5.112590667790097
 30
197.2901141276604
 70
   192
  0
VERTEX
  5
5D379
  8
0
 10
11.15764750296471
 20
-7.612590667790093
 30
197.2901141276585
 70
   192
  0
VERTEX
  5
5D37A
  8
0
 10
4.417324404950606
 20
-5.112590667813576
 30
204.0304372256666
 70
   192
  0
VERTEX
  5
5D37B
  8
0
 10
4.417324404957507
 20
-7.612590667813569
 30
204.0304372256646
 70
   192
  0
VERTEX
  5
5D37C
  8
0
 10
0.0
 20
0.0
 30
0.0
 70
   128
 71
     9
 72
     7
 73
    -8
  0
VERTEX
  5
5D37D
  8
0
 10
0.0
 20
0.0
 30
0.0
 70
   128
 71
    10
 72
    -9
 73
     8
  0
VERTEX
  5
5D37E
  8
0
 10
0.0
 20
0.0
 30
0.0
 70
   128
 71
     3
 72
     9
 73
   -10
  0
VERTEX
  5
5D37F
  8
0
 10
0.0
 20
0.0
 30
0.0
 70
   128
 71
     4
 72
    -3
 73
    10
  0
VERTEX
  5
5D380
  8
0
 10
0.0
 20
0.0
 30
0.0
 70
   128
 71
    11
 72
     5
 73
    -6
  0
VERTEX
  5
5D381
  8
0
 10
0.0
 20
0.0
 30
0.0
 70
   128
 71
    12
 72
   -11
 73
     6
  0
VERTEX
  5
5D382
  8
0
 10
0.0
 20
0.0
 30
0.0
 70
   128
 71
     7
 72
    11
 73
   -12
  0
VERTEX
  5
5D383
  8
0
 10
0.0
 20
0.0
 30
0.0
 70
   128
 71
     8
 72
    -7
 73
    12
  0
VERTEX
  5
5D384
  8
0
 10
0.0
 20
0.0
 30
0.0
 70
   128
 71
    15
 72
    13
 73
   -14
  0
VERTEX
  5
5D385
  8
0
 10
0.0
 20
0.0
 30
0.0
 70
   128
 71
    16
 72
   -15
 73
    14
  0
VERTEX
  5
5D386
  8
0
 10
0.0
 20
0.0
 30
0.0
 70
   128
 71
     5
 72
    15
 73
   -16
  0
VERTEX
  5
5D387
  8
0
 10
0.0
 20
0.0
 30
0.0
 70
   128
 71
     6
 72
    -5
 73
    16
  0
VERTEX
  5
5D388
  8
0
 10
0.0
 20
0.0
 30
0.0
 70
   128
 71
    17
 72
     2
 73
    -1
  0
VERTEX
  5
5D389
  8
0
 10
0.0
 20
0.0
 30
0.0
 70
   128
 71
    18
 72
   -17
 73
     1
  0
VERTEX
  5
5D38A
  8
0
 10
0.0
 20
0.0
 30
0.0
 70
   128
 71
    13
 72
    17
 73
   -18
  0
VERTEX
  5
5D38B
  8
0
 10
0.0
 20
0.0
 30
0.0
 70
   128
 71
    14
 72
   -13
 73
    18
  0
SEQEND
  5
5D964
  8
0
  0
POLYLINE
  5
5D38C
  8
0
 66
     1
 10
0.0
 20
0.0
 30
0.0
 70
    64
 71
    18
 72
    16
  0
VERTEX
  5
5D38D
  8
0
 10
0.000187890216663
 20
-7.612590667808631
 30
180.8729776129152
 70
   192
  0
VERTEX
  5
5D38E
  8
0
 10
0.0001878902097796
 20
-5.112590667808628
 30
180.8729776129171
 70
   192
  0
VERTEX
  5
5D38F
  8
0
 10
0.0001878902080588
 20
-5.112590667826322
 30
204.8729776129171
 70
   192
  0
VERTEX
  5
5D390
  8
0
 10
0.0001878902149421
 20
-7.612590667826325
 30
204.8729776129152
 70
   192
  0
VERTEX
  5
5D391
  8
0
 10
-11.99981210979102
 20
-5.112590667850428
 30
192.8729776129162
 70
   192
  0
VERTEX
  5
5D392
  8
0
 10
-11.99981210978415
 20
-7.612590667850429
 30
192.8729776129144
 70
   192
  0
VERTEX
  5
5D393
  8
0
 10
-8.485093484030237
 20
-5.11259066784704
 30
201.358258987155
 70
   192
  0
VERTEX
  5
5D394
  8
0
 10
-8.485093484023322
 20
-7.612590667847029
 30
201.3582589871532
 70
   192
  0
VERTEX
  5
5D395
  8
0
 10
-4.416948624534345
 20
-5.112590667837837
 30
204.0304372256659
 70
   192
  0
VERTEX
  5
5D396
  8
0
 10
-4.416948624527441
 20
-7.61259066783783
 30
204.0304372256641
 70
   192
  0
VERTEX
  5
5D397
  8
0
 10
-11.15727172254052
 20
-5.112590667851376
 30
197.2901141276587
 70
   192
  0
VERTEX
  5
5D398
  8
0
 10
-11.15727172253362
 20
-7.612590667851369
 30
197.2901141276569
 70
   192
  0
VERTEX
  5
5D399
  8
0
 10
-8.485093484028978
 20
-5.112590667834528
 30
184.3876962386779
 70
   192
  0
VERTEX
  5
5D39A
  8
0
 10
-8.485093484022153
 20
-7.612590667834519
 30
184.3876962386762
 70
   192
  0
VERTEX
  5
5D39B
  8
0
 10
-11.15727172253985
 20
-5.112590667844863
 30
188.4558410981738
 70
   192
  0
VERTEX
  5
5D39C
  8
0
 10
-11.15727172253302
 20
-7.612590667844858
 30
188.455841098172
 70
   192
  0
VERTEX
  5
5D39D
  8
0
 10
-4.416948624532718
 20
-5.112590667821384
 30
181.7155180001676
 70
   192
  0
VERTEX
  5
5D39E
  8
0
 10
-4.41694862452587
 20
-7.612590667821377
 30
181.7155180001658
 70
   192
  0
VERTEX
  5
5D39F
  8
0
 10
0.0
 20
0.0
 30
0.0
 70
   128
 71
     9
 72
     7
 73
    -8
  0
VERTEX
  5
5D3A0
  8
0
 10
0.0
 20
0.0
 30
0.0
 70
   128
 71
    10
 72
    -9
 73
     8
  0
VERTEX
  5
5D3A1
  8
0
 10
0.0
 20
0.0
 30
0.0
 70
   128
 71
     3
 72
     9
 73
   -10
  0
VERTEX
  5
5D3A2
  8
0
 10
0.0
 20
0.0
 30
0.0
 70
   128
 71
     4
 72
    -3
 73
    10
  0
VERTEX
  5
5D3A3
  8
0
 10
0.0
 20
0.0
 30
0.0
 70
   128
 71
    11
 72
     5
 73
    -6
  0
VERTEX
  5
5D3A4
  8
0
 10
0.0
 20
0.0
 30
0.0
 70
   128
 71
    12
 72
   -11
 73
     6
  0
VERTEX
  5
5D3A5
  8
0
 10
0.0
 20
0.0
 30
0.0
 70
   128
 71
     7
 72
    11
 73
   -12
  0
VERTEX
  5
5D3A6
  8
0
 10
0.0
 20
0.0
 30
0.0
 70
   128
 71
     8
 72
    -7
 73
    12
  0
VERTEX
  5
5D3A7
  8
0
 10
0.0
 20
0.0
 30
0.0
 70
   128
 71
    15
 72
    13
 73
   -14
  0
VERTEX
  5
5D3A8
  8
0
 10
0.0
 20
0.0
 30
0.0
 70
   128
 71
    16
 72
   -15
 73
    14
  0
VERTEX
  5
5D3A9
  8
0
 10
0.0
 20
0.0
 30
0.0
 70
   128
 71
     5
 72
    15
 73
   -16
  0
VERTEX
  5
5D3AA
  8
0
 10
0.0
 20
0.0
 30
0.0
 70
   128
 71
     6
 72
    -5
 73
    16
  0
VERTEX
  5
5D3AB
  8
0
 10
0.0
 20
0.0
 30
0.0
 70
   128
 71
    17
 72
     2
 73
    -1
  0
VERTEX
  5
5D3AC
  8
0
 10
0.0
 20
0.0
 30
0.0
 70
   128
 71
    18
 72
   -17
 73
     1
  0
VERTEX
  5
5D3AD
  8
0
 10
0.0
 20
0.0
 30
0.0
 70
   128
 71
    13
 72
    17
 73
   -18
  0
VERTEX
  5
5D3AE
  8
0
 10
0.0
 20
0.0
 30
0.0
 70
   128
 71
    14
 72
   -13
 73
    18
  0
SEQEND
  5
5D965
  8
0
  0
POLYLINE
  5
5D3AF
  8
0
 66
     1
 10
0.0
 20
0.0
 30
0.0
 70
    64
 71
    32
 72
    32
  0
VERTEX
  5
5D3B0
  8
0
 10
0.000187890216663
 20
-7.612590667808631
 30
180.8729776129152
 70
   192
  0
VERTEX
  5
5D3B1
  8
0
 10
4.417324404959085
 20
-7.612590667797119
 30
181.7155180001664
 70
   192
  0
VERTEX
  5
5D3B2
  8
0
 10
8.485469264454997
 20
-7.612590667787917
 30
184.3876962386773
 70
   192
  0
VERTEX
  5
5D3B3
  8
0
 10
11.15764750296531
 20
-7.61259066778358
 30
188.4558410981736
 70
   192
  0
VERTEX
  5
5D3B4
  8
0
 10
12.00018789021584
 20
-7.612590667784524
 30
192.8729776129161
 70
   192
  0
VERTEX
  5
5D3B5
  8
0
 10
11.15764750296471
 20
-7.612590667790093
 30
197.2901141276585
 70
   192
  0
VERTEX
  5
5D3B6
  8
0
 10
8.48546926445382
 20
-7.61259066780043
 30
201.3582589871544
 70
   192
  0
VERTEX
  5
5D3B7
  8
0
 10
4.417324404957507
 20
-7.612590667813569
 30
204.0304372256646
 70
   192
  0
VERTEX
  5
5D3B8
  8
0
 10
0.0001878902149421
 20
-7.612590667826325
 30
204.8729776129152
 70
   192
  0
VERTEX
  5
5D3B9
  8
0
 10
-4.416948624527441
 20
-7.61259066783783
 30
204.0304372256641
 70
   192
  0
VERTEX
  5
5D3BA
  8
0
 10
-8.485093484023322
 20
-7.612590667847029
 30
201.3582589871532
 70
   192
  0
VERTEX
  5
5D3BB
  8
0
 10
-11.15727172253362
 20
-7.612590667851369
 30
197.2901141276569
 70
   192
  0
VERTEX
  5
5D3BC
  8
0
 10
-11.99981210978415
 20
-7.612590667850429
 30
192.8729776129144
 70
   192
  0
VERTEX
  5
5D3BD
  8
0
 10
-11.15727172253302
 20
-7.612590667844858
 30
188.455841098172
 70
   192
  0
VERTEX
  5
5D3BE
  8
0
 10
-8.485093484022153
 20
-7.612590667834519
 30
184.3876962386762
 70
   192
  0
VERTEX
  5
5D3BF
  8
0
 10
-4.41694862452587
 20
-7.612590667821377
 30
181.7155180001658
 70
   192
  0
VERTEX
  5
5D3C0
  8
0
 10
0.0001878902151364
 20
-7.612590667824298
 30
202.1229776129152
 70
   192
  0
VERTEX
  5
5D3C1
  8
0
 10
3.405063953662506
 20
-7.612590667814465
 30
201.4735193977429
 70
   192
  0
VERTEX
  5
5D3C2
  8
0
 10
6.54092561619089
 20
-7.612590667804336
 30
199.4137153388912
 70
   192
  0
VERTEX
  5
5D3C3
  8
0
 10
8.600729675043024
 20
-7.612590667796368
 30
196.2778536763631
 70
   192
  0
VERTEX
  5
5D3C4
  8
0
 10
9.250187890215782
 20
-7.612590667792078
 30
192.8729776129159
 70
   192
  0
VERTEX
  5
5D3C5
  8
0
 10
8.600729675043514
 20
-7.612590667791347
 30
189.4681015494685
 70
   192
  0
VERTEX
  5
5D3C6
  8
0
 10
6.540925616191832
 20
-7.612590667794692
 30
186.3322398869402
 70
   192
  0
VERTEX
  5
5D3C7
  8
0
 10
3.405063953663744
 20
-7.612590667801785
 30
184.272435828088
 70
   192
  0
VERTEX
  5
5D3C8
  8
0
 10
0.0001878902164687
 20
-7.61259066781066
 30
183.6229776129152
 70
   192
  0
VERTEX
  5
5D3C9
  8
0
 10
-3.404688173230888
 20
-7.612590667820486
 30
184.2724358280875
 70
   192
  0
VERTEX
  5
5D3CA
  8
0
 10
-6.540549835759263
 20
-7.612590667830615
 30
186.3322398869392
 70
   192
  0
VERTEX
  5
5D3CB
  8
0
 10
-8.600353894611391
 20
-7.612590667838584
 30
189.4681015494673
 70
   192
  0
VERTEX
  5
5D3CC
  8
0
 10
-9.24981210978415
 20
-7.612590667842881
 30
192.8729776129146
 70
   192
  0
VERTEX
  5
5D3CD
  8
0
 10
-8.600353894611882
 20
-7.612590667843604
 30
196.2778536763619
 70
   192
  0
VERTEX
  5
5D3CE
  8
0
 10
-6.540549835760206
 20
-7.612590667840259
 30
199.4137153388903
 70
   192
  0
VERTEX
  5
5D3CF
  8
0
 10
-3.404688173232127
 20
-7.612590667833166
 30
201.4735193977424
 70
   192
  0
VERTEX
  5
5D3D0
  8
0
 10
0.0
 20
0.0
 30
0.0
 70
   128
 71
    -9
 72
    17
 73
   -18
  0
VERTEX
  5
5D3D1
  8
0
 10
0.0
 20
0.0
 30
0.0
 70
   128
 71
     8
 72
    -9
 73
   -18
  0
VERTEX
  5
5D3D2
  8
0
 10
0.0
 20
0.0
 30
0.0
 70
   128
 71
   -19
 72
     7
 73
    -8
  0
VERTEX
  5
5D3D3
  8
0
 10
0.0
 20
0.0
 30
0.0
 70
   128
 71
    18
 72
   -19
 73
    -8
  0
VERTEX
  5
5D3D4
  8
0
 10
0.0
 20
0.0
 30
0.0
 70
   128
 71
   -20
 72
     6
 73
    -7
  0
VERTEX
  5
5D3D5
  8
0
 10
0.0
 20
0.0
 30
0.0
 70
   128
 71
    19
 72
   -20
 73
    -7
  0
VERTEX
  5
5D3D6
  8
0
 10
0.0
 20
0.0
 30
0.0
 70
   128
 71
   -21
 72
     5
 73
    -6
  0
VERTEX
  5
5D3D7
  8
0
 10
0.0
 20
0.0
 30
0.0
 70
   128
 71
    20
 72
   -21
 73
    -6
  0
VERTEX
  5
5D3D8
  8
0
 10
0.0
 20
0.0
 30
0.0
 70
   128
 71
   -22
 72
     4
 73
    -5
  0
VERTEX
  5
5D3D9
  8
0
 10
0.0
 20
0.0
 30
0.0
 70
   128
 71
    21
 72
   -22
 73
    -5
  0
VERTEX
  5
5D3DA
  8
0
 10
0.0
 20
0.0
 30
0.0
 70
   128
 71
   -23
 72
     3
 73
    -4
  0
VERTEX
  5
5D3DB
  8
0
 10
0.0
 20
0.0
 30
0.0
 70
   128
 71
    22
 72
   -23
 73
    -4
  0
VERTEX
  5
5D3DC
  8
0
 10
0.0
 20
0.0
 30
0.0
 70
   128
 71
   -24
 72
     2
 73
    -3
  0
VERTEX
  5
5D3DD
  8
0
 10
0.0
 20
0.0
 30
0.0
 70
   128
 71
    23
 72
   -24
 73
    -3
  0
VERTEX
  5
5D3DE
  8
0
 10
0.0
 20
0.0
 30
0.0
 70
   128
 71
   -25
 72
     1
 73
    -2
  0
VERTEX
  5
5D3DF
  8
0
 10
0.0
 20
0.0
 30
0.0
 70
   128
 71
    24
 72
   -25
 73
    -2
  0
VERTEX
  5
5D3E0
  8
0
 10
0.0
 20
0.0
 30
0.0
 70
   128
 71
   -26
 72
    16
 73
    -1
  0
VERTEX
  5
5D3E1
  8
0
 10
0.0
 20
0.0
 30
0.0
 70
   128
 71
    25
 72
   -26
 73
    -1
  0
VERTEX
  5
5D3E2
  8
0
 10
0.0
 20
0.0
 30
0.0
 70
   128
 71
   -27
 72
    15
 73
   -16
  0
VERTEX
  5
5D3E3
  8
0
 10
0.0
 20
0.0
 30
0.0
 70
   128
 71
    26
 72
   -27
 73
   -16
  0
VERTEX
  5
5D3E4
  8
0
 10
0.0
 20
0.0
 30
0.0
 70
   128
 71
   -28
 72
    14
 73
   -15
  0
VERTEX
  5
5D3E5
  8
0
 10
0.0
 20
0.0
 30
0.0
 70
   128
 71
    27
 72
   -28
 73
   -15
  0
VERTEX
  5
5D3E6
  8
0
 10
0.0
 20
0.0
 30
0.0
 70
   128
 71
   -29
 72
    13
 73
   -14
  0
VERTEX
  5
5D3E7
  8
0
 10
0.0
 20
0.0
 30
0.0
 70
   128
 71
    28
 72
   -29
 73
   -14
  0
VERTEX
  5
5D3E8
  8
0
 10
0.0
 20
0.0
 30
0.0
 70
   128
 71
   -30
 72
    12
 73
   -13
  0
VERTEX
  5
5D3E9
  8
0
 10
0.0
 20
0.0
 30
0.0
 70
   128
 71
    29
 72
   -30
 73
   -13
  0
VERTEX
  5
5D3EA
  8
0
 10
0.0
 20
0.0
 30
0.0
 70
   128
 71
   -31
 72
    11
 73
   -12
  0
VERTEX
  5
5D3EB
  8
0
 10
0.0
 20
0.0
 30
0.0
 70
   128
 71
    30
 72
   -31
 73
   -12
  0
VERTEX
  5
5D3EC
  8
0
 10
0.0
 20
0.0
 30
0.0
 70
   128
 71
   -32
 72
    10
 73
   -11
  0
VERTEX
  5
5D3ED
  8
0
 10
0.0
 20
0.0
 30
0.0
 70
   128
 71
    31
 72
   -32
 73
   -11
  0
VERTEX
  5
5D3EE
  8
0
 10
0.0
 20
0.0
 30
0.0
 70
   128
 71
   -17
 72
     9
 73
   -10
  0
VERTEX
  5
5D3EF
  8
0
 10
0.0
 20
0.0
 30
0.0
 70
   128
 71
    32
 72
   -17
 73
   -10
  0
SEQEND
  5
5D966
  8
0
  0
POLYLINE
  5
5D3F0
  8
0
 66
     1
 10
0.0
 20
0.0
 30
0.0
 70
    64
 71
    18
 72
    16
  0
VERTEX
  5
5D3F1
  8
0
 10
0.0001878902233798
 20
-10.61259066782429
 30
202.122977612913
 70
   192
  0
VERTEX
  5
5D3F2
  8
0
 10
0.0001878902151364
 20
-7.612590667824298
 30
202.1229776129152
 70
   192
  0
VERTEX
  5
5D3F3
  8
0
 10
0.0001878902164687
 20
-7.61259066781066
 30
183.6229776129152
 70
   192
  0
VERTEX
  5
5D3F4
  8
0
 10
0.0001878902247121
 20
-10.61259066781065
 30
183.6229776129131
 70
   192
  0
VERTEX
  5
5D3F5
  8
0
 10
9.250187890215782
 20
-7.612590667792078
 30
192.8729776129159
 70
   192
  0
VERTEX
  5
5D3F6
  8
0
 10
9.250187890224026
 20
-10.61259066779207
 30
192.8729776129137
 70
   192
  0
VERTEX
  5
5D3F7
  8
0
 10
6.540925616191832
 20
-7.612590667794692
 30
186.3322398869402
 70
   192
  0
VERTEX
  5
5D3F8
  8
0
 10
6.540925616200076
 20
-10.61259066779469
 30
186.332239886938
 70
   192
  0
VERTEX
  5
5D3F9
  8
0
 10
6.54092561619089
 20
-7.612590667804336
 30
199.4137153388912
 70
   192
  0
VERTEX
  5
5D3FA
  8
0
 10
6.540925616199132
 20
-10.61259066780434
 30
199.413715338889
 70
   192
  0
VERTEX
  5
5D3FB
  8
0
 10
8.600729675043514
 20
-7.612590667791347
 30
189.4681015494685
 70
   192
  0
VERTEX
  5
5D3FC
  8
0
 10
8.600729675051758
 20
-10.61259066779134
 30
189.4681015494664
 70
   192
  0
VERTEX
  5
5D3FD
  8
0
 10
3.405063953663744
 20
-7.612590667801785
 30
184.272435828088
 70
   192
  0
VERTEX
  5
5D3FE
  8
0
 10
3.405063953671988
 20
-10.61259066780178
 30
184.2724358280858
 70
   192
  0
VERTEX
  5
5D3FF
  8
0
 10
3.405063953670748
 20
-10.61259066781447
 30
201.4735193977407
 70
   192
  0
VERTEX
  5
5D400
  8
0
 10
3.405063953662506
 20
-7.612590667814465
 30
201.4735193977429
 70
   192
  0
VERTEX
  5
5D401
  8
0
 10
8.600729675043024
 20
-7.612590667796368
 30
196.2778536763631
 70
   192
  0
VERTEX
  5
5D402
  8
0
 10
8.600729675051268
 20
-10.61259066779636
 30
196.2778536763609
 70
   192
  0
VERTEX
  5
5D403
  8
0
 10
0.0
 20
0.0
 30
0.0
 70
   128
 71
     5
 72
     6
 73
   -12
  0
VERTEX
  5
5D404
  8
0
 10
0.0
 20
0.0
 30
0.0
 70
   128
 71
    11
 72
    -5
 73
    12
  0
VERTEX
  5
5D405
  8
0
 10
0.0
 20
0.0
 30
0.0
 70
   128
 71
     8
 72
     7
 73
   -11
  0
VERTEX
  5
5D406
  8
0
 10
0.0
 20
0.0
 30
0.0
 70
   128
 71
    12
 72
    -8
 73
    11
  0
VERTEX
  5
5D407
  8
0
 10
0.0
 20
0.0
 30
0.0
 70
   128
 71
     7
 72
     8
 73
   -14
  0
VERTEX
  5
5D408
  8
0
 10
0.0
 20
0.0
 30
0.0
 70
   128
 71
    13
 72
    -7
 73
    14
  0
VERTEX
  5
5D409
  8
0
 10
0.0
 20
0.0
 30
0.0
 70
   128
 71
     4
 72
     3
 73
   -13
  0
VERTEX
  5
5D40A
  8
0
 10
0.0
 20
0.0
 30
0.0
 70
   128
 71
    14
 72
    -4
 73
    13
  0
VERTEX
  5
5D40B
  8
0
 10
0.0
 20
0.0
 30
0.0
 70
   128
 71
     2
 72
     1
 73
   -15
  0
VERTEX
  5
5D40C
  8
0
 10
0.0
 20
0.0
 30
0.0
 70
   128
 71
    16
 72
    -2
 73
    15
  0
VERTEX
  5
5D40D
  8
0
 10
0.0
 20
0.0
 30
0.0
 70
   128
 71
    10
 72
     9
 73
   -16
  0
VERTEX
  5
5D40E
  8
0
 10
0.0
 20
0.0
 30
0.0
 70
   128
 71
    15
 72
   -10
 73
    16
  0
VERTEX
  5
5D40F
  8
0
 10
0.0
 20
0.0
 30
0.0
 70
   128
 71
     9
 72
    10
 73
   -18
  0
VERTEX
  5
5D410
  8
0
 10
0.0
 20
0.0
 30
0.0
 70
   128
 71
    17
 72
    -9
 73
    18
  0
VERTEX
  5
5D411
  8
0
 10
0.0
 20
0.0
 30
0.0
 70
   128
 71
     6
 72
     5
 73
   -17
  0
VERTEX
  5
5D412
  8
0
 10
0.0
 20
0.0
 30
0.0
 70
   128
 71
    18
 72
    -6
 73
    17
  0
SEQEND
  5
5D967
  8
0
  0
POLYLINE
  5
5D413
  8
0
 66
     1
 10
0.0
 20
0.0
 30
0.0
 70
    64
 71
    18
 72
    16
  0
VERTEX
  5
5D414
  8
0
 10
0.0001878902247121
 20
-10.61259066781065
 30
183.6229776129131
 70
   192
  0
VERTEX
  5
5D415
  8
0
 10
0.0001878902164687
 20
-7.61259066781066
 30
183.6229776129152
 70
   192
  0
VERTEX
  5
5D416
  8
0
 10
0.0001878902151364
 20
-7.612590667824298
 30
202.1229776129152
 70
   192
  0
VERTEX
  5
5D417
  8
0
 10
0.0001878902233798
 20
-10.61259066782429
 30
202.122977612913
 70
   192
  0
VERTEX
  5
5D418
  8
0
 10
-9.24981210978415
 20
-7.612590667842881
 30
192.8729776129146
 70
   192
  0
VERTEX
  5
5D419
  8
0
 10
-9.24981210977592
 20
-10.61259066784288
 30
192.8729776129124
 70
   192
  0
VERTEX
  5
5D41A
  8
0
 10
-6.540549835760206
 20
-7.612590667840259
 30
199.4137153388903
 70
   192
  0
VERTEX
  5
5D41B
  8
0
 10
-6.540549835751967
 20
-10.61259066784026
 30
199.4137153388881
 70
   192
  0
VERTEX
  5
5D41C
  8
0
 10
-6.540549835759263
 20
-7.612590667830615
 30
186.3322398869392
 70
   192
  0
VERTEX
  5
5D41D
  8
0
 10
-6.540549835751024
 20
-10.61259066783061
 30
186.3322398869371
 70
   192
  0
VERTEX
  5
5D41E
  8
0
 10
-8.600353894603648
 20
-10.61259066784361
 30
196.2778536763597
 70
   192
  0
VERTEX
  5
5D41F
  8
0
 10
-8.600353894611882
 20
-7.612590667843604
 30
196.2778536763619
 70
   192
  0
VERTEX
  5
5D420
  8
0
 10
-3.404688173232127
 20
-7.612590667833166
 30
201.4735193977424
 70
   192
  0
VERTEX
  5
5D421
  8
0
 10
-3.404688173223885
 20
-10.61259066783317
 30
201.4735193977402
 70
   192
  0
VERTEX
  5
5D422
  8
0
 10
-3.404688173222645
 20
-10.61259066782048
 30
184.2724358280854
 70
   192
  0
VERTEX
  5
5D423
  8
0
 10
-3.404688173230888
 20
-7.612590667820486
 30
184.2724358280875
 70
   192
  0
VERTEX
  5
5D424
  8
0
 10
-8.600353894603156
 20
-10.61259066783858
 30
189.4681015494651
 70
   192
  0
VERTEX
  5
5D425
  8
0
 10
-8.600353894611391
 20
-7.612590667838584
 30
189.4681015494673
 70
   192
  0
VERTEX
  5
5D426
  8
0
 10
0.0
 20
0.0
 30
0.0
 70
   128
 71
     8
 72
     7
 73
   -12
  0
VERTEX
  5
5D427
  8
0
 10
0.0
 20
0.0
 30
0.0
 70
   128
 71
    11
 72
    -8
 73
    12
  0
VERTEX
  5
5D428
  8
0
 10
0.0
 20
0.0
 30
0.0
 70
   128
 71
     5
 72
     6
 73
   -11
  0
VERTEX
  5
5D429
  8
0
 10
0.0
 20
0.0
 30
0.0
 70
   128
 71
    12
 72
    -5
 73
    11
  0
VERTEX
  5
5D42A
  8
0
 10
0.0
 20
0.0
 30
0.0
 70
   128
 71
     4
 72
     3
 73
   -13
  0
VERTEX
  5
5D42B
  8
0
 10
0.0
 20
0.0
 30
0.0
 70
   128
 71
    14
 72
    -4
 73
    13
  0
VERTEX
  5
5D42C
  8
0
 10
0.0
 20
0.0
 30
0.0
 70
   128
 71
     7
 72
     8
 73
   -14
  0
VERTEX
  5
5D42D
  8
0
 10
0.0
 20
0.0
 30
0.0
 70
   128
 71
    13
 72
    -7
 73
    14
  0
VERTEX
  5
5D42E
  8
0
 10
0.0
 20
0.0
 30
0.0
 70
   128
 71
    10
 72
     9
 73
   -16
  0
VERTEX
  5
5D42F
  8
0
 10
0.0
 20
0.0
 30
0.0
 70
   128
 71
    15
 72
   -10
 73
    16
  0
VERTEX
  5
5D430
  8
0
 10
0.0
 20
0.0
 30
0.0
 70
   128
 71
     2
 72
     1
 73
   -15
  0
VERTEX
  5
5D431
  8
0
 10
0.0
 20
0.0
 30
0.0
 70
   128
 71
    16
 72
    -2
 73
    15
  0
VERTEX
  5
5D432
  8
0
 10
0.0
 20
0.0
 30
0.0
 70
   128
 71
     6
 72
     5
 73
   -18
  0
VERTEX
  5
5D433
  8
0
 10
0.0
 20
0.0
 30
0.0
 70
   128
 71
    17
 72
    -6
 73
    18
  0
VERTEX
  5
5D434
  8
0
 10
0.0
 20
0.0
 30
0.0
 70
   128
 71
     9
 72
    10
 73
   -17
  0
VERTEX
  5
5D435
  8
0
 10
0.0
 20
0.0
 30
0.0
 70
   128
 71
    18
 72
    -9
 73
    17
  0
SEQEND
  5
5D968
  8
0
  0
POLYLINE
  5
5D436
  8
0
 66
     1
 10
0.0
 20
0.0
 30
0.0
 70
    64
 71
    32
 72
    32
  0
VERTEX
  5
5D437
  8
0
 10
0.000187890246556
 20
-19.1124865758644
 30
202.2726881913069
 70
   192
  0
VERTEX
  5
5D438
  8
0
 10
-3.459795845075994
 20
-19.11259066783342
 30
201.6127185420753
 70
   192
  0
VERTEX
  5
5D439
  8
0
 10
-6.646411200931382
 20
-19.11259066784062
 30
199.5195767040832
 70
   192
  0
VERTEX
  5
5D43A
  8
0
 10
-8.739553038922148
 20
-19.11259066784402
 30
196.3329613482275
 70
   192
  0
VERTEX
  5
5D43B
  8
0
 10
-9.399522688152647
 20
-19.11259066784329
 30
192.8729776129062
 70
   192
  0
VERTEX
  5
5D43C
  8
0
 10
-8.739553038921372
 20
-19.11259066783893
 30
189.4129938775843
 70
   192
  0
VERTEX
  5
5D43D
  8
0
 10
-6.646411200929418
 20
-19.11259066783083
 30
186.2263785217285
 70
   192
  0
VERTEX
  5
5D43E
  8
0
 10
-3.459795845073626
 20
-19.11259066782054
 30
184.1332366837375
 70
   192
  0
VERTEX
  5
5D43F
  8
0
 10
0.0001878902480548
 20
-19.11248657585055
 30
183.4732670345069
 70
   192
  0
VERTEX
  5
5D440
  8
0
 10
3.46017162557089
 20
-19.11259066780154
 30
184.1332366837384
 70
   192
  0
VERTEX
  5
5D441
  8
0
 10
6.646786981427046
 20
-19.11259066779432
 30
186.2263785217312
 70
   192
  0
VERTEX
  5
5D442
  8
0
 10
8.73992881941783
 20
-19.11259066779093
 30
189.4129938775881
 70
   192
  0
VERTEX
  5
5D443
  8
0
 10
9.39989846864738
 20
-19.11259066779166
 30
192.8729776129076
 70
   192
  0
VERTEX
  5
5D444
  8
0
 10
8.739928819417441
 20
-19.11259066779602
 30
196.3329613482263
 70
   192
  0
VERTEX
  5
5D445
  8
0
 10
6.646786981425954
 20
-19.11259066780412
 30
199.5195767040832
 70
   192
  0
VERTEX
  5
5D446
  8
0
 10
3.460171625569463
 20
-19.11259066781442
 30
201.6127185420756
 70
   192
  0
VERTEX
  5
5D447
  8
0
 10
0.0001878902468333
 20
-19.112590667823
 30
200.3729776129068
 70
   192
  0
VERTEX
  5
5D448
  8
0
 10
2.760898211960921
 20
-19.11259066781503
 30
199.8463898708752
 70
   192
  0
VERTEX
  5
5D449
  8
0
 10
5.303488749146102
 20
-19.11259066780682
 30
198.1762784718062
 70
   192
  0
VERTEX
  5
5D44A
  8
0
 10
6.973600148215401
 20
-19.11259066780035
 30
195.6336879346213
 70
   192
  0
VERTEX
  5
5D44B
  8
0
 10
7.500187890247368
 20
-19.11259066779688
 30
192.8729776129073
 70
   192
  0
VERTEX
  5
5D44C
  8
0
 10
6.973600148215799
 20
-19.11259066779629
 30
190.1122672911933
 70
   192
  0
VERTEX
  5
5D44D
  8
0
 10
5.303488749146866
 20
-19.11259066779899
 30
187.5696767540081
 70
   192
  0
VERTEX
  5
5D44E
  8
0
 10
2.760898211961926
 20
-19.11259066780475
 30
185.8995653549387
 70
   192
  0
VERTEX
  5
5D44F
  8
0
 10
0.0001878902479158
 20
-19.11259066781194
 30
185.3729776129068
 70
   192
  0
VERTEX
  5
5D450
  8
0
 10
-2.760522431466164
 20
-19.11259066781991
 30
185.8995653549384
 70
   192
  0
VERTEX
  5
5D451
  8
0
 10
-5.303112968651343
 20
-19.11259066782813
 30
187.5696767540074
 70
   192
  0
VERTEX
  5
5D452
  8
0
 10
-6.973224367720643
 20
-19.11259066783458
 30
190.1122672911922
 70
   192
  0
VERTEX
  5
5D453
  8
0
 10
-7.499812109752618
 20
-19.11259066783807
 30
192.8729776129063
 70
   192
  0
VERTEX
  5
5D454
  8
0
 10
-6.973224367721042
 20
-19.11259066783865
 30
195.6336879346203
 70
   192
  0
VERTEX
  5
5D455
  8
0
 10
-5.303112968652106
 20
-19.11259066783594
 30
198.1762784718054
 70
   192
  0
VERTEX
  5
5D456
  8
0
 10
-2.760522431467169
 20
-19.11259066783019
 30
199.8463898708747
 70
   192
  0
VERTEX
  5
5D457
  8
0
 10
0.0
 20
0.0
 30
0.0
 70
   128
 71
    -1
 72
    17
 73
   -18
  0
VERTEX
  5
5D458
  8
0
 10
0.0
 20
0.0
 30
0.0
 70
   128
 71
    16
 72
    -1
 73
   -18
  0
VERTEX
  5
5D459
  8
0
 10
0.0
 20
0.0
 30
0.0
 70
   128
 71
   -19
 72
    15
 73
   -16
  0
VERTEX
  5
5D45A
  8
0
 10
0.0
 20
0.0
 30
0.0
 70
   128
 71
    18
 72
   -19
 73
   -16
  0
VERTEX
  5
5D45B
  8
0
 10
0.0
 20
0.0
 30
0.0
 70
   128
 71
   -20
 72
    14
 73
   -15
  0
VERTEX
  5
5D45C
  8
0
 10
0.0
 20
0.0
 30
0.0
 70
   128
 71
    19
 72
   -20
 73
   -15
  0
VERTEX
  5
5D45D
  8
0
 10
0.0
 20
0.0
 30
0.0
 70
   128
 71
   -21
 72
    13
 73
   -14
  0
VERTEX
  5
5D45E
  8
0
 10
0.0
 20
0.0
 30
0.0
 70
   128
 71
    20
 72
   -21
 73
   -14
  0
VERTEX
  5
5D45F
  8
0
 10
0.0
 20
0.0
 30
0.0
 70
   128
 71
   -22
 72
    12
 73
   -13
  0
VERTEX
  5
5D460
  8
0
 10
0.0
 20
0.0
 30
0.0
 70
   128
 71
    21
 72
   -22
 73
   -13
  0
VERTEX
  5
5D461
  8
0
 10
0.0
 20
0.0
 30
0.0
 70
   128
 71
   -23
 72
    11
 73
   -12
  0
VERTEX
  5
5D462
  8
0
 10
0.0
 20
0.0
 30
0.0
 70
   128
 71
    22
 72
   -23
 73
   -12
  0
VERTEX
  5
5D463
  8
0
 10
0.0
 20
0.0
 30
0.0
 70
   128
 71
   -24
 72
    10
 73
   -11
  0
VERTEX
  5
5D464
  8
0
 10
0.0
 20
0.0
 30
0.0
 70
   128
 71
    23
 72
   -24
 73
   -11
  0
VERTEX
  5
5D465
  8
0
 10
0.0
 20
0.0
 30
0.0
 70
   128
 71
   -25
 72
     9
 73
   -10
  0
VERTEX
  5
5D466
  8
0
 10
0.0
 20
0.0
 30
0.0
 70
   128
 71
    24
 72
   -25
 73
   -10
  0
VERTEX
  5
5D467
  8
0
 10
0.0
 20
0.0
 30
0.0
 70
   128
 71
   -26
 72
     8
 73
    -9
  0
VERTEX
  5
5D468
  8
0
 10
0.0
 20
0.0
 30
0.0
 70
   128
 71
    25
 72
   -26
 73
    -9
  0
VERTEX
  5
5D469
  8
0
 10
0.0
 20
0.0
 30
0.0
 70
   128
 71
   -27
 72
     7
 73
    -8
  0
VERTEX
  5
5D46A
  8
0
 10
0.0
 20
0.0
 30
0.0
 70
   128
 71
    26
 72
   -27
 73
    -8
  0
VERTEX
  5
5D46B
  8
0
 10
0.0
 20
0.0
 30
0.0
 70
   128
 71
   -28
 72
     6
 73
    -7
  0
VERTEX
  5
5D46C
  8
0
 10
0.0
 20
0.0
 30
0.0
 70
   128
 71
    27
 72
   -28
 73
    -7
  0
VERTEX
  5
5D46D
  8
0
 10
0.0
 20
0.0
 30
0.0
 70
   128
 71
   -29
 72
     5
 73
    -6
  0
VERTEX
  5
5D46E
  8
0
 10
0.0
 20
0.0
 30
0.0
 70
   128
 71
    28
 72
   -29
 73
    -6
  0
VERTEX
  5
5D46F
  8
0
 10
0.0
 20
0.0
 30
0.0
 70
   128
 71
   -30
 72
     4
 73
    -5
  0
VERTEX
  5
5D470
  8
0
 10
0.0
 20
0.0
 30
0.0
 70
   128
 71
    29
 72
   -30
 73
    -5
  0
VERTEX
  5
5D471
  8
0
 10
0.0
 20
0.0
 30
0.0
 70
   128
 71
   -31
 72
     3
 73
    -4
  0
VERTEX
  5
5D472
  8
0
 10
0.0
 20
0.0
 30
0.0
 70
   128
 71
    30
 72
   -31
 73
    -4
  0
VERTEX
  5
5D473
  8
0
 10
0.0
 20
0.0
 30
0.0
 70
   128
 71
   -32
 72
     2
 73
    -3
  0
VERTEX
  5
5D474
  8
0
 10
0.0
 20
0.0
 30
0.0
 70
   128
 71
    31
 72
   -32
 73
    -3
  0
VERTEX
  5
5D475
  8
0
 10
0.0
 20
0.0
 30
0.0
 70
   128
 71
   -17
 72
     1
 73
    -2
  0
VERTEX
  5
5D476
  8
0
 10
0.0
 20
0.0
 30
0.0
 70
   128
 71
    32
 72
   -17
 73
    -2
  0
SEQEND
  5
5D969
  8
0
  0
POLYLINE
  5
5D477
  8
0
 66
     1
 10
0.0
 20
0.0
 30
0.0
 70
    64
 71
    18
 72
    16
  0
VERTEX
  5
5D478
  8
0
 10
0.0001878902468333
 20
-19.112590667823
 30
200.3729776129068
 70
   192
  0
VERTEX
  5
5D479
  8
0
 10
0.0001878902479158
 20
-19.11259066781194
 30
185.3729776129068
 70
   192
  0
VERTEX
  5
5D47A
  8
0
 10
0.0001878902094743
 20
-5.112590667811948
 30
185.3729776129171
 70
   192
  0
VERTEX
  5
5D47B
  8
0
 10
0.0001878902083918
 20
-5.112590667823006
 30
200.3729776129171
 70
   192
  0
VERTEX
  5
5D47C
  8
0
 10
7.500187890208871
 20
-5.112590667796881
 30
192.8729776129177
 70
   192
  0
VERTEX
  5
5D47D
  8
0
 10
7.500187890247368
 20
-19.11259066779688
 30
192.8729776129073
 70
   192
  0
VERTEX
  5
5D47E
  8
0
 10
5.303488749108382
 20
-5.112590667799011
 30
187.5696767540184
 70
   192
  0
VERTEX
  5
5D47F
  8
0
 10
5.303488749146866
 20
-19.11259066779899
 30
187.5696767540081
 70
   192
  0
VERTEX
  5
5D480
  8
0
 10
5.303488749107616
 20
-5.112590667806829
 30
198.1762784718165
 70
   192
  0
VERTEX
  5
5D481
  8
0
 10
5.303488749146102
 20
-19.11259066780682
 30
198.1762784718062
 70
   192
  0
VERTEX
  5
5D482
  8
0
 10
6.973600148215799
 20
-19.11259066779629
 30
190.1122672911933
 70
   192
  0
VERTEX
  5
5D483
  8
0
 10
6.973600148177304
 20
-5.112590667796296
 30
190.1122672912036
 70
   192
  0
VERTEX
  5
5D484
  8
0
 10
2.760898211961926
 20
-19.11259066780475
 30
185.8995653549387
 70
   192
  0
VERTEX
  5
5D485
  8
0
 10
2.760898211923462
 20
-5.11259066780476
 30
185.8995653549491
 70
   192
  0
VERTEX
  5
5D486
  8
0
 10
2.760898211922457
 20
-5.112590667815041
 30
199.8463898708854
 70
   192
  0
VERTEX
  5
5D487
  8
0
 10
2.760898211960921
 20
-19.11259066781503
 30
199.8463898708752
 70
   192
  0
VERTEX
  5
5D488
  8
0
 10
6.973600148215401
 20
-19.11259066780035
 30
195.6336879346213
 70
   192
  0
VERTEX
  5
5D489
  8
0
 10
6.973600148176907
 20
-5.112590667800367
 30
195.6336879346316
 70
   192
  0
VERTEX
  5
5D48A
  8
0
 10
0.0
 20
0.0
 30
0.0
 70
   128
 71
     6
 72
     5
 73
   -12
  0
VERTEX
  5
5D48B
  8
0
 10
0.0
 20
0.0
 30
0.0
 70
   128
 71
    11
 72
    -6
 73
    12
  0
VERTEX
  5
5D48C
  8
0
 10
0.0
 20
0.0
 30
0.0
 70
   128
 71
     7
 72
     8
 73
   -11
  0
VERTEX
  5
5D48D
  8
0
 10
0.0
 20
0.0
 30
0.0
 70
   128
 71
    12
 72
    -7
 73
    11
  0
VERTEX
  5
5D48E
  8
0
 10
0.0
 20
0.0
 30
0.0
 70
   128
 71
     8
 72
     7
 73
   -14
  0
VERTEX
  5
5D48F
  8
0
 10
0.0
 20
0.0
 30
0.0
 70
   128
 71
    13
 72
    -8
 73
    14
  0
VERTEX
  5
5D490
  8
0
 10
0.0
 20
0.0
 30
0.0
 70
   128
 71
     3
 72
     2
 73
   -13
  0
VERTEX
  5
5D491
  8
0
 10
0.0
 20
0.0
 30
0.0
 70
   128
 71
    14
 72
    -3
 73
    13
  0
VERTEX
  5
5D492
  8
0
 10
0.0
 20
0.0
 30
0.0
 70
   128
 71
     1
 72
     4
 73
   -15
  0
VERTEX
  5
5D493
  8
0
 10
0.0
 20
0.0
 30
0.0
 70
   128
 71
    16
 72
    -1
 73
    15
  0
VERTEX
  5
5D494
  8
0
 10
0.0
 20
0.0
 30
0.0
 70
   128
 71
     9
 72
    10
 73
   -16
  0
VERTEX
  5
5D495
  8
0
 10
0.0
 20
0.0
 30
0.0
 70
   128
 71
    15
 72
    -9
 73
    16
  0
VERTEX
  5
5D496
  8
0
 10
0.0
 20
0.0
 30
0.0
 70
   128
 71
    10
 72
     9
 73
   -18
  0
VERTEX
  5
5D497
  8
0
 10
0.0
 20
0.0
 30
0.0
 70
   128
 71
    17
 72
   -10
 73
    18
  0
VERTEX
  5
5D498
  8
0
 10
0.0
 20
0.0
 30
0.0
 70
   128
 71
     5
 72
     6
 73
   -17
  0
VERTEX
  5
5D499
  8
0
 10
0.0
 20
0.0
 30
0.0
 70
   128
 71
    18
 72
    -5
 73
    17
  0
SEQEND
  5
5D96A
  8
0
  0
POLYLINE
  5
5D49A
  8
0
 66
     1
 10
0.0
 20
0.0
 30
0.0
 70
    64
 71
    18
 72
    16
  0
VERTEX
  5
5D49B
  8
0
 10
0.0001878902479158
 20
-19.11259066781194
 30
185.3729776129068
 70
   192
  0
VERTEX
  5
5D49C
  8
0
 10
0.0001878902468333
 20
-19.112590667823
 30
200.3729776129068
 70
   192
  0
VERTEX
  5
5D49D
  8
0
 10
0.0001878902083918
 20
-5.112590667823006
 30
200.3729776129171
 70
   192
  0
VERTEX
  5
5D49E
  8
0
 10
0.0001878902094743
 20
-5.112590667811948
 30
185.3729776129171
 70
   192
  0
VERTEX
  5
5D49F
  8
0
 10
-7.49981210979106
 20
-5.112590667838073
 30
192.8729776129166
 70
   192
  0
VERTEX
  5
5D4A0
  8
0
 10
-7.499812109752618
 20
-19.11259066783807
 30
192.8729776129063
 70
   192
  0
VERTEX
  5
5D4A1
  8
0
 10
-5.303112968690551
 20
-5.112590667835956
 30
198.1762784718157
 70
   192
  0
VERTEX
  5
5D4A2
  8
0
 10
-5.303112968652106
 20
-19.11259066783594
 30
198.1762784718054
 70
   192
  0
VERTEX
  5
5D4A3
  8
0
 10
-5.303112968689785
 20
-5.112590667828138
 30
187.5696767540176
 70
   192
  0
VERTEX
  5
5D4A4
  8
0
 10
-5.303112968651343
 20
-19.11259066782813
 30
187.5696767540074
 70
   192
  0
VERTEX
  5
5D4A5
  8
0
 10
-6.973224367721042
 20
-19.11259066783865
 30
195.6336879346203
 70
   192
  0
VERTEX
  5
5D4A6
  8
0
 10
-6.973224367759487
 20
-5.112590667838666
 30
195.6336879346306
 70
   192
  0
VERTEX
  5
5D4A7
  8
0
 10
-2.760522431467169
 20
-19.11259066783019
 30
199.8463898708747
 70
   192
  0
VERTEX
  5
5D4A8
  8
0
 10
-2.760522431505613
 20
-5.112590667830204
 30
199.846389870885
 70
   192
  0
VERTEX
  5
5D4A9
  8
0
 10
-2.760522431504608
 20
-5.112590667819923
 30
185.8995653549487
 70
   192
  0
VERTEX
  5
5D4AA
  8
0
 10
-2.760522431466164
 20
-19.11259066781991
 30
185.8995653549384
 70
   192
  0
VERTEX
  5
5D4AB
  8
0
 10
-6.973224367720643
 20
-19.11259066783458
 30
190.1122672911922
 70
   192
  0
VERTEX
  5
5D4AC
  8
0
 10
-6.973224367759088
 20
-5.112590667834596
 30
190.1122672912026
 70
   192
  0
VERTEX
  5
5D4AD
  8
0
 10
0.0
 20
0.0
 30
0.0
 70
   128
 71
     6
 72
     5
 73
   -12
  0
VERTEX
  5
5D4AE
  8
0
 10
0.0
 20
0.0
 30
0.0
 70
   128
 71
    11
 72
    -6
 73
    12
  0
VERTEX
  5
5D4AF
  8
0
 10
0.0
 20
0.0
 30
0.0
 70
   128
 71
     7
 72
     8
 73
   -11
  0
VERTEX
  5
5D4B0
  8
0
 10
0.0
 20
0.0
 30
0.0
 70
   128
 71
    12
 72
    -7
 73
    11
  0
VERTEX
  5
5D4B1
  8
0
 10
0.0
 20
0.0
 30
0.0
 70
   128
 71
     8
 72
     7
 73
   -14
  0
VERTEX
  5
5D4B2
  8
0
 10
0.0
 20
0.0
 30
0.0
 70
   128
 71
    13
 72
    -8
 73
    14
  0
VERTEX
  5
5D4B3
  8
0
 10
0.0
 20
0.0
 30
0.0
 70
   128
 71
     3
 72
     2
 73
   -13
  0
VERTEX
  5
5D4B4
  8
0
 10
0.0
 20
0.0
 30
0.0
 70
   128
 71
    14
 72
    -3
 73
    13
  0
VERTEX
  5
5D4B5
  8
0
 10
0.0
 20
0.0
 30
0.0
 70
   128
 71
     1
 72
     4
 73
   -15
  0
VERTEX
  5
5D4B6
  8
0
 10
0.0
 20
0.0
 30
0.0
 70
   128
 71
    16
 72
    -1
 73
    15
  0
VERTEX
  5
5D4B7
  8
0
 10
0.0
 20
0.0
 30
0.0
 70
   128
 71
     9
 72
    10
 73
   -16
  0
VERTEX
  5
5D4B8
  8
0
 10
0.0
 20
0.0
 30
0.0
 70
   128
 71
    15
 72
    -9
 73
    16
  0
VERTEX
  5
5D4B9
  8
0
 10
0.0
 20
0.0
 30
0.0
 70
   128
 71
    10
 72
     9
 73
   -18
  0
VERTEX
  5
5D4BA
  8
0
 10
0.0
 20
0.0
 30
0.0
 70
   128
 71
    17
 72
   -10
 73
    18
  0
VERTEX
  5
5D4BB
  8
0
 10
0.0
 20
0.0
 30
0.0
 70
   128
 71
     5
 72
     6
 73
   -17
  0
VERTEX
  5
5D4BC
  8
0
 10
0.0
 20
0.0
 30
0.0
 70
   128
 71
    18
 72
    -5
 73
    17
  0
SEQEND
  5
5D96B
  8
0
  0
POLYLINE
  5
5D4BD
  8
0
 66
     1
 10
0.0
 20
0.0
 30
0.0
 70
    64
 71
    16
 72
    14
  0
VERTEX
  5
5D4BE
  8
0
 10
-8.739553038921372
 20
-19.11259066783893
 30
189.4129938775843
 70
   192
  0
VERTEX
  5
5D4BF
  8
0
 10
-9.399522688152647
 20
-19.11259066784329
 30
192.8729776129062
 70
   192
  0
VERTEX
  5
5D4C0
  8
0
 10
-9.399522688176058
 20
-10.61259066784329
 30
192.8729776129133
 70
   192
  0
VERTEX
  5
5D4C1
  8
0
 10
-8.140200258890744
 20
-10.61259066783636
 30
188.1731223237115
 70
   192
  0
VERTEX
  5
5D4C2
  8
0
 10
-6.646411200929418
 20
-19.11259066783083
 30
186.2263785217285
 70
   192
  0
VERTEX
  5
5D4C3
  8
0
 10
-4.699667398975161
 20
-10.61259066782438
 30
184.732589463797
 70
   192
  0
VERTEX
  5
5D4C4
  8
0
 10
0.0001878902239445
 20
-10.61259066781054
 30
183.4732670345133
 70
   192
  0
VERTEX
  5
5D4C5
  8
0
 10
0.0001878902480548
 20
-19.11248657585055
 30
183.4732670345069
 70
   192
  0
VERTEX
  5
5D4C6
  8
0
 10
-3.459795845073626
 20
-19.11259066782054
 30
184.1332366837375
 70
   192
  0
VERTEX
  5
5D4C7
  8
0
 10
3.46017162557089
 20
-19.11259066780154
 30
184.1332366837384
 70
   192
  0
VERTEX
  5
5D4C8
  8
0
 10
4.700043179423051
 20
-10.61259066779857
 30
184.732589463797
 70
   192
  0
VERTEX
  5
5D4C9
  8
0
 10
6.646786981427046
 20
-19.11259066779432
 30
186.2263785217312
 70
   192
  0
VERTEX
  5
5D4CA
  8
0
 10
8.140576039338631
 20
-10.61259066779166
 30
188.1731223237115
 70
   192
  0
VERTEX
  5
5D4CB
  8
0
 10
9.399898468623944
 20
-10.61259066779166
 30
192.8729776129102
 70
   192
  0
VERTEX
  5
5D4CC
  8
0
 10
9.399898468647283
 20
-19.11259066779166
 30
192.872977612907
 70
   192
  0
VERTEX
  5
5D4CD
  8
0
 10
8.73992881941783
 20
-19.11259066779093
 30
189.4129938775881
 70
   192
  0
VERTEX
  5
5D4CE
  8
0
 10
0.0
 20
0.0
 30
0.0
 70
   128
 71
     1
 72
     2
 73
     3
  0
VERTEX
  5
5D4CF
  8
0
 10
0.0
 20
0.0
 30
0.0
 70
   128
 71
     1
 72
     3
 73
     4
  0
VERTEX
  5
5D4D0
  8
0
 10
0.0
 20
0.0
 30
0.0
 70
   128
 71
     4
 72
     5
 73
     1
  0
VERTEX
  5
5D4D1
  8
0
 10
0.0
 20
0.0
 30
0.0
 70
   128
 71
     6
 72
     7
 73
     8
  0
VERTEX
  5
5D4D2
  8
0
 10
0.0
 20
0.0
 30
0.0
 70
   128
 71
     6
 72
     8
 73
     9
  0
VERTEX
  5
5D4D3
  8
0
 10
0.0
 20
0.0
 30
0.0
 70
   128
 71
    10
 72
     8
 73
     7
  0
VERTEX
  5
5D4D4
  8
0
 10
0.0
 20
0.0
 30
0.0
 70
   128
 71
    10
 72
     7
 73
    11
  0
VERTEX
  5
5D4D5
  8
0
 10
0.0
 20
0.0
 30
0.0
 70
   128
 71
    11
 72
    12
 73
    10
  0
VERTEX
  5
5D4D6
  8
0
 10
0.0
 20
0.0
 30
0.0
 70
   128
 71
    13
 72
    14
 73
    15
  0
VERTEX
  5
5D4D7
  8
0
 10
0.0
 20
0.0
 30
0.0
 70
   128
 71
    13
 72
    15
 73
    16
  0
VERTEX
  5
5D4D8
  8
0
 10
0.0
 20
0.0
 30
0.0
 70
   128
 71
     4
 72
     6
 73
     9
  0
VERTEX
  5
5D4D9
  8
0
 10
0.0
 20
0.0
 30
0.0
 70
   128
 71
     4
 72
     9
 73
     5
  0
VERTEX
  5
5D4DA
  8
0
 10
0.0
 20
0.0
 30
0.0
 70
   128
 71
    11
 72
    13
 73
    16
  0
VERTEX
  5
5D4DB
  8
0
 10
0.0
 20
0.0
 30
0.0
 70
   128
 71
    11
 72
    16
 73
    12
  0
SEQEND
  5
5D96C
  8
0
  0
ENDBLK
  5
5D960
  8
0
  0
BLOCK
  8
0
  2
*X2
 70
     1
 10
0.0
 20
0.0
 30
0.0
  3
*X2
  1

  0
POLYLINE
  5
5D4DD
  8
0
 66
     1
 10
0.0
 20
0.0
 30
0.0
 70
    64
 71
    15
 72
    13
  0
VERTEX
  5
5D4DE
  8
0
 10
4.166283351556517
 20
-5.101591082977538
 30
185.6597455059219
 70
   192
  0
VERTEX
  5
5D4DF
  8
0
 10
0.0001878902095428
 20
-5.102093234981914
 30
184.5429052713839
 70
   192
  0
VERTEX
  5
5D4E0
  8
0
 10
0.0001878902095636
 20
-5.108003750424796
 30
184.494060220321
 70
   192
  0
VERTEX
  5
5D4E1
  8
0
 10
0.0001878902095777
 20
-5.111464427297209
 30
184.445836924805
 70
   192
  0
VERTEX
  5
5D4E2
  8
0
 10
0.0001878902095853
 20
-5.11259066781123
 30
184.3983899795881
 70
   192
  0
VERTEX
  5
5D4E3
  8
0
 10
4.172387773508694
 20
-5.094002556705552
 30
200.0829787172747
 70
   192
  0
VERTEX
  5
5D4E4
  8
0
 10
0.0001878902083082
 20
-5.110544532410644
 30
201.334451852027
 70
   192
  0
VERTEX
  5
5D4E5
  8
0
 10
0.0001878902082961
 20
-5.104211397751789
 30
201.2692066680621
 70
   192
  0
VERTEX
  5
5D4E6
  8
0
 10
0.0001878902082716
 20
-5.093326246141914
 30
201.2030499544507
 70
   192
  0
VERTEX
  5
5D4E7
  8
0
 10
8.330260231742121
 20
-5.098053890338581
 30
192.8729776129288
 70
   192
  0
VERTEX
  5
5D4E8
  8
0
 10
7.414401452582412
 20
-5.112590667794077
 30
188.7415357300963
 70
   192
  0
VERTEX
  5
5D4E9
  8
0
 10
7.414401452581788
 20
-5.112590667800204
 30
197.0552442290811
 70
   192
  0
VERTEX
  5
5D4EA
  8
0
 10
7.21250736575562
 20
-5.100160118467583
 30
188.7049286240164
 70
   192
  0
VERTEX
  5
5D4EB
  8
0
 10
0.0001878902083086
 20
-5.112590667823762
 30
201.3983899795881
 70
   192
  0
VERTEX
  5
5D4EC
  8
0
 10
7.218763651570336
 20
-5.095781437416835
 30
197.0303289006958
 70
   192
  0
VERTEX
  5
5D4ED
  8
0
 10
0.0
 20
0.0
 30
0.0
 70
   128
 71
     1
 72
     2
 73
     3
  0
VERTEX
  5
5D4EE
  8
0
 10
0.0
 20
0.0
 30
0.0
 70
   128
 71
     3
 72
     4
 73
     1
  0
VERTEX
  5
5D4EF
  8
0
 10
0.0
 20
0.0
 30
0.0
 70
   128
 71
     1
 72
     4
 73
     5
  0
VERTEX
  5
5D4F0
  8
0
 10
0.0
 20
0.0
 30
0.0
 70
   128
 71
     6
 72
     7
 73
     8
  0
VERTEX
  5
5D4F1
  8
0
 10
0.0
 20
0.0
 30
0.0
 70
   128
 71
     8
 72
     9
 73
     6
  0
VERTEX
  5
5D4F2
  8
0
 10
0.0
 20
0.0
 30
0.0
 70
   128
 71
    10
 72
    11
 73
    12
  0
VERTEX
  5
5D4F3
  8
0
 10
0.0
 20
0.0
 30
0.0
 70
   128
 71
    10
 72
    13
 73
    11
  0
VERTEX
  5
5D4F4
  8
0
 10
0.0
 20
0.0
 30
0.0
 70
   128
 71
     1
 72
     5
 73
    11
  0
VERTEX
  5
5D4F5
  8
0
 10
0.0
 20
0.0
 30
0.0
 70
   128
 71
    14
 72
     7
 73
     6
  0
VERTEX
  5
5D4F6
  8
0
 10
0.0
 20
0.0
 30
0.0
 70
   128
 71
    11
 72
    13
 73
     1
  0
VERTEX
  5
5D4F7
  8
0
 10
0.0
 20
0.0
 30
0.0
 70
   128
 71
    12
 72
    15
 73
    10
  0
VERTEX
  5
5D4F8
  8
0
 10
0.0
 20
0.0
 30
0.0
 70
   128
 71
    12
 72
    14
 73
     6
  0
VERTEX
  5
5D4F9
  8
0
 10
0.0
 20
0.0
 30
0.0
 70
   128
 71
     6
 72
    15
 73
    12
  0
SEQEND
  5
5D96F
  8
0
  0
POLYLINE
  5
5D4FA
  8
0
 66
     1
 10
0.0
 20
0.0
 30
0.0
 70
    64
 71
    12
 72
    10
  0
VERTEX
  5
5D4FB
  8
0
 10
8.330260231742121
 20
-5.098053890338581
 30
192.8729776129288
 70
   192
  0
VERTEX
  5
5D4FC
  8
0
 10
8.330260231713927
 20
5.169372452202797
 30
192.8729776129249
 70
   192
  0
VERTEX
  5
5D4FD
  8
0
 10
5.890438530651969
 20
5.169372452200441
 30
186.9827269724508
 70
   192
  0
VERTEX
  5
5D4FE
  8
0
 10
7.21250736575562
 20
-5.100160118467583
 30
188.7049286240164
 70
   192
  0
VERTEX
  5
5D4FF
  8
0
 10
0.0001878901806012
 20
5.169372452186065
 30
184.5429052713916
 70
   192
  0
VERTEX
  5
5D500
  8
0
 10
0.0001878902095427
 20
-5.102093234981914
 30
184.5429052713839
 70
   192
  0
VERTEX
  5
5D501
  8
0
 10
4.166283351556517
 20
-5.101591082977538
 30
185.6597455059219
 70
   192
  0
VERTEX
  5
5D502
  8
0
 10
-5.890062750290765
 20
5.169372452168091
 30
186.9827269724508
 70
   192
  0
VERTEX
  5
5D503
  8
0
 10
-4.163096250186237
 20
-5.101591902121234
 30
185.6579446871087
 70
   192
  0
VERTEX
  5
5D504
  8
0
 10
-8.329884451352719
 20
5.169372452157049
 30
192.8729776129211
 70
   192
  0
VERTEX
  5
5D505
  8
0
 10
-8.329884451324522
 20
-5.098053890384357
 30
192.8729776129173
 70
   192
  0
VERTEX
  5
5D506
  8
0
 10
-7.213117846911559
 20
-5.100159362159989
 30
188.7064926260664
 70
   192
  0
VERTEX
  5
5D507
  8
0
 10
0.0
 20
0.0
 30
0.0
 70
   128
 71
     1
 72
     2
 73
     3
  0
VERTEX
  5
5D508
  8
0
 10
0.0
 20
0.0
 30
0.0
 70
   128
 71
     4
 72
     1
 73
     3
  0
VERTEX
  5
5D509
  8
0
 10
0.0
 20
0.0
 30
0.0
 70
   128
 71
     5
 72
     6
 73
     7
  0
VERTEX
  5
5D50A
  8
0
 10
0.0
 20
0.0
 30
0.0
 70
   128
 71
     3
 72
     5
 73
     7
  0
VERTEX
  5
5D50B
  8
0
 10
0.0
 20
0.0
 30
0.0
 70
   128
 71
     6
 72
     5
 73
     8
  0
VERTEX
  5
5D50C
  8
0
 10
0.0
 20
0.0
 30
0.0
 70
   128
 71
     9
 72
     6
 73
     8
  0
VERTEX
  5
5D50D
  8
0
 10
0.0
 20
0.0
 30
0.0
 70
   128
 71
    10
 72
    11
 73
    12
  0
VERTEX
  5
5D50E
  8
0
 10
0.0
 20
0.0
 30
0.0
 70
   128
 71
     8
 72
    10
 73
    12
  0
VERTEX
  5
5D50F
  8
0
 10
0.0
 20
0.0
 30
0.0
 70
   128
 71
     3
 72
     7
 73
     4
  0
VERTEX
  5
5D510
  8
0
 10
0.0
 20
0.0
 30
0.0
 70
   128
 71
     8
 72
    12
 73
     9
  0
SEQEND
  5
5D970
  8
0
  0
POLYLINE
  5
5D511
  8
0
 66
     1
 10
0.0
 20
0.0
 30
0.0
 70
    64
 71
    32
 72
    32
  0
VERTEX
  5
5D512
  8
0
 10
28.61998405964339
 20
24.88740933253471
 30
-158.5857347011776
 70
   192
  0
VERTEX
  5
5D513
  8
0
 10
31.0651924416977
 20
24.24871142806637
 30
-158.5857347011522
 70
   192
  0
VERTEX
  5
5D514
  8
0
 10
32.98128615516958
 20
22.33261771461286
 30
-158.5857347011551
 70
   192
  0
VERTEX
  5
5D515
  8
0
 10
33.6199840596669
 20
19.88740933255915
 30
-158.5857347011851
 70
   192
  0
VERTEX
  5
5D516
  8
0
 10
33.61998405976002
 20
-15.11259066750486
 30
-158.5857347012101
 70
   192
  0
VERTEX
  5
5D517
  8
0
 10
32.98128615526439
 20
-17.55779904954787
 30
-158.5857347011089
 70
   192
  0
VERTEX
  5
5D518
  8
0
 10
31.06519244181596
 20
-19.47389276299035
 30
-158.5857347011094
 70
   192
  0
VERTEX
  5
5D519
  8
0
 10
28.61998405978256
 20
-20.11259066746679
 30
-158.5857347012115
 70
   192
  0
VERTEX
  5
5D51A
  8
0
 10
-26.38001594022835
 20
-20.11259066765963
 30
-158.5857347012161
 70
   192
  0
VERTEX
  5
5D51B
  8
0
 10
-28.82522432228468
 20
-19.47389276318108
 30
-158.585734700614
 70
   192
  0
VERTEX
  5
5D51C
  8
0
 10
-30.74131803575024
 20
-17.55779904972701
 30
-158.5857347006132
 70
   192
  0
VERTEX
  5
5D51D
  8
0
 10
-31.38001594024409
 20
-15.11259066767386
 30
-158.5857347012142
 70
   192
  0
VERTEX
  5
5D51E
  8
0
 10
-31.38001594034209
 20
19.88740933238222
 30
-158.5857347011884
 70
   192
  0
VERTEX
  5
5D51F
  8
0
 10
-30.74131803585064
 20
22.33261771443393
 30
-158.5857347005952
 70
   192
  0
VERTEX
  5
5D520
  8
0
 10
-28.82522432239867
 20
24.24871142788612
 30
-158.5857347005931
 70
   192
  0
VERTEX
  5
5D521
  8
0
 10
-26.38001594035433
 20
24.88740933237057
 30
-158.5857347011828
 70
   192
  0
VERTEX
  5
5D522
  8
0
 10
16.50018789019308
 20
9.887409332486932
 30
-158.5857347011916
 70
   192
  0
VERTEX
  5
5D523
  8
0
 10
-16.49981210980694
 20
9.887409332396308
 30
-158.585734701194
 70
   192
  0
VERTEX
  5
5D524
  8
0
 10
-16.98885378621744
 20
9.759669751497684
 30
-158.5857347011942
 70
   192
  0
VERTEX
  5
5D525
  8
0
 10
-17.37207252890824
 20
9.376451008804787
 30
-158.5857347011944
 70
   192
  0
VERTEX
  5
5D526
  8
0
 10
-17.49981210980419
 20
8.88740933239357
 30
-158.5857347011948
 70
   192
  0
VERTEX
  5
5D527
  8
0
 10
-17.49981210976849
 20
-4.11259066760644
 30
-158.5857347012044
 70
   192
  0
VERTEX
  5
5D528
  8
0
 10
-17.37207252886986
 20
-4.601632344016966
 30
-158.5857347012048
 70
   192
  0
VERTEX
  5
5D529
  8
0
 10
-16.98885378617695
 20
-4.984851086707758
 30
-158.5857347012046
 70
   192
  0
VERTEX
  5
5D52A
  8
0
 10
-16.49981210976574
 20
-5.112590667603693
 30
-158.5857347012038
 70
   192
  0
VERTEX
  5
5D52B
  8
0
 10
16.50018789023425
 20
-5.112590667513071
 30
-158.5857347012027
 70
   192
  0
VERTEX
  5
5D52C
  8
0
 10
16.98922956664473
 20
-4.984851086614433
 30
-158.5857347012026
 70
   192
  0
VERTEX
  5
5D52D
  8
0
 10
17.37244830933549
 20
-4.601632343921536
 30
-158.5857347012023
 70
   192
  0
VERTEX
  5
5D52E
  8
0
 10
17.50018789023142
 20
-4.112590667510328
 30
-158.5857347012019
 70
   192
  0
VERTEX
  5
5D52F
  8
0
 10
17.50018789019581
 20
8.887409332489682
 30
-158.5857347011923
 70
   192
  0
VERTEX
  5
5D530
  8
0
 10
17.37244830929719
 20
9.376451008900197
 30
-158.5857347011917
 70
   192
  0
VERTEX
  5
5D531
  8
0
 10
16.98922956660429
 20
9.75966975159099
 30
-158.5857347011914
 70
   192
  0
VERTEX
  5
5D532
  8
0
 10
0.0
 20
0.0
 30
0.0
 70
   128
 71
    -4
 72
    17
 73
   -18
  0
VERTEX
  5
5D533
  8
0
 10
0.0
 20
0.0
 30
0.0
 70
   128
 71
     3
 72
    -4
 73
   -18
  0
VERTEX
  5
5D534
  8
0
 10
0.0
 20
0.0
 30
0.0
 70
   128
 71
     2
 72
    -3
 73
   -18
  0
VERTEX
  5
5D535
  8
0
 10
0.0
 20
0.0
 30
0.0
 70
   128
 71
     1
 72
    -2
 73
   -18
  0
VERTEX
  5
5D536
  8
0
 10
0.0
 20
0.0
 30
0.0
 70
   128
 71
    16
 72
    -1
 73
   -18
  0
VERTEX
  5
5D537
  8
0
 10
0.0
 20
0.0
 30
0.0
 70
   128
 71
    18
 72
   -19
 73
   -16
  0
VERTEX
  5
5D538
  8
0
 10
0.0
 20
0.0
 30
0.0
 70
   128
 71
    19
 72
   -20
 73
   -16
  0
VERTEX
  5
5D539
  8
0
 10
0.0
 20
0.0
 30
0.0
 70
   128
 71
    20
 72
   -21
 73
   -16
  0
VERTEX
  5
5D53A
  8
0
 10
0.0
 20
0.0
 30
0.0
 70
   128
 71
    14
 72
    15
 73
   -16
  0
VERTEX
  5
5D53B
  8
0
 10
0.0
 20
0.0
 30
0.0
 70
   128
 71
    13
 72
   -14
 73
   -16
  0
VERTEX
  5
5D53C
  8
0
 10
0.0
 20
0.0
 30
0.0
 70
   128
 71
    12
 72
   -13
 73
   -16
  0
VERTEX
  5
5D53D
  8
0
 10
0.0
 20
0.0
 30
0.0
 70
   128
 71
   -22
 72
   -12
 73
   -16
  0
VERTEX
  5
5D53E
  8
0
 10
0.0
 20
0.0
 30
0.0
 70
   128
 71
    21
 72
   -22
 73
   -16
  0
VERTEX
  5
5D53F
  8
0
 10
0.0
 20
0.0
 30
0.0
 70
   128
 71
    22
 72
   -23
 73
   -12
  0
VERTEX
  5
5D540
  8
0
 10
0.0
 20
0.0
 30
0.0
 70
   128
 71
    23
 72
   -24
 73
   -12
  0
VERTEX
  5
5D541
  8
0
 10
0.0
 20
0.0
 30
0.0
 70
   128
 71
    24
 72
   -25
 73
   -12
  0
VERTEX
  5
5D542
  8
0
 10
0.0
 20
0.0
 30
0.0
 70
   128
 71
    10
 72
    11
 73
   -12
  0
VERTEX
  5
5D543
  8
0
 10
0.0
 20
0.0
 30
0.0
 70
   128
 71
     9
 72
   -10
 73
   -12
  0
VERTEX
  5
5D544
  8
0
 10
0.0
 20
0.0
 30
0.0
 70
   128
 71
     8
 72
    -9
 73
   -12
  0
VERTEX
  5
5D545
  8
0
 10
0.0
 20
0.0
 30
0.0
 70
   128
 71
   -26
 72
    -8
 73
   -12
  0
VERTEX
  5
5D546
  8
0
 10
0.0
 20
0.0
 30
0.0
 70
   128
 71
    25
 72
   -26
 73
   -12
  0
VERTEX
  5
5D547
  8
0
 10
0.0
 20
0.0
 30
0.0
 70
   128
 71
    26
 72
   -27
 73
    -8
  0
VERTEX
  5
5D548
  8
0
 10
0.0
 20
0.0
 30
0.0
 70
   128
 71
    27
 72
   -28
 73
    -8
  0
VERTEX
  5
5D549
  8
0
 10
0.0
 20
0.0
 30
0.0
 70
   128
 71
    28
 72
   -29
 73
    -8
  0
VERTEX
  5
5D54A
  8
0
 10
0.0
 20
0.0
 30
0.0
 70
   128
 71
     6
 72
     7
 73
    -8
  0
VERTEX
  5
5D54B
  8
0
 10
0.0
 20
0.0
 30
0.0
 70
   128
 71
     5
 72
    -6
 73
    -8
  0
VERTEX
  5
5D54C
  8
0
 10
0.0
 20
0.0
 30
0.0
 70
   128
 71
     4
 72
    -5
 73
    -8
  0
VERTEX
  5
5D54D
  8
0
 10
0.0
 20
0.0
 30
0.0
 70
   128
 71
   -30
 72
    -4
 73
    -8
  0
VERTEX
  5
5D54E
  8
0
 10
0.0
 20
0.0
 30
0.0
 70
   128
 71
    29
 72
   -30
 73
    -8
  0
VERTEX
  5
5D54F
  8
0
 10
0.0
 20
0.0
 30
0.0
 70
   128
 71
    30
 72
   -31
 73
    -4
  0
VERTEX
  5
5D550
  8
0
 10
0.0
 20
0.0
 30
0.0
 70
   128
 71
    31
 72
   -32
 73
    -4
  0
VERTEX
  5
5D551
  8
0
 10
0.0
 20
0.0
 30
0.0
 70
   128
 71
    32
 72
   -17
 73
    -4
  0
SEQEND
  5
5D971
  8
0
  0
POLYLINE
  5
5D552
  8
0
 66
     1
 10
0.0
 20
0.0
 30
0.0
 70
    64
 71
     8
 72
     6
  0
VERTEX
  5
5D553
  8
0
 10
-26.3800159402284
 20
-20.11259066767126
 30
-149.5857347012168
 70
   192
  0
VERTEX
  5
5D554
  8
0
 10
-28.82522432228581
 20
-19.47389276318783
 30
-149.5857347006134
 70
   192
  0
VERTEX
  5
5D555
  8
0
 10
-30.7413180357504
 20
-17.55779904973179
 30
-149.5857347006123
 70
   192
  0
VERTEX
  5
5D556
  8
0
 10
-31.38001594024463
 20
-15.1125906676773
 30
-149.5857347012141
 70
   192
  0
VERTEX
  5
5D557
  8
0
 10
-31.38001594024409
 20
-15.11259066767386
 30
-158.5857347012142
 70
   192
  0
VERTEX
  5
5D558
  8
0
 10
-30.74131803575024
 20
-17.55779904972701
 30
-158.5857347006132
 70
   192
  0
VERTEX
  5
5D559
  8
0
 10
-28.82522432228468
 20
-19.47389276318108
 30
-158.585734700614
 70
   192
  0
VERTEX
  5
5D55A
  8
0
 10
-26.38001594022835
 20
-20.11259066765963
 30
-158.5857347012161
 70
   192
  0
VERTEX
  5
5D55B
  8
0
 10
0.0
 20
0.0
 30
0.0
 70
   128
 71
     4
 72
     5
 73
    -6
  0
VERTEX
  5
5D55C
  8
0
 10
0.0
 20
0.0
 30
0.0
 70
   128
 71
     3
 72
    -4
 73
     6
  0
VERTEX
  5
5D55D
  8
0
 10
0.0
 20
0.0
 30
0.0
 70
   128
 71
     7
 72
     2
 73
    -3
  0
VERTEX
  5
5D55E
  8
0
 10
0.0
 20
0.0
 30
0.0
 70
   128
 71
     6
 72
    -7
 73
     3
  0
VERTEX
  5
5D55F
  8
0
 10
0.0
 20
0.0
 30
0.0
 70
   128
 71
     8
 72
     1
 73
    -2
  0
VERTEX
  5
5D560
  8
0
 10
0.0
 20
0.0
 30
0.0
 70
   128
 71
     7
 72
    -8
 73
     2
  0
SEQEND
  5
5D972
  8
0
  0
POLYLINE
  5
5D561
  8
0
 66
     1
 10
0.0
 20
0.0
 30
0.0
 70
    64
 71
     8
 72
     6
  0
VERTEX
  5
5D562
  8
0
 10
33.61998405976058
 20
-15.112590667529
 30
-149.5857347012088
 70
   192
  0
VERTEX
  5
5D563
  8
0
 10
32.98128615526409
 20
-17.55779904956609
 30
-149.5857347011084
 70
   192
  0
VERTEX
  5
5D564
  8
0
 10
31.06519244181544
 20
-19.47389276300078
 30
-149.5857347011095
 70
   192
  0
VERTEX
  5
5D565
  8
0
 10
28.61998405978211
 20
-20.11259066747102
 30
-149.5857347012119
 70
   192
  0
VERTEX
  5
5D566
  8
0
 10
28.61998405978256
 20
-20.11259066746679
 30
-158.5857347012115
 70
   192
  0
VERTEX
  5
5D567
  8
0
 10
31.06519244181596
 20
-19.47389276299035
 30
-158.5857347011094
 70
   192
  0
VERTEX
  5
5D568
  8
0
 10
32.98128615526439
 20
-17.55779904954787
 30
-158.5857347011089
 70
   192
  0
VERTEX
  5
5D569
  8
0
 10
33.61998405976002
 20
-15.11259066750486
 30
-158.5857347012101
 70
   192
  0
VERTEX
  5
5D56A
  8
0
 10
0.0
 20
0.0
 30
0.0
 70
   128
 71
     4
 72
     5
 73
    -6
  0
VERTEX
  5
5D56B
  8
0
 10
0.0
 20
0.0
 30
0.0
 70
   128
 71
     3
 72
    -4
 73
     6
  0
VERTEX
  5
5D56C
  8
0
 10
0.0
 20
0.0
 30
0.0
 70
   128
 71
     7
 72
     2
 73
    -3
  0
VERTEX
  5
5D56D
  8
0
 10
0.0
 20
0.0
 30
0.0
 70
   128
 71
     6
 72
    -7
 73
     3
  0
VERTEX
  5
5D56E
  8
0
 10
0.0
 20
0.0
 30
0.0
 70
   128
 71
     8
 72
     1
 73
    -2
  0
VERTEX
  5
5D56F
  8
0
 10
0.0
 20
0.0
 30
0.0
 70
   128
 71
     7
 72
    -8
 73
     2
  0
SEQEND
  5
5D973
  8
0
  0
POLYLINE
  5
5D570
  8
0
 66
     1
 10
0.0
 20
0.0
 30
0.0
 70
    64
 71
     8
 72
     6
  0
VERTEX
  5
5D571
  8
0
 10
28.61998405964053
 20
24.88740933253069
 30
-149.5857347011797
 70
   192
  0
VERTEX
  5
5D572
  8
0
 10
31.06519244169556
 20
24.24871142806014
 30
-149.5857347011533
 70
   192
  0
VERTEX
  5
5D573
  8
0
 10
32.98128615516845
 20
22.33261771460578
 30
-149.5857347011552
 70
   192
  0
VERTEX
  5
5D574
  8
0
 10
33.61998405966776
 20
19.88740933255181
 30
-149.5857347011846
 70
   192
  0
VERTEX
  5
5D575
  8
0
 10
33.6199840596669
 20
19.88740933255915
 30
-158.5857347011851
 70
   192
  0
VERTEX
  5
5D576
  8
0
 10
32.98128615516958
 20
22.33261771461286
 30
-158.5857347011551
 70
   192
  0
VERTEX
  5
5D577
  8
0
 10
31.0651924416977
 20
24.24871142806637
 30
-158.5857347011522
 70
   192
  0
VERTEX
  5
5D578
  8
0
 10
28.61998405964339
 20
24.88740933253471
 30
-158.5857347011776
 70
   192
  0
VERTEX
  5
5D579
  8
0
 10
0.0
 20
0.0
 30
0.0
 70
   128
 71
     4
 72
     5
 73
    -6
  0
VERTEX
  5
5D57A
  8
0
 10
0.0
 20
0.0
 30
0.0
 70
   128
 71
     3
 72
    -4
 73
     6
  0
VERTEX
  5
5D57B
  8
0
 10
0.0
 20
0.0
 30
0.0
 70
   128
 71
     7
 72
     2
 73
    -3
  0
VERTEX
  5
5D57C
  8
0
 10
0.0
 20
0.0
 30
0.0
 70
   128
 71
     6
 72
    -7
 73
     3
  0
VERTEX
  5
5D57D
  8
0
 10
0.0
 20
0.0
 30
0.0
 70
   128
 71
     8
 72
     1
 73
    -2
  0
VERTEX
  5
5D57E
  8
0
 10
0.0
 20
0.0
 30
0.0
 70
   128
 71
     7
 72
    -8
 73
     2
  0
SEQEND
  5
5D974
  8
0
  0
POLYLINE
  5
5D57F
  8
0
 66
     1
 10
0.0
 20
0.0
 30
0.0
 70
    64
 71
     8
 72
     6
  0
VERTEX
  5
5D580
  8
0
 10
-31.38001594034274
 20
19.8874093323944
 30
-149.5857347011879
 70
   192
  0
VERTEX
  5
5D581
  8
0
 10
-30.7413180358467
 20
22.33261771443959
 30
-149.5857347005943
 70
   192
  0
VERTEX
  5
5D582
  8
0
 10
-28.82522432239563
 20
24.24871142788155
 30
-149.5857347005925
 70
   192
  0
VERTEX
  5
5D583
  8
0
 10
-26.38001594035467
 20
24.88740933235868
 30
-149.585734701183
 70
   192
  0
VERTEX
  5
5D584
  8
0
 10
-26.38001594035433
 20
24.88740933237057
 30
-158.5857347011828
 70
   192
  0
VERTEX
  5
5D585
  8
0
 10
-28.82522432239867
 20
24.24871142788612
 30
-158.5857347005931
 70
   192
  0
VERTEX
  5
5D586
  8
0
 10
-30.74131803585064
 20
22.33261771443393
 30
-158.5857347005952
 70
   192
  0
VERTEX
  5
5D587
  8
0
 10
-31.38001594034209
 20
19.88740933238222
 30
-158.5857347011884
 70
   192
  0
VERTEX
  5
5D588
  8
0
 10
0.0
 20
0.0
 30
0.0
 70
   128
 71
     4
 72
     5
 73
    -6
  0
VERTEX
  5
5D589
  8
0
 10
0.0
 20
0.0
 30
0.0
 70
   128
 71
     3
 72
    -4
 73
     6
  0
VERTEX
  5
5D58A
  8
0
 10
0.0
 20
0.0
 30
0.0
 70
   128
 71
     7
 72
     2
 73
    -3
  0
VERTEX
  5
5D58B
  8
0
 10
0.0
 20
0.0
 30
0.0
 70
   128
 71
     6
 72
    -7
 73
     3
  0
VERTEX
  5
5D58C
  8
0
 10
0.0
 20
0.0
 30
0.0
 70
   128
 71
     8
 72
     1
 73
    -2
  0
VERTEX
  5
5D58D
  8
0
 10
0.0
 20
0.0
 30
0.0
 70
   128
 71
     7
 72
    -8
 73
     2
  0
SEQEND
  5
5D975
  8
0
  0
POLYLINE
  5
5D58E
  8
0
 66
     1
 10
0.0
 20
0.0
 30
0.0
 70
    64
 71
    32
 72
    32
  0
VERTEX
  5
5D58F
  8
0
 10
-26.38001594023012
 20
-19.11259066767519
 30
-148.585734701216
 70
   192
  0
VERTEX
  5
5D590
  8
0
 10
28.61998405977057
 20
-19.11259066746996
 30
-148.5857347012112
 70
   192
  0
VERTEX
  5
5D591
  8
0
 10
30.576150765398
 20
-18.60163234391586
 30
-148.5857347011698
 70
   192
  0
VERTEX
  5
5D592
  8
0
 10
32.10902573616761
 20
-17.06875737316972
 30
-148.5857347011689
 70
   192
  0
VERTEX
  5
5D593
  8
0
 10
32.6199840597611
 20
-15.11259066754068
 30
-148.5857347012088
 70
   192
  0
VERTEX
  5
5D594
  8
0
 10
32.61998405966909
 20
19.88740933254466
 30
-148.5857347011845
 70
   192
  0
VERTEX
  5
5D595
  8
0
 10
32.10902573608345
 20
21.8435760381935
 30
-148.5857347011723
 70
   192
  0
VERTEX
  5
5D596
  8
0
 10
30.57615076530342
 20
23.37645100895987
 30
-148.5857347011707
 70
   192
  0
VERTEX
  5
5D597
  8
0
 10
28.61998405964661
 20
23.88740933253152
 30
-148.5857347011804
 70
   192
  0
VERTEX
  5
5D598
  8
0
 10
-26.3800159402484
 20
23.88740933235737
 30
-148.5857347011838
 70
   192
  0
VERTEX
  5
5D599
  8
0
 10
-28.33618264587679
 20
23.37645100884133
 30
-148.5857347009477
 70
   192
  0
VERTEX
  5
5D59A
  8
0
 10
-29.86905761668257
 20
21.84357603808882
 30
-148.5857347009492
 70
   192
  0
VERTEX
  5
5D59B
  8
0
 10
-30.38001594034293
 20
19.88740933240184
 30
-148.5857347011876
 70
   192
  0
VERTEX
  5
5D59C
  8
0
 10
-30.38001594024481
 20
-15.11259066756758
 30
-148.5857347012139
 70
   192
  0
VERTEX
  5
5D59D
  8
0
 10
-29.86905761671933
 20
-17.06875737321241
 30
-148.5857347009741
 70
   192
  0
VERTEX
  5
5D59E
  8
0
 10
-28.33618264594223
 20
-18.60163234402511
 30
-148.5857347009748
 70
   192
  0
VERTEX
  5
5D59F
  8
0
 10
18.66218212633905
 20
-4.247145899372508
 30
-148.5857347012018
 70
   192
  0
VERTEX
  5
5D5A0
  8
0
 10
18.39330452195156
 20
-5.254945943157431
 30
-148.5857347012026
 70
   192
  0
VERTEX
  5
5D5A1
  8
0
 10
17.65918333525997
 20
-5.994950663051143
 30
-148.5857347012032
 70
   192
  0
VERTEX
  5
5D5A2
  8
0
 10
16.652925312926
 20
-6.267846704388423
 30
-148.5857347012034
 70
   192
  0
VERTEX
  5
5D5A3
  8
0
 10
-16.65254953164509
 20
-6.267846704442383
 30
-148.5857347012058
 70
   192
  0
VERTEX
  5
5D5A4
  8
0
 10
-17.65880755404277
 20
-5.994950663201722
 30
-148.5857347012057
 70
   192
  0
VERTEX
  5
5D5A5
  8
0
 10
-18.39292874073048
 20
-5.254945943281291
 30
-148.5857347012052
 70
   192
  0
VERTEX
  5
5D5A6
  8
0
 10
-18.66180634511924
 20
-4.247145899477202
 30
-148.5857347012045
 70
   192
  0
VERTEX
  5
5D5A7
  8
0
 10
-18.66180634515528
 20
9.021964565188796
 30
-148.5857347011947
 70
   192
  0
VERTEX
  5
5D5A8
  8
0
 10
-18.39292874076774
 20
10.02976460897374
 30
-148.585734701194
 70
   192
  0
VERTEX
  5
5D5A9
  8
0
 10
-17.65880755407618
 20
10.76976932886748
 30
-148.5857347011934
 70
   192
  0
VERTEX
  5
5D5AA
  8
0
 10
-16.65254953174222
 20
11.04266537020471
 30
-148.5857347011931
 70
   192
  0
VERTEX
  5
5D5AB
  8
0
 10
16.65292531282886
 20
11.04266537025867
 30
-148.5857347011907
 70
   192
  0
VERTEX
  5
5D5AC
  8
0
 10
17.65918333522655
 20
10.76976932901801
 30
-148.5857347011909
 70
   192
  0
VERTEX
  5
5D5AD
  8
0
 10
18.39330452191425
 20
10.02976460909758
 30
-148.5857347011913
 70
   192
  0
VERTEX
  5
5D5AE
  8
0
 10
18.66218212630302
 20
9.02196456529349
 30
-148.5857347011921
 70
   192
  0
VERTEX
  5
5D5AF
  8
0
 10
0.0
 20
0.0
 30
0.0
 70
   128
 71
    -2
 72
    17
 73
   -18
  0
VERTEX
  5
5D5B0
  8
0
 10
0.0
 20
0.0
 30
0.0
 70
   128
 71
    18
 72
   -19
 73
    -2
  0
VERTEX
  5
5D5B1
  8
0
 10
0.0
 20
0.0
 30
0.0
 70
   128
 71
    19
 72
   -20
 73
    -2
  0
VERTEX
  5
5D5B2
  8
0
 10
0.0
 20
0.0
 30
0.0
 70
   128
 71
   -21
 72
     1
 73
    -2
  0
VERTEX
  5
5D5B3
  8
0
 10
0.0
 20
0.0
 30
0.0
 70
   128
 71
    20
 72
   -21
 73
    -2
  0
VERTEX
  5
5D5B4
  8
0
 10
0.0
 20
0.0
 30
0.0
 70
   128
 71
    21
 72
   -22
 73
    -1
  0
VERTEX
  5
5D5B5
  8
0
 10
0.0
 20
0.0
 30
0.0
 70
   128
 71
    22
 72
   -23
 73
    -1
  0
VERTEX
  5
5D5B6
  8
0
 10
0.0
 20
0.0
 30
0.0
 70
   128
 71
    23
 72
   -24
 73
    -1
  0
VERTEX
  5
5D5B7
  8
0
 10
0.0
 20
0.0
 30
0.0
 70
   128
 71
    15
 72
    16
 73
    -1
  0
VERTEX
  5
5D5B8
  8
0
 10
0.0
 20
0.0
 30
0.0
 70
   128
 71
    14
 72
   -15
 73
    -1
  0
VERTEX
  5
5D5B9
  8
0
 10
0.0
 20
0.0
 30
0.0
 70
   128
 71
    13
 72
   -14
 73
    -1
  0
VERTEX
  5
5D5BA
  8
0
 10
0.0
 20
0.0
 30
0.0
 70
   128
 71
   -25
 72
   -13
 73
    -1
  0
VERTEX
  5
5D5BB
  8
0
 10
0.0
 20
0.0
 30
0.0
 70
   128
 71
    24
 72
   -25
 73
    -1
  0
VERTEX
  5
5D5BC
  8
0
 10
0.0
 20
0.0
 30
0.0
 70
   128
 71
    25
 72
   -26
 73
   -13
  0
VERTEX
  5
5D5BD
  8
0
 10
0.0
 20
0.0
 30
0.0
 70
   128
 71
    26
 72
   -27
 73
   -13
  0
VERTEX
  5
5D5BE
  8
0
 10
0.0
 20
0.0
 30
0.0
 70
   128
 71
    27
 72
   -28
 73
   -13
  0
VERTEX
  5
5D5BF
  8
0
 10
0.0
 20
0.0
 30
0.0
 70
   128
 71
    11
 72
    12
 73
   -13
  0
VERTEX
  5
5D5C0
  8
0
 10
0.0
 20
0.0
 30
0.0
 70
   128
 71
    10
 72
   -11
 73
   -13
  0
VERTEX
  5
5D5C1
  8
0
 10
0.0
 20
0.0
 30
0.0
 70
   128
 71
     9
 72
   -10
 73
   -13
  0
VERTEX
  5
5D5C2
  8
0
 10
0.0
 20
0.0
 30
0.0
 70
   128
 71
   -29
 72
    -9
 73
   -13
  0
VERTEX
  5
5D5C3
  8
0
 10
0.0
 20
0.0
 30
0.0
 70
   128
 71
    28
 72
   -29
 73
   -13
  0
VERTEX
  5
5D5C4
  8
0
 10
0.0
 20
0.0
 30
0.0
 70
   128
 71
    29
 72
   -30
 73
    -9
  0
VERTEX
  5
5D5C5
  8
0
 10
0.0
 20
0.0
 30
0.0
 70
   128
 71
    30
 72
   -31
 73
    -9
  0
VERTEX
  5
5D5C6
  8
0
 10
0.0
 20
0.0
 30
0.0
 70
   128
 71
    31
 72
   -32
 73
    -9
  0
VERTEX
  5
5D5C7
  8
0
 10
0.0
 20
0.0
 30
0.0
 70
   128
 71
     7
 72
     8
 73
    -9
  0
VERTEX
  5
5D5C8
  8
0
 10
0.0
 20
0.0
 30
0.0
 70
   128
 71
     6
 72
    -7
 73
    -9
  0
VERTEX
  5
5D5C9
  8
0
 10
0.0
 20
0.0
 30
0.0
 70
   128
 71
     5
 72
    -6
 73
    -9
  0
VERTEX
  5
5D5CA
  8
0
 10
0.0
 20
0.0
 30
0.0
 70
   128
 71
     4
 72
    -5
 73
    -9
  0
VERTEX
  5
5D5CB
  8
0
 10
0.0
 20
0.0
 30
0.0
 70
   128
 71
     3
 72
    -4
 73
    -9
  0
VERTEX
  5
5D5CC
  8
0
 10
0.0
 20
0.0
 30
0.0
 70
   128
 71
     2
 72
    -3
 73
    -9
  0
VERTEX
  5
5D5CD
  8
0
 10
0.0
 20
0.0
 30
0.0
 70
   128
 71
   -17
 72
    -2
 73
    -9
  0
VERTEX
  5
5D5CE
  8
0
 10
0.0
 20
0.0
 30
0.0
 70
   128
 71
    32
 72
   -17
 73
    -9
  0
SEQEND
  5
5D976
  8
0
  0
POLYLINE
  5
5D5CF
  8
0
 66
     1
 10
0.0
 20
0.0
 30
0.0
 70
    64
 71
     4
 72
     2
  0
VERTEX
  5
5D5D0
  8
0
 10
-31.38001594034274
 20
19.8874093323944
 30
-149.5857347011879
 70
   192
  0
VERTEX
  5
5D5D1
  8
0
 10
-31.38001594034209
 20
19.88740933238222
 30
-158.5857347011884
 70
   192
  0
VERTEX
  5
5D5D2
  8
0
 10
-31.38001594024409
 20
-15.11259066767386
 30
-158.5857347012142
 70
   192
  0
VERTEX
  5
5D5D3
  8
0
 10
-31.38001594024463
 20
-15.1125906676773
 30
-149.5857347012141
 70
   192
  0
VERTEX
  5
5D5D4
  8
0
 10
0.0
 20
0.0
 30
0.0
 70
   128
 71
     3
 72
     4
 73
    -1
  0
VERTEX
  5
5D5D5
  8
0
 10
0.0
 20
0.0
 30
0.0
 70
   128
 71
     2
 72
    -3
 73
     1
  0
SEQEND
  5
5D977
  8
0
  0
POLYLINE
  5
5D5D6
  8
0
 66
     1
 10
0.0
 20
0.0
 30
0.0
 70
    64
 71
     4
 72
     2
  0
VERTEX
  5
5D5D7
  8
0
 10
-26.3800159402284
 20
-20.11259066767126
 30
-149.5857347012168
 70
   192
  0
VERTEX
  5
5D5D8
  8
0
 10
-26.38001594022835
 20
-20.11259066765963
 30
-158.5857347012161
 70
   192
  0
VERTEX
  5
5D5D9
  8
0
 10
28.61998405978256
 20
-20.11259066746679
 30
-158.5857347012115
 70
   192
  0
VERTEX
  5
5D5DA
  8
0
 10
28.61998405978211
 20
-20.11259066747102
 30
-149.5857347012119
 70
   192
  0
VERTEX
  5
5D5DB
  8
0
 10
0.0
 20
0.0
 30
0.0
 70
   128
 71
     3
 72
     4
 73
    -1
  0
VERTEX
  5
5D5DC
  8
0
 10
0.0
 20
0.0
 30
0.0
 70
   128
 71
     2
 72
    -3
 73
     1
  0
SEQEND
  5
5D978
  8
0
  0
POLYLINE
  5
5D5DD
  8
0
 66
     1
 10
0.0
 20
0.0
 30
0.0
 70
    64
 71
     4
 72
     2
  0
VERTEX
  5
5D5DE
  8
0
 10
33.61998405976058
 20
-15.112590667529
 30
-149.5857347012088
 70
   192
  0
VERTEX
  5
5D5DF
  8
0
 10
33.61998405976002
 20
-15.11259066750486
 30
-158.5857347012101
 70
   192
  0
VERTEX
  5
5D5E0
  8
0
 10
33.6199840596669
 20
19.88740933255915
 30
-158.5857347011851
 70
   192
  0
VERTEX
  5
5D5E1
  8
0
 10
33.61998405966776
 20
19.88740933255181
 30
-149.5857347011846
 70
   192
  0
VERTEX
  5
5D5E2
  8
0
 10
0.0
 20
0.0
 30
0.0
 70
   128
 71
     3
 72
     4
 73
    -1
  0
VERTEX
  5
5D5E3
  8
0
 10
0.0
 20
0.0
 30
0.0
 70
   128
 71
     2
 72
    -3
 73
     1
  0
SEQEND
  5
5D979
  8
0
  0
POLYLINE
  5
5D5E4
  8
0
 66
     1
 10
0.0
 20
0.0
 30
0.0
 70
    64
 71
     4
 72
     2
  0
VERTEX
  5
5D5E5
  8
0
 10
28.61998405964053
 20
24.88740933253069
 30
-149.5857347011797
 70
   192
  0
VERTEX
  5
5D5E6
  8
0
 10
28.61998405964339
 20
24.88740933253471
 30
-158.5857347011776
 70
   192
  0
VERTEX
  5
5D5E7
  8
0
 10
-26.38001594035433
 20
24.88740933237057
 30
-158.5857347011828
 70
   192
  0
VERTEX
  5
5D5E8
  8
0
 10
-26.38001594035467
 20
24.88740933235868
 30
-149.585734701183
 70
   192
  0
VERTEX
  5
5D5E9
  8
0
 10
0.0
 20
0.0
 30
0.0
 70
   128
 71
     3
 72
     4
 73
    -1
  0
VERTEX
  5
5D5EA
  8
0
 10
0.0
 20
0.0
 30
0.0
 70
   128
 71
     2
 72
    -3
 73
     1
  0
SEQEND
  5
5D97A
  8
0
  0
POLYLINE
  5
5D5EB
  8
0
 66
     1
 10
0.0
 20
0.0
 30
0.0
 70
    64
 71
     8
 72
     6
  0
VERTEX
  5
5D5EC
  8
0
 10
-30.38001594034293
 20
19.88740933240184
 30
-148.5857347011876
 70
   192
  0
VERTEX
  5
5D5ED
  8
0
 10
-30.86905761675376
 20
19.88740933239893
 30
-148.713474282085
 70
   192
  0
VERTEX
  5
5D5EE
  8
0
 10
-31.25227635944554
 20
19.88740933239607
 30
-149.096693024777
 70
   192
  0
VERTEX
  5
5D5EF
  8
0
 10
-31.38001594034274
 20
19.8874093323944
 30
-149.5857347011879
 70
   192
  0
VERTEX
  5
5D5F0
  8
0
 10
-31.38001594024463
 20
-15.1125906676773
 30
-149.5857347012141
 70
   192
  0
VERTEX
  5
5D5F1
  8
0
 10
-31.25227635934744
 20
-15.11259066764412
 30
-149.0966930248032
 70
   192
  0
VERTEX
  5
5D5F2
  8
0
 10
-30.86905761665565
 20
-15.11259066760207
 30
-148.7134742821113
 70
   192
  0
VERTEX
  5
5D5F3
  8
0
 10
-30.38001594024481
 20
-15.11259066756758
 30
-148.5857347012139
 70
   192
  0
VERTEX
  5
5D5F4
  8
0
 10
0.0
 20
0.0
 30
0.0
 70
   128
 71
     4
 72
     5
 73
    -6
  0
VERTEX
  5
5D5F5
  8
0
 10
0.0
 20
0.0
 30
0.0
 70
   128
 71
     3
 72
    -4
 73
     6
  0
VERTEX
  5
5D5F6
  8
0
 10
0.0
 20
0.0
 30
0.0
 70
   128
 71
     7
 72
     2
 73
    -3
  0
VERTEX
  5
5D5F7
  8
0
 10
0.0
 20
0.0
 30
0.0
 70
   128
 71
     6
 72
    -7
 73
     3
  0
VERTEX
  5
5D5F8
  8
0
 10
0.0
 20
0.0
 30
0.0
 70
   128
 71
     8
 72
     1
 73
    -2
  0
VERTEX
  5
5D5F9
  8
0
 10
0.0
 20
0.0
 30
0.0
 70
   128
 71
     7
 72
    -8
 73
     2
  0
SEQEND
  5
5D97B
  8
0
  0
POLYLINE
  5
5D5FA
  8
0
 66
     1
 10
0.0
 20
0.0
 30
0.0
 70
    64
 71
     8
 72
     6
  0
VERTEX
  5
5D5FB
  8
0
 10
28.61998405964661
 20
23.88740933253152
 30
-148.5857347011804
 70
   192
  0
VERTEX
  5
5D5FC
  8
0
 10
28.61998405964428
 20
24.37645100894198
 30
-148.7134742820773
 70
   192
  0
VERTEX
  5
5D5FD
  8
0
 10
28.61998405964195
 20
24.7596697516335
 30
-149.0966930247689
 70
   192
  0
VERTEX
  5
5D5FE
  8
0
 10
28.61998405964053
 20
24.88740933253069
 30
-149.5857347011797
 70
   192
  0
VERTEX
  5
5D5FF
  8
0
 10
-26.38001594035467
 20
24.88740933235868
 30
-149.585734701183
 70
   192
  0
VERTEX
  5
5D600
  8
0
 10
-26.38001594032234
 20
24.75966975146086
 30
-149.0966930247723
 70
   192
  0
VERTEX
  5
5D601
  8
0
 10
-26.38001594028161
 20
24.37645100876851
 30
-148.7134742820807
 70
   192
  0
VERTEX
  5
5D602
  8
0
 10
-26.3800159402484
 20
23.88740933235737
 30
-148.5857347011838
 70
   192
  0
VERTEX
  5
5D603
  8
0
 10
0.0
 20
0.0
 30
0.0
 70
   128
 71
     4
 72
     5
 73
    -6
  0
VERTEX
  5
5D604
  8
0
 10
0.0
 20
0.0
 30
0.0
 70
   128
 71
     3
 72
    -4
 73
     6
  0
VERTEX
  5
5D605
  8
0
 10
0.0
 20
0.0
 30
0.0
 70
   128
 71
     7
 72
     2
 73
    -3
  0
VERTEX
  5
5D606
  8
0
 10
0.0
 20
0.0
 30
0.0
 70
   128
 71
     6
 72
    -7
 73
     3
  0
VERTEX
  5
5D607
  8
0
 10
0.0
 20
0.0
 30
0.0
 70
   128
 71
     8
 72
     1
 73
    -2
  0
VERTEX
  5
5D608
  8
0
 10
0.0
 20
0.0
 30
0.0
 70
   128
 71
     7
 72
    -8
 73
     2
  0
SEQEND
  5
5D97C
  8
0
  0
POLYLINE
  5
5D609
  8
0
 66
     1
 10
0.0
 20
0.0
 30
0.0
 70
    64
 71
     8
 72
     6
  0
VERTEX
  5
5D60A
  8
0
 10
32.61998405976111
 20
-15.11259066754069
 30
-148.5857347012089
 70
   192
  0
VERTEX
  5
5D60B
  8
0
 10
33.10902573617179
 20
-15.11259066753674
 30
-148.7134742821061
 70
   192
  0
VERTEX
  5
5D60C
  8
0
 10
33.49224447886343
 20
-15.11259066753226
 30
-149.0966930247979
 70
   192
  0
VERTEX
  5
5D60D
  8
0
 10
33.61998405976058
 20
-15.112590667529
 30
-149.5857347012088
 70
   192
  0
VERTEX
  5
5D60E
  8
0
 10
33.61998405966776
 20
19.88740933255181
 30
-149.5857347011846
 70
   192
  0
VERTEX
  5
5D60F
  8
0
 10
33.49224447877089
 20
19.88740933254989
 30
-149.0966930247737
 70
   192
  0
VERTEX
  5
5D610
  8
0
 10
33.10902573607954
 20
19.88740933254715
 30
-148.7134742820818
 70
   192
  0
VERTEX
  5
5D611
  8
0
 10
32.61998405966909
 20
19.88740933254466
 30
-148.5857347011845
 70
   192
  0
VERTEX
  5
5D612
  8
0
 10
0.0
 20
0.0
 30
0.0
 70
   128
 71
     4
 72
     5
 73
    -6
  0
VERTEX
  5
5D613
  8
0
 10
0.0
 20
0.0
 30
0.0
 70
   128
 71
     3
 72
    -4
 73
     6
  0
VERTEX
  5
5D614
  8
0
 10
0.0
 20
0.0
 30
0.0
 70
   128
 71
     7
 72
     2
 73
    -3
  0
VERTEX
  5
5D615
  8
0
 10
0.0
 20
0.0
 30
0.0
 70
   128
 71
     6
 72
    -7
 73
     3
  0
VERTEX
  5
5D616
  8
0
 10
0.0
 20
0.0
 30
0.0
 70
   128
 71
     8
 72
     1
 73
    -2
  0
VERTEX
  5
5D617
  8
0
 10
0.0
 20
0.0
 30
0.0
 70
   128
 71
     7
 72
    -8
 73
     2
  0
SEQEND
  5
5D97D
  8
0
  0
POLYLINE
  5
5D618
  8
0
 66
     1
 10
0.0
 20
0.0
 30
0.0
 70
    64
 71
     8
 72
     6
  0
VERTEX
  5
5D619
  8
0
 10
-26.38001594023012
 20
-19.11259066767519
 30
-148.585734701216
 70
   192
  0
VERTEX
  5
5D61A
  8
0
 10
-26.38001594022905
 20
-19.60163234408499
 30
-148.7134742821137
 70
   192
  0
VERTEX
  5
5D61B
  8
0
 10
-26.38001594022839
 20
-19.98485108677533
 30
-149.0966930248058
 70
   192
  0
VERTEX
  5
5D61C
  8
0
 10
-26.3800159402284
 20
-20.11259066767126
 30
-149.5857347012168
 70
   192
  0
VERTEX
  5
5D61D
  8
0
 10
28.61998405978211
 20
-20.11259066747102
 30
-149.5857347012119
 70
   192
  0
VERTEX
  5
5D61E
  8
0
 10
28.61998405977905
 20
-19.98485108657354
 30
-149.0966930248009
 70
   192
  0
VERTEX
  5
5D61F
  8
0
 10
28.61998405977463
 20
-19.60163234388128
 30
-148.7134742821088
 70
   192
  0
VERTEX
  5
5D620
  8
0
 10
28.61998405977057
 20
-19.11259066746996
 30
-148.5857347012112
 70
   192
  0
VERTEX
  5
5D621
  8
0
 10
0.0
 20
0.0
 30
0.0
 70
   128
 71
     4
 72
     5
 73
    -6
  0
VERTEX
  5
5D622
  8
0
 10
0.0
 20
0.0
 30
0.0
 70
   128
 71
     3
 72
    -4
 73
     6
  0
VERTEX
  5
5D623
  8
0
 10
0.0
 20
0.0
 30
0.0
 70
   128
 71
     7
 72
     2
 73
    -3
  0
VERTEX
  5
5D624
  8
0
 10
0.0
 20
0.0
 30
0.0
 70
   128
 71
     6
 72
    -7
 73
     3
  0
VERTEX
  5
5D625
  8
0
 10
0.0
 20
0.0
 30
0.0
 70
   128
 71
     8
 72
     1
 73
    -2
  0
VERTEX
  5
5D626
  8
0
 10
0.0
 20
0.0
 30
0.0
 70
   128
 71
     7
 72
    -8
 73
     2
  0
SEQEND
  5
5D97E
  8
0
  0
POLYLINE
  5
5D627
  8
0
 66
     1
 10
0.0
 20
0.0
 30
0.0
 70
    64
 71
    12
 72
    10
  0
VERTEX
  5
5D628
  8
0
 10
-26.3800159402284
 20
-20.11259066767126
 30
-149.5857347012168
 70
   192
  0
VERTEX
  5
5D629
  8
0
 10
-26.38001594022839
 20
-19.98485108677533
 30
-149.0966930248058
 70
   192
  0
VERTEX
  5
5D62A
  8
0
 10
-26.38001594022905
 20
-19.60163234408499
 30
-148.7134742821137
 70
   192
  0
VERTEX
  5
5D62B
  8
0
 10
-26.38001594023012
 20
-19.11259066767519
 30
-148.585734701216
 70
   192
  0
VERTEX
  5
5D62C
  8
0
 10
-28.33618264594223
 20
-18.60163234402511
 30
-148.5857347009748
 70
   192
  0
VERTEX
  5
5D62D
  8
0
 10
-29.86905761671933
 20
-17.06875737321241
 30
-148.5857347009741
 70
   192
  0
VERTEX
  5
5D62E
  8
0
 10
-30.38001594024481
 20
-15.11259066756758
 30
-148.5857347012139
 70
   192
  0
VERTEX
  5
5D62F
  8
0
 10
-30.86905761665565
 20
-15.11259066760207
 30
-148.7134742821113
 70
   192
  0
VERTEX
  5
5D630
  8
0
 10
-31.25227635934744
 20
-15.11259066764412
 30
-149.0966930248032
 70
   192
  0
VERTEX
  5
5D631
  8
0
 10
-31.38001594024463
 20
-15.1125906676773
 30
-149.5857347012142
 70
   192
  0
VERTEX
  5
5D632
  8
0
 10
-30.7413180357504
 20
-17.55779904973179
 30
-149.5857347006123
 70
   192
  0
VERTEX
  5
5D633
  8
0
 10
-28.82522432228581
 20
-19.47389276318783
 30
-149.5857347006134
 70
   192
  0
VERTEX
  5
5D634
  8
0
 10
0.0
 20
0.0
 30
0.0
 70
   128
 71
     6
 72
     7
 73
     8
  0
VERTEX
  5
5D635
  8
0
 10
0.0
 20
0.0
 30
0.0
 70
   128
 71
     9
 72
    11
 73
     6
  0
VERTEX
  5
5D636
  8
0
 10
0.0
 20
0.0
 30
0.0
 70
   128
 71
     8
 72
     9
 73
     6
  0
VERTEX
  5
5D637
  8
0
 10
0.0
 20
0.0
 30
0.0
 70
   128
 71
     9
 72
    10
 73
    11
  0
VERTEX
  5
5D638
  8
0
 10
0.0
 20
0.0
 30
0.0
 70
   128
 71
    12
 72
     5
 73
    -6
  0
VERTEX
  5
5D639
  8
0
 10
0.0
 20
0.0
 30
0.0
 70
   128
 71
    11
 72
   -12
 73
     6
  0
VERTEX
  5
5D63A
  8
0
 10
0.0
 20
0.0
 30
0.0
 70
   128
 71
    12
 72
     1
 73
     2
  0
VERTEX
  5
5D63B
  8
0
 10
0.0
 20
0.0
 30
0.0
 70
   128
 71
     3
 72
     5
 73
    12
  0
VERTEX
  5
5D63C
  8
0
 10
0.0
 20
0.0
 30
0.0
 70
   128
 71
     2
 72
     3
 73
    12
  0
VERTEX
  5
5D63D
  8
0
 10
0.0
 20
0.0
 30
0.0
 70
   128
 71
     3
 72
     4
 73
     5
  0
SEQEND
  5
5D97F
  8
0
  0
POLYLINE
  5
5D63E
  8
0
 66
     1
 10
0.0
 20
0.0
 30
0.0
 70
    64
 71
    12
 72
    10
  0
VERTEX
  5
5D63F
  8
0
 10
33.61998405976058
 20
-15.112590667529
 30
-149.5857347012088
 70
   192
  0
VERTEX
  5
5D640
  8
0
 10
33.49224447886343
 20
-15.11259066753226
 30
-149.0966930247979
 70
   192
  0
VERTEX
  5
5D641
  8
0
 10
33.10902573617179
 20
-15.11259066753674
 30
-148.7134742821061
 70
   192
  0
VERTEX
  5
5D642
  8
0
 10
32.61998405976111
 20
-15.11259066754069
 30
-148.5857347012089
 70
   192
  0
VERTEX
  5
5D643
  8
0
 10
32.10902573616761
 20
-17.06875737316972
 30
-148.5857347011689
 70
   192
  0
VERTEX
  5
5D644
  8
0
 10
30.576150765398
 20
-18.60163234391586
 30
-148.5857347011698
 70
   192
  0
VERTEX
  5
5D645
  8
0
 10
28.61998405977057
 20
-19.11259066746996
 30
-148.5857347012112
 70
   192
  0
VERTEX
  5
5D646
  8
0
 10
28.61998405977463
 20
-19.60163234388128
 30
-148.7134742821088
 70
   192
  0
VERTEX
  5
5D647
  8
0
 10
28.61998405977905
 20
-19.98485108657354
 30
-149.0966930248009
 70
   192
  0
VERTEX
  5
5D648
  8
0
 10
28.61998405978211
 20
-20.11259066747102
 30
-149.5857347012119
 70
   192
  0
VERTEX
  5
5D649
  8
0
 10
31.06519244181544
 20
-19.47389276300078
 30
-149.5857347011095
 70
   192
  0
VERTEX
  5
5D64A
  8
0
 10
32.98128615526409
 20
-17.55779904956609
 30
-149.5857347011084
 70
   192
  0
VERTEX
  5
5D64B
  8
0
 10
0.0
 20
0.0
 30
0.0
 70
   128
 71
     6
 72
     7
 73
     8
  0
VERTEX
  5
5D64C
  8
0
 10
0.0
 20
0.0
 30
0.0
 70
   128
 71
     9
 72
    11
 73
     6
  0
VERTEX
  5
5D64D
  8
0
 10
0.0
 20
0.0
 30
0.0
 70
   128
 71
     8
 72
     9
 73
     6
  0
VERTEX
  5
5D64E
  8
0
 10
0.0
 20
0.0
 30
0.0
 70
   128
 71
     9
 72
    10
 73
    11
  0
VERTEX
  5
5D64F
  8
0
 10
0.0
 20
0.0
 30
0.0
 70
   128
 71
    12
 72
     5
 73
    -6
  0
VERTEX
  5
5D650
  8
0
 10
0.0
 20
0.0
 30
0.0
 70
   128
 71
    11
 72
   -12
 73
     6
  0
VERTEX
  5
5D651
  8
0
 10
0.0
 20
0.0
 30
0.0
 70
   128
 71
    12
 72
     1
 73
     2
  0
VERTEX
  5
5D652
  8
0
 10
0.0
 20
0.0
 30
0.0
 70
   128
 71
     3
 72
     5
 73
    12
  0
VERTEX
  5
5D653
  8
0
 10
0.0
 20
0.0
 30
0.0
 70
   128
 71
     2
 72
     3
 73
    12
  0
VERTEX
  5
5D654
  8
0
 10
0.0
 20
0.0
 30
0.0
 70
   128
 71
     3
 72
     4
 73
     5
  0
SEQEND
  5
5D980
  8
0
  0
POLYLINE
  5
5D655
  8
0
 66
     1
 10
0.0
 20
0.0
 30
0.0
 70
    64
 71
    12
 72
    10
  0
VERTEX
  5
5D656
  8
0
 10
28.61998405964053
 20
24.88740933253069
 30
-149.5857347011797
 70
   192
  0
VERTEX
  5
5D657
  8
0
 10
28.61998405964195
 20
24.7596697516335
 30
-149.0966930247689
 70
   192
  0
VERTEX
  5
5D658
  8
0
 10
28.61998405964428
 20
24.37645100894198
 30
-148.7134742820773
 70
   192
  0
VERTEX
  5
5D659
  8
0
 10
28.61998405964661
 20
23.88740933253152
 30
-148.5857347011804
 70
   192
  0
VERTEX
  5
5D65A
  8
0
 10
30.57615076530342
 20
23.37645100895987
 30
-148.5857347011707
 70
   192
  0
VERTEX
  5
5D65B
  8
0
 10
32.10902573608345
 20
21.8435760381935
 30
-148.5857347011723
 70
   192
  0
VERTEX
  5
5D65C
  8
0
 10
32.6199840596691
 20
19.88740933254466
 30
-148.5857347011845
 70
   192
  0
VERTEX
  5
5D65D
  8
0
 10
33.10902573607954
 20
19.88740933254715
 30
-148.7134742820818
 70
   192
  0
VERTEX
  5
5D65E
  8
0
 10
33.49224447877089
 20
19.88740933254989
 30
-149.0966930247737
 70
   192
  0
VERTEX
  5
5D65F
  8
0
 10
33.61998405966777
 20
19.88740933255181
 30
-149.5857347011846
 70
   192
  0
VERTEX
  5
5D660
  8
0
 10
32.98128615516845
 20
22.33261771460578
 30
-149.5857347011552
 70
   192
  0
VERTEX
  5
5D661
  8
0
 10
31.06519244169556
 20
24.24871142806014
 30
-149.5857347011533
 70
   192
  0
VERTEX
  5
5D662
  8
0
 10
0.0
 20
0.0
 30
0.0
 70
   128
 71
     6
 72
     7
 73
     8
  0
VERTEX
  5
5D663
  8
0
 10
0.0
 20
0.0
 30
0.0
 70
   128
 71
     9
 72
    11
 73
     6
  0
VERTEX
  5
5D664
  8
0
 10
0.0
 20
0.0
 30
0.0
 70
   128
 71
     8
 72
     9
 73
     6
  0
VERTEX
  5
5D665
  8
0
 10
0.0
 20
0.0
 30
0.0
 70
   128
 71
     9
 72
    10
 73
    11
  0
VERTEX
  5
5D666
  8
0
 10
0.0
 20
0.0
 30
0.0
 70
   128
 71
    12
 72
     5
 73
    -6
  0
VERTEX
  5
5D667
  8
0
 10
0.0
 20
0.0
 30
0.0
 70
   128
 71
    11
 72
   -12
 73
     6
  0
VERTEX
  5
5D668
  8
0
 10
0.0
 20
0.0
 30
0.0
 70
   128
 71
    12
 72
     1
 73
     2
  0
VERTEX
  5
5D669
  8
0
 10
0.0
 20
0.0
 30
0.0
 70
   128
 71
     3
 72
     5
 73
    12
  0
VERTEX
  5
5D66A
  8
0
 10
0.0
 20
0.0
 30
0.0
 70
   128
 71
     2
 72
     3
 73
    12
  0
VERTEX
  5
5D66B
  8
0
 10
0.0
 20
0.0
 30
0.0
 70
   128
 71
     3
 72
     4
 73
     5
  0
SEQEND
  5
5D981
  8
0
  0
POLYLINE
  5
5D66C
  8
0
 66
     1
 10
0.0
 20
0.0
 30
0.0
 70
    64
 71
    12
 72
    10
  0
VERTEX
  5
5D66D
  8
0
 10
-31.38001594034274
 20
19.8874093323944
 30
-149.5857347011879
 70
   192
  0
VERTEX
  5
5D66E
  8
0
 10
-31.25227635944554
 20
19.88740933239607
 30
-149.096693024777
 70
   192
  0
VERTEX
  5
5D66F
  8
0
 10
-30.86905761675376
 20
19.88740933239893
 30
-148.713474282085
 70
   192
  0
VERTEX
  5
5D670
  8
0
 10
-30.38001594034293
 20
19.88740933240184
 30
-148.5857347011876
 70
   192
  0
VERTEX
  5
5D671
  8
0
 10
-29.86905761668257
 20
21.84357603808882
 30
-148.5857347009492
 70
   192
  0
VERTEX
  5
5D672
  8
0
 10
-28.33618264587679
 20
23.37645100884133
 30
-148.5857347009477
 70
   192
  0
VERTEX
  5
5D673
  8
0
 10
-26.3800159402484
 20
23.88740933235737
 30
-148.5857347011838
 70
   192
  0
VERTEX
  5
5D674
  8
0
 10
-26.38001594028161
 20
24.37645100876851
 30
-148.7134742820807
 70
   192
  0
VERTEX
  5
5D675
  8
0
 10
-26.38001594032234
 20
24.75966975146086
 30
-149.0966930247723
 70
   192
  0
VERTEX
  5
5D676
  8
0
 10
-26.38001594035467
 20
24.88740933235868
 30
-149.585734701183
 70
   192
  0
VERTEX
  5
5D677
  8
0
 10
-28.82522432239563
 20
24.24871142788155
 30
-149.5857347005925
 70
   192
  0
VERTEX
  5
5D678
  8
0
 10
-30.7413180358467
 20
22.33261771443959
 30
-149.5857347005943
 70
   192
  0
VERTEX
  5
5D679
  8
0
 10
0.0
 20
0.0
 30
0.0
 70
   128
 71
     6
 72
     7
 73
     8
  0
VERTEX
  5
5D67A
  8
0
 10
0.0
 20
0.0
 30
0.0
 70
   128
 71
     9
 72
    11
 73
     6
  0
VERTEX
  5
5D67B
  8
0
 10
0.0
 20
0.0
 30
0.0
 70
   128
 71
     8
 72
     9
 73
     6
  0
VERTEX
  5
5D67C
  8
0
 10
0.0
 20
0.0
 30
0.0
 70
   128
 71
     9
 72
    10
 73
    11
  0
VERTEX
  5
5D67D
  8
0
 10
0.0
 20
0.0
 30
0.0
 70
   128
 71
    12
 72
     5
 73
    -6
  0
VERTEX
  5
5D67E
  8
0
 10
0.0
 20
0.0
 30
0.0
 70
   128
 71
    11
 72
   -12
 73
     6
  0
VERTEX
  5
5D67F
  8
0
 10
0.0
 20
0.0
 30
0.0
 70
   128
 71
    12
 72
     1
 73
     2
  0
VERTEX
  5
5D680
  8
0
 10
0.0
 20
0.0
 30
0.0
 70
   128
 71
     3
 72
     5
 73
    12
  0
VERTEX
  5
5D681
  8
0
 10
0.0
 20
0.0
 30
0.0
 70
   128
 71
     2
 72
     3
 73
    12
  0
VERTEX
  5
5D682
  8
0
 10
0.0
 20
0.0
 30
0.0
 70
   128
 71
     3
 72
     4
 73
     5
  0
SEQEND
  5
5D982
  8
0
  0
POLYLINE
  5
5D683
  8
0
 66
     1
 10
0.0
 20
0.0
 30
0.0
 70
    64
 71
     8
 72
     6
  0
VERTEX
  5
5D684
  8
0
 10
-16.65254953164366
 20
-5.26784670443925
 30
-149.5857347012052
 70
   192
  0
VERTEX
  5
5D685
  8
0
 10
-16.65254953164358
 20
-5.267846704438407
 30
-150.7277819891442
 70
   192
  0
VERTEX
  5
5D686
  8
0
 10
-17.14611817563245
 20
-5.137462811390906
 30
-150.7277819891446
 70
   192
  0
VERTEX
  5
5D687
  8
0
 10
-17.5328843027447
 20
-4.74631113224539
 30
-150.7277819891443
 70
   192
  0
VERTEX
  5
5D688
  8
0
 10
-17.66180634511648
 20
-4.247145899467475
 30
-150.7277819891436
 70
   192
  0
VERTEX
  5
5D689
  8
0
 10
-17.66180634511656
 20
-4.247145899468316
 30
-149.5857347012044
 70
   192
  0
VERTEX
  5
5D68A
  8
0
 10
-17.52552096448957
 20
-4.758281388889845
 30
-149.5857347012048
 70
   192
  0
VERTEX
  5
5D68B
  8
0
 10
-17.15593228203597
 20
-5.131242601935465
 30
-149.5857347012051
 70
   192
  0
VERTEX
  5
5D68C
  8
0
 10
0.0
 20
0.0
 30
0.0
 70
   128
 71
     5
 72
     6
 73
     7
  0
VERTEX
  5
5D68D
  8
0
 10
0.0
 20
0.0
 30
0.0
 70
   128
 71
     4
 72
     5
 73
     7
  0
VERTEX
  5
5D68E
  8
0
 10
0.0
 20
0.0
 30
0.0
 70
   128
 71
     8
 72
     3
 73
     4
  0
VERTEX
  5
5D68F
  8
0
 10
0.0
 20
0.0
 30
0.0
 70
   128
 71
     7
 72
     8
 73
     4
  0
VERTEX
  5
5D690
  8
0
 10
0.0
 20
0.0
 30
0.0
 70
   128
 71
     1
 72
     2
 73
     3
  0
VERTEX
  5
5D691
  8
0
 10
0.0
 20
0.0
 30
0.0
 70
   128
 71
     8
 72
     1
 73
     3
  0
SEQEND
  5
5D983
  8
0
  0
POLYLINE
  5
5D692
  8
0
 66
     1
 10
0.0
 20
0.0
 30
0.0
 70
    64
 71
     8
 72
     6
  0
VERTEX
  5
5D693
  8
0
 10
17.66218212633694
 20
-4.247145899371314
 30
-149.5857347012019
 70
   192
  0
VERTEX
  5
5D694
  8
0
 10
17.66218212633702
 20
-4.247145899370474
 30
-150.727781989141
 70
   192
  0
VERTEX
  5
5D695
  8
0
 10
17.53326008396798
 20
-4.746311132149087
 30
-150.7277819891415
 70
   192
  0
VERTEX
  5
5D696
  8
0
 10
17.14649395685786
 20
-5.137462811296727
 30
-150.7277819891418
 70
   192
  0
VERTEX
  5
5D697
  8
0
 10
16.65292531286972
 20
-5.267846704346947
 30
-150.7277819891418
 70
   192
  0
VERTEX
  5
5D698
  8
0
 10
16.65292531286963
 20
-5.267846704347788
 30
-149.5857347012027
 70
   192
  0
VERTEX
  5
5D699
  8
0
 10
17.15630806327957
 20
-5.131242601832883
 30
-149.5857347012026
 70
   192
  0
VERTEX
  5
5D69A
  8
0
 10
17.52589674571637
 20
-4.758281388785614
 30
-149.5857347012023
 70
   192
  0
VERTEX
  5
5D69B
  8
0
 10
0.0
 20
0.0
 30
0.0
 70
   128
 71
     5
 72
     6
 73
     7
  0
VERTEX
  5
5D69C
  8
0
 10
0.0
 20
0.0
 30
0.0
 70
   128
 71
     4
 72
     5
 73
     7
  0
VERTEX
  5
5D69D
  8
0
 10
0.0
 20
0.0
 30
0.0
 70
   128
 71
     8
 72
     3
 73
     4
  0
VERTEX
  5
5D69E
  8
0
 10
0.0
 20
0.0
 30
0.0
 70
   128
 71
     7
 72
     8
 73
     4
  0
VERTEX
  5
5D69F
  8
0
 10
0.0
 20
0.0
 30
0.0
 70
   128
 71
     1
 72
     2
 73
     3
  0
VERTEX
  5
5D6A0
  8
0
 10
0.0
 20
0.0
 30
0.0
 70
   128
 71
     8
 72
     1
 73
     3
  0
SEQEND
  5
5D984
  8
0
  0
POLYLINE
  5
5D6A1
  8
0
 66
     1
 10
0.0
 20
0.0
 30
0.0
 70
    64
 71
     8
 72
     6
  0
VERTEX
  5
5D6A2
  8
0
 10
16.65292531282758
 20
10.04266537025701
 30
-149.5857347011914
 70
   192
  0
VERTEX
  5
5D6A3
  8
0
 10
16.65292531282778
 20
10.04266537025785
 30
-150.7277819891305
 70
   192
  0
VERTEX
  5
5D6A4
  8
0
 10
17.14649395681663
 20
9.912281477210348
 30
-150.7277819891301
 70
   192
  0
VERTEX
  5
5D6A5
  8
0
 10
17.5332600839289
 20
9.52112979806483
 30
-150.7277819891304
 70
   192
  0
VERTEX
  5
5D6A6
  8
0
 10
17.66218212630067
 20
9.021964565286924
 30
-150.7277819891312
 70
   192
  0
VERTEX
  5
5D6A7
  8
0
 10
17.6621821263005
 20
9.021964565286082
 30
-149.5857347011921
 70
   192
  0
VERTEX
  5
5D6A8
  8
0
 10
17.5258967456735
 20
9.53310005470761
 30
-149.5857347011917
 70
   192
  0
VERTEX
  5
5D6A9
  8
0
 10
17.1563080632199
 20
9.90606126775323
 30
-149.5857347011915
 70
   192
  0
VERTEX
  5
5D6AA
  8
0
 10
0.0
 20
0.0
 30
0.0
 70
   128
 71
     5
 72
     6
 73
     7
  0
VERTEX
  5
5D6AB
  8
0
 10
0.0
 20
0.0
 30
0.0
 70
   128
 71
     4
 72
     5
 73
     7
  0
VERTEX
  5
5D6AC
  8
0
 10
0.0
 20
0.0
 30
0.0
 70
   128
 71
     8
 72
     3
 73
     4
  0
VERTEX
  5
5D6AD
  8
0
 10
0.0
 20
0.0
 30
0.0
 70
   128
 71
     7
 72
     8
 73
     4
  0
VERTEX
  5
5D6AE
  8
0
 10
0.0
 20
0.0
 30
0.0
 70
   128
 71
     1
 72
     2
 73
     3
  0
VERTEX
  5
5D6AF
  8
0
 10
0.0
 20
0.0
 30
0.0
 70
   128
 71
     8
 72
     1
 73
     3
  0
SEQEND
  5
5D985
  8
0
  0
POLYLINE
  5
5D6B0
  8
0
 66
     1
 10
0.0
 20
0.0
 30
0.0
 70
    64
 71
     8
 72
     6
  0
VERTEX
  5
5D6B1
  8
0
 10
-17.66180634515301
 20
9.021964565189078
 30
-149.5857347011947
 70
   192
  0
VERTEX
  5
5D6B2
  8
0
 10
-17.66180634515292
 20
9.02196456518992
 30
-150.7277819891337
 70
   192
  0
VERTEX
  5
5D6B3
  8
0
 10
-17.5328843027839
 20
9.52112979796854
 30
-150.7277819891334
 70
   192
  0
VERTEX
  5
5D6B4
  8
0
 10
-17.14611817567378
 20
9.91228147711618
 30
-150.7277819891331
 70
   192
  0
VERTEX
  5
5D6B5
  8
0
 10
-16.65254953168563
 20
10.04266537016639
 30
-150.7277819891329
 70
   192
  0
VERTEX
  5
5D6B6
  8
0
 10
-16.65254953168571
 20
10.04266537016555
 30
-149.5857347011939
 70
   192
  0
VERTEX
  5
5D6B7
  8
0
 10
-17.1559322820956
 20
9.90606126765065
 30
-149.585734701194
 70
   192
  0
VERTEX
  5
5D6B8
  8
0
 10
-17.52552096453242
 20
9.533100054603377
 30
-149.5857347011943
 70
   192
  0
VERTEX
  5
5D6B9
  8
0
 10
0.0
 20
0.0
 30
0.0
 70
   128
 71
     5
 72
     6
 73
     7
  0
VERTEX
  5
5D6BA
  8
0
 10
0.0
 20
0.0
 30
0.0
 70
   128
 71
     4
 72
     5
 73
     7
  0
VERTEX
  5
5D6BB
  8
0
 10
0.0
 20
0.0
 30
0.0
 70
   128
 71
     8
 72
     3
 73
     4
  0
VERTEX
  5
5D6BC
  8
0
 10
0.0
 20
0.0
 30
0.0
 70
   128
 71
     7
 72
     8
 73
     4
  0
VERTEX
  5
5D6BD
  8
0
 10
0.0
 20
0.0
 30
0.0
 70
   128
 71
     1
 72
     2
 73
     3
  0
VERTEX
  5
5D6BE
  8
0
 10
0.0
 20
0.0
 30
0.0
 70
   128
 71
     8
 72
     1
 73
     3
  0
SEQEND
  5
5D986
  8
0
  0
POLYLINE
  5
5D6BF
  8
0
 66
     1
 10
0.0
 20
0.0
 30
0.0
 70
    64
 71
     4
 72
     2
  0
VERTEX
  5
5D6C0
  8
0
 10
17.66218212633694
 20
-4.247145899371314
 30
-149.5857347012019
 70
   192
  0
VERTEX
  5
5D6C1
  8
0
 10
17.6621821263005
 20
9.02196456528608
 30
-149.5857347011921
 70
   192
  0
VERTEX
  5
5D6C2
  8
0
 10
17.66218212630067
 20
9.021964565286924
 30
-150.7277819891312
 70
   192
  0
VERTEX
  5
5D6C3
  8
0
 10
17.66218212633702
 20
-4.247145899370472
 30
-150.727781989141
 70
   192
  0
VERTEX
  5
5D6C4
  8
0
 10
0.0
 20
0.0
 30
0.0
 70
   128
 71
     3
 72
     4
 73
    -1
  0
VERTEX
  5
5D6C5
  8
0
 10
0.0
 20
0.0
 30
0.0
 70
   128
 71
     2
 72
    -3
 73
     1
  0
SEQEND
  5
5D987
  8
0
  0
POLYLINE
  5
5D6C6
  8
0
 66
     1
 10
0.0
 20
0.0
 30
0.0
 70
    64
 71
     4
 72
     2
  0
VERTEX
  5
5D6C7
  8
0
 10
-17.66180634515301
 20
9.021964565189078
 30
-149.5857347011947
 70
   192
  0
VERTEX
  5
5D6C8
  8
0
 10
-17.66180634511656
 20
-4.247145899468316
 30
-149.5857347012044
 70
   192
  0
VERTEX
  5
5D6C9
  8
0
 10
-17.66180634511648
 20
-4.247145899467475
 30
-150.7277819891436
 70
   192
  0
VERTEX
  5
5D6CA
  8
0
 10
-17.66180634515292
 20
9.02196456518992
 30
-150.7277819891337
 70
   192
  0
VERTEX
  5
5D6CB
  8
0
 10
0.0
 20
0.0
 30
0.0
 70
   128
 71
     3
 72
     4
 73
    -1
  0
VERTEX
  5
5D6CC
  8
0
 10
0.0
 20
0.0
 30
0.0
 70
   128
 71
     2
 72
    -3
 73
     1
  0
SEQEND
  5
5D988
  8
0
  0
POLYLINE
  5
5D6CD
  8
0
 66
     1
 10
0.0
 20
0.0
 30
0.0
 70
    64
 71
     4
 72
     2
  0
VERTEX
  5
5D6CE
  8
0
 10
16.65292531282758
 20
10.04266537025701
 30
-149.5857347011914
 70
   192
  0
VERTEX
  5
5D6CF
  8
0
 10
-16.65254953168571
 20
10.04266537016555
 30
-149.5857347011939
 70
   192
  0
VERTEX
  5
5D6D0
  8
0
 10
-16.65254953168563
 20
10.04266537016639
 30
-150.7277819891329
 70
   192
  0
VERTEX
  5
5D6D1
  8
0
 10
16.65292531282778
 20
10.04266537025785
 30
-150.7277819891305
 70
   192
  0
VERTEX
  5
5D6D2
  8
0
 10
0.0
 20
0.0
 30
0.0
 70
   128
 71
     3
 72
     4
 73
    -1
  0
VERTEX
  5
5D6D3
  8
0
 10
0.0
 20
0.0
 30
0.0
 70
   128
 71
     2
 72
    -3
 73
     1
  0
SEQEND
  5
5D989
  8
0
  0
POLYLINE
  5
5D6D4
  8
0
 66
     1
 10
0.0
 20
0.0
 30
0.0
 70
    64
 71
     4
 72
     2
  0
VERTEX
  5
5D6D5
  8
0
 10
-16.65254953164366
 20
-5.26784670443925
 30
-149.5857347012052
 70
   192
  0
VERTEX
  5
5D6D6
  8
0
 10
16.65292531286963
 20
-5.267846704347788
 30
-149.5857347012027
 70
   192
  0
VERTEX
  5
5D6D7
  8
0
 10
16.65292531286972
 20
-5.267846704346946
 30
-150.7277819891418
 70
   192
  0
VERTEX
  5
5D6D8
  8
0
 10
-16.65254953164358
 20
-5.267846704438407
 30
-150.7277819891442
 70
   192
  0
VERTEX
  5
5D6D9
  8
0
 10
0.0
 20
0.0
 30
0.0
 70
   128
 71
     3
 72
     4
 73
    -1
  0
VERTEX
  5
5D6DA
  8
0
 10
0.0
 20
0.0
 30
0.0
 70
   128
 71
     2
 72
    -3
 73
     1
  0
SEQEND
  5
5D98A
  8
0
  0
POLYLINE
  5
5D6DB
  8
0
 66
     1
 10
0.0
 20
0.0
 30
0.0
 70
    64
 71
     8
 72
     6
  0
VERTEX
  5
5D6DC
  8
0
 10
18.66218212633905
 20
-4.247145899372508
 30
-148.5857347012018
 70
   192
  0
VERTEX
  5
5D6DD
  8
0
 10
18.66218212630302
 20
9.02196456529349
 30
-148.5857347011921
 70
   192
  0
VERTEX
  5
5D6DE
  8
0
 10
18.17314044989136
 20
9.021964565290572
 30
-148.7134742820894
 70
   192
  0
VERTEX
  5
5D6DF
  8
0
 10
17.78992170719854
 20
9.021964565287734
 30
-149.0966930247812
 70
   192
  0
VERTEX
  5
5D6E0
  8
0
 10
17.6621821263005
 20
9.021964565286082
 30
-149.5857347011921
 70
   192
  0
VERTEX
  5
5D6E1
  8
0
 10
17.66218212633694
 20
-4.247145899371314
 30
-149.5857347012019
 70
   192
  0
VERTEX
  5
5D6E2
  8
0
 10
17.78992170723551
 20
-4.247145899371197
 30
-149.0966930247904
 70
   192
  0
VERTEX
  5
5D6E3
  8
0
 10
18.17314044992772
 20
-4.247145899371655
 30
-148.713474282099
 70
   192
  0
VERTEX
  5
5D6E4
  8
0
 10
0.0
 20
0.0
 30
0.0
 70
   128
 71
     5
 72
     6
 73
    -7
  0
VERTEX
  5
5D6E5
  8
0
 10
0.0
 20
0.0
 30
0.0
 70
   128
 71
     4
 72
    -5
 73
     7
  0
VERTEX
  5
5D6E6
  8
0
 10
0.0
 20
0.0
 30
0.0
 70
   128
 71
     8
 72
     3
 73
    -4
  0
VERTEX
  5
5D6E7
  8
0
 10
0.0
 20
0.0
 30
0.0
 70
   128
 71
     7
 72
    -8
 73
     4
  0
VERTEX
  5
5D6E8
  8
0
 10
0.0
 20
0.0
 30
0.0
 70
   128
 71
     1
 72
     2
 73
    -3
  0
VERTEX
  5
5D6E9
  8
0
 10
0.0
 20
0.0
 30
0.0
 70
   128
 71
     8
 72
    -1
 73
     3
  0
SEQEND
  5
5D98B
  8
0
  0
POLYLINE
  5
5D6EA
  8
0
 66
     1
 10
0.0
 20
0.0
 30
0.0
 70
    64
 71
     8
 72
     6
  0
VERTEX
  5
5D6EB
  8
0
 10
-18.66180634515528
 20
9.021964565188796
 30
-148.5857347011947
 70
   192
  0
VERTEX
  5
5D6EC
  8
0
 10
-18.66180634511924
 20
-4.247145899477202
 30
-148.5857347012045
 70
   192
  0
VERTEX
  5
5D6ED
  8
0
 10
-18.17276466870755
 20
-4.247145899474103
 30
-148.7134742821017
 70
   192
  0
VERTEX
  5
5D6EE
  8
0
 10
-17.78954592601468
 20
-4.247145899470699
 30
-149.0966930247935
 70
   192
  0
VERTEX
  5
5D6EF
  8
0
 10
-17.66180634511656
 20
-4.247145899468316
 30
-149.5857347012044
 70
   192
  0
VERTEX
  5
5D6F0
  8
0
 10
-17.66180634515301
 20
9.021964565189078
 30
-149.5857347011947
 70
   192
  0
VERTEX
  5
5D6F1
  8
0
 10
-17.78954592605164
 20
9.021964565188233
 30
-149.0966930247832
 70
   192
  0
VERTEX
  5
5D6F2
  8
0
 10
-18.1727646687439
 20
9.021964565188123
 30
-148.7134742820918
 70
   192
  0
VERTEX
  5
5D6F3
  8
0
 10
0.0
 20
0.0
 30
0.0
 70
   128
 71
     5
 72
     6
 73
    -7
  0
VERTEX
  5
5D6F4
  8
0
 10
0.0
 20
0.0
 30
0.0
 70
   128
 71
     4
 72
    -5
 73
     7
  0
VERTEX
  5
5D6F5
  8
0
 10
0.0
 20
0.0
 30
0.0
 70
   128
 71
     8
 72
     3
 73
    -4
  0
VERTEX
  5
5D6F6
  8
0
 10
0.0
 20
0.0
 30
0.0
 70
   128
 71
     7
 72
    -8
 73
     4
  0
VERTEX
  5
5D6F7
  8
0
 10
0.0
 20
0.0
 30
0.0
 70
   128
 71
     1
 72
     2
 73
    -3
  0
VERTEX
  5
5D6F8
  8
0
 10
0.0
 20
0.0
 30
0.0
 70
   128
 71
     8
 72
    -1
 73
     3
  0
SEQEND
  5
5D98C
  8
0
  0
POLYLINE
  5
5D6F9
  8
0
 66
     1
 10
0.0
 20
0.0
 30
0.0
 70
    64
 71
     8
 72
     6
  0
VERTEX
  5
5D6FA
  8
0
 10
16.65292531282886
 20
11.04266537025867
 30
-148.5857347011907
 70
   192
  0
VERTEX
  5
5D6FB
  8
0
 10
-16.65254953174222
 20
11.04266537020471
 30
-148.5857347011931
 70
   192
  0
VERTEX
  5
5D6FC
  8
0
 10
-16.65254953170493
 20
10.55362369378501
 30
-148.713474282088
 70
   192
  0
VERTEX
  5
5D6FD
  8
0
 10
-16.65254953168327
 20
10.17040495108645
 30
-149.0966930247718
 70
   192
  0
VERTEX
  5
5D6FE
  8
0
 10
-16.65254953168571
 20
10.04266537016555
 30
-149.5857347011939
 70
   192
  0
VERTEX
  5
5D6FF
  8
0
 10
16.65292531282758
 20
10.04266537025701
 30
-149.5857347011914
 70
   192
  0
VERTEX
  5
5D700
  8
0
 10
16.65292531282848
 20
10.17040495115467
 30
-149.0966930247804
 70
   192
  0
VERTEX
  5
5D701
  8
0
 10
16.65292531282897
 20
10.55362369384716
 30
-148.7134742820883
 70
   192
  0
VERTEX
  5
5D702
  8
0
 10
0.0
 20
0.0
 30
0.0
 70
   128
 71
     5
 72
     6
 73
    -7
  0
VERTEX
  5
5D703
  8
0
 10
0.0
 20
0.0
 30
0.0
 70
   128
 71
     4
 72
    -5
 73
     7
  0
VERTEX
  5
5D704
  8
0
 10
0.0
 20
0.0
 30
0.0
 70
   128
 71
     8
 72
     3
 73
    -4
  0
VERTEX
  5
5D705
  8
0
 10
0.0
 20
0.0
 30
0.0
 70
   128
 71
     7
 72
    -8
 73
     4
  0
VERTEX
  5
5D706
  8
0
 10
0.0
 20
0.0
 30
0.0
 70
   128
 71
     1
 72
     2
 73
    -3
  0
VERTEX
  5
5D707
  8
0
 10
0.0
 20
0.0
 30
0.0
 70
   128
 71
     8
 72
    -1
 73
     3
  0
SEQEND
  5
5D98D
  8
0
  0
POLYLINE
  5
5D708
  8
0
 66
     1
 10
0.0
 20
0.0
 30
0.0
 70
    64
 71
    12
 72
    10
  0
VERTEX
  5
5D709
  8
0
 10
-16.65254953164366
 20
-5.26784670443925
 30
-149.5857347012052
 70
   192
  0
VERTEX
  5
5D70A
  8
0
 10
-17.15593228203597
 20
-5.131242601935465
 30
-149.5857347012051
 70
   192
  0
VERTEX
  5
5D70B
  8
0
 10
-17.52552096448957
 20
-4.758281388889845
 30
-149.5857347012048
 70
   192
  0
VERTEX
  5
5D70C
  8
0
 10
-17.66180634511656
 20
-4.247145899468316
 30
-149.5857347012044
 70
   192
  0
VERTEX
  5
5D70D
  8
0
 10
-17.78954592601468
 20
-4.247145899470699
 30
-149.0966930247935
 70
   192
  0
VERTEX
  5
5D70E
  8
0
 10
-18.17276466870755
 20
-4.247145899474103
 30
-148.7134742821017
 70
   192
  0
VERTEX
  5
5D70F
  8
0
 10
-18.66180634511924
 20
-4.247145899477202
 30
-148.5857347012045
 70
   192
  0
VERTEX
  5
5D710
  8
0
 10
-18.39292874073048
 20
-5.254945943281291
 30
-148.5857347012052
 70
   192
  0
VERTEX
  5
5D711
  8
0
 10
-17.65880755404277
 20
-5.994950663201722
 30
-148.5857347012057
 70
   192
  0
VERTEX
  5
5D712
  8
0
 10
-16.65254953164509
 20
-6.267846704442383
 30
-148.5857347012058
 70
   192
  0
VERTEX
  5
5D713
  8
0
 10
-16.65254953164518
 20
-5.778805028030698
 30
-148.7134742821028
 70
   192
  0
VERTEX
  5
5D714
  8
0
 10
-16.65254953164463
 20
-5.395586285337648
 30
-149.0966930247943
 70
   192
  0
VERTEX
  5
5D715
  8
0
 10
0.0
 20
0.0
 30
0.0
 70
   128
 71
     6
 72
     7
 73
     8
  0
VERTEX
  5
5D716
  8
0
 10
0.0
 20
0.0
 30
0.0
 70
   128
 71
     9
 72
    11
 73
     6
  0
VERTEX
  5
5D717
  8
0
 10
0.0
 20
0.0
 30
0.0
 70
   128
 71
     8
 72
     9
 73
     6
  0
VERTEX
  5
5D718
  8
0
 10
0.0
 20
0.0
 30
0.0
 70
   128
 71
     9
 72
    10
 73
    11
  0
VERTEX
  5
5D719
  8
0
 10
0.0
 20
0.0
 30
0.0
 70
   128
 71
    12
 72
     5
 73
     6
  0
VERTEX
  5
5D71A
  8
0
 10
0.0
 20
0.0
 30
0.0
 70
   128
 71
    11
 72
    12
 73
     6
  0
VERTEX
  5
5D71B
  8
0
 10
0.0
 20
0.0
 30
0.0
 70
   128
 71
    12
 72
     1
 73
     2
  0
VERTEX
  5
5D71C
  8
0
 10
0.0
 20
0.0
 30
0.0
 70
   128
 71
     3
 72
     5
 73
    12
  0
VERTEX
  5
5D71D
  8
0
 10
0.0
 20
0.0
 30
0.0
 70
   128
 71
     2
 72
     3
 73
    12
  0
VERTEX
  5
5D71E
  8
0
 10
0.0
 20
0.0
 30
0.0
 70
   128
 71
     3
 72
     4
 73
     5
  0
SEQEND
  5
5D98E
  8
0
  0
POLYLINE
  5
5D71F
  8
0
 66
     1
 10
0.0
 20
0.0
 30
0.0
 70
    64
 71
    12
 72
    10
  0
VERTEX
  5
5D720
  8
0
 10
17.66218212633694
 20
-4.247145899371314
 30
-149.5857347012019
 70
   192
  0
VERTEX
  5
5D721
  8
0
 10
17.52589674571637
 20
-4.758281388785614
 30
-149.5857347012023
 70
   192
  0
VERTEX
  5
5D722
  8
0
 10
17.15630806327957
 20
-5.131242601832883
 30
-149.5857347012026
 70
   192
  0
VERTEX
  5
5D723
  8
0
 10
16.65292531286963
 20
-5.267846704347788
 30
-149.5857347012027
 70
   192
  0
VERTEX
  5
5D724
  8
0
 10
16.65292531288652
 20
-5.395586285257719
 30
-149.096693024792
 70
   192
  0
VERTEX
  5
5D725
  8
0
 10
16.65292531290812
 20
-5.77880502796514
 30
-148.7134742821004
 70
   192
  0
VERTEX
  5
5D726
  8
0
 10
16.652925312926
 20
-6.267846704388423
 30
-148.5857347012034
 70
   192
  0
VERTEX
  5
5D727
  8
0
 10
17.65918333525997
 20
-5.994950663051143
 30
-148.5857347012032
 70
   192
  0
VERTEX
  5
5D728
  8
0
 10
18.39330452195156
 20
-5.254945943157431
 30
-148.5857347012026
 70
   192
  0
VERTEX
  5
5D729
  8
0
 10
18.66218212633905
 20
-4.247145899372508
 30
-148.5857347012018
 70
   192
  0
VERTEX
  5
5D72A
  8
0
 10
18.17314044992772
 20
-4.247145899371655
 30
-148.713474282099
 70
   192
  0
VERTEX
  5
5D72B
  8
0
 10
17.78992170723551
 20
-4.247145899371197
 30
-149.0966930247904
 70
   192
  0
VERTEX
  5
5D72C
  8
0
 10
0.0
 20
0.0
 30
0.0
 70
   128
 71
     6
 72
     7
 73
     8
  0
VERTEX
  5
5D72D
  8
0
 10
0.0
 20
0.0
 30
0.0
 70
   128
 71
     9
 72
    11
 73
     6
  0
VERTEX
  5
5D72E
  8
0
 10
0.0
 20
0.0
 30
0.0
 70
   128
 71
     8
 72
     9
 73
     6
  0
VERTEX
  5
5D72F
  8
0
 10
0.0
 20
0.0
 30
0.0
 70
   128
 71
     9
 72
    10
 73
    11
  0
VERTEX
  5
5D730
  8
0
 10
0.0
 20
0.0
 30
0.0
 70
   128
 71
    12
 72
     5
 73
     6
  0
VERTEX
  5
5D731
  8
0
 10
0.0
 20
0.0
 30
0.0
 70
   128
 71
    11
 72
    12
 73
     6
  0
VERTEX
  5
5D732
  8
0
 10
0.0
 20
0.0
 30
0.0
 70
   128
 71
    12
 72
     1
 73
     2
  0
VERTEX
  5
5D733
  8
0
 10
0.0
 20
0.0
 30
0.0
 70
   128
 71
     3
 72
     5
 73
    12
  0
VERTEX
  5
5D734
  8
0
 10
0.0
 20
0.0
 30
0.0
 70
   128
 71
     2
 72
     3
 73
    12
  0
VERTEX
  5
5D735
  8
0
 10
0.0
 20
0.0
 30
0.0
 70
   128
 71
     3
 72
     4
 73
     5
  0
SEQEND
  5
5D98F
  8
0
  0
POLYLINE
  5
5D736
  8
0
 66
     1
 10
0.0
 20
0.0
 30
0.0
 70
    64
 71
    12
 72
    10
  0
VERTEX
  5
5D737
  8
0
 10
16.65292531282758
 20
10.04266537025701
 30
-149.5857347011914
 70
   192
  0
VERTEX
  5
5D738
  8
0
 10
17.1563080632199
 20
9.90606126775323
 30
-149.5857347011915
 70
   192
  0
VERTEX
  5
5D739
  8
0
 10
17.5258967456735
 20
9.53310005470761
 30
-149.5857347011917
 70
   192
  0
VERTEX
  5
5D73A
  8
0
 10
17.6621821263005
 20
9.021964565286082
 30
-149.5857347011921
 70
   192
  0
VERTEX
  5
5D73B
  8
0
 10
17.78992170719854
 20
9.021964565287734
 30
-149.0966930247812
 70
   192
  0
VERTEX
  5
5D73C
  8
0
 10
18.17314044989136
 20
9.021964565290572
 30
-148.7134742820894
 70
   192
  0
VERTEX
  5
5D73D
  8
0
 10
18.66218212630302
 20
9.02196456529349
 30
-148.5857347011921
 70
   192
  0
VERTEX
  5
5D73E
  8
0
 10
18.39330452191425
 20
10.02976460909758
 30
-148.5857347011913
 70
   192
  0
VERTEX
  5
5D73F
  8
0
 10
17.65918333522655
 20
10.76976932901801
 30
-148.5857347011909
 70
   192
  0
VERTEX
  5
5D740
  8
0
 10
16.65292531282886
 20
11.04266537025867
 30
-148.5857347011907
 70
   192
  0
VERTEX
  5
5D741
  8
0
 10
16.65292531282897
 20
10.55362369384716
 30
-148.7134742820883
 70
   192
  0
VERTEX
  5
5D742
  8
0
 10
16.65292531282848
 20
10.17040495115467
 30
-149.0966930247804
 70
   192
  0
VERTEX
  5
5D743
  8
0
 10
0.0
 20
0.0
 30
0.0
 70
   128
 71
     6
 72
     7
 73
     8
  0
VERTEX
  5
5D744
  8
0
 10
0.0
 20
0.0
 30
0.0
 70
   128
 71
     9
 72
    11
 73
     6
  0
VERTEX
  5
5D745
  8
0
 10
0.0
 20
0.0
 30
0.0
 70
   128
 71
     8
 72
     9
 73
     6
  0
VERTEX
  5
5D746
  8
0
 10
0.0
 20
0.0
 30
0.0
 70
   128
 71
     9
 72
    10
 73
    11
  0
VERTEX
  5
5D747
  8
0
 10
0.0
 20
0.0
 30
0.0
 70
   128
 71
    12
 72
     5
 73
     6
  0
VERTEX
  5
5D748
  8
0
 10
0.0
 20
0.0
 30
0.0
 70
   128
 71
    11
 72
    12
 73
     6
  0
VERTEX
  5
5D749
  8
0
 10
0.0
 20
0.0
 30
0.0
 70
   128
 71
    12
 72
     1
 73
     2
  0
VERTEX
  5
5D74A
  8
0
 10
0.0
 20
0.0
 30
0.0
 70
   128
 71
     3
 72
     5
 73
    12
  0
VERTEX
  5
5D74B
  8
0
 10
0.0
 20
0.0
 30
0.0
 70
   128
 71
     2
 72
     3
 73
    12
  0
VERTEX
  5
5D74C
  8
0
 10
0.0
 20
0.0
 30
0.0
 70
   128
 71
     3
 72
     4
 73
     5
  0
SEQEND
  5
5D990
  8
0
  0
POLYLINE
  5
5D74D
  8
0
 66
     1
 10
0.0
 20
0.0
 30
0.0
 70
    64
 71
    12
 72
    10
  0
VERTEX
  5
5D74E
  8
0
 10
-17.66180634515301
 20
9.021964565189078
 30
-149.5857347011947
 70
   192
  0
VERTEX
  5
5D74F
  8
0
 10
-17.52552096453242
 20
9.533100054603377
 30
-149.5857347011943
 70
   192
  0
VERTEX
  5
5D750
  8
0
 10
-17.1559322820956
 20
9.90606126765065
 30
-149.585734701194
 70
   192
  0
VERTEX
  5
5D751
  8
0
 10
-16.65254953168571
 20
10.04266537016555
 30
-149.5857347011939
 70
   192
  0
VERTEX
  5
5D752
  8
0
 10
-16.65254953168327
 20
10.17040495108645
 30
-149.0966930247718
 70
   192
  0
VERTEX
  5
5D753
  8
0
 10
-16.65254953170493
 20
10.55362369378501
 30
-148.713474282088
 70
   192
  0
VERTEX
  5
5D754
  8
0
 10
-16.65254953174222
 20
11.04266537020471
 30
-148.5857347011931
 70
   192
  0
VERTEX
  5
5D755
  8
0
 10
-17.65880755407618
 20
10.76976932886748
 30
-148.5857347011934
 70
   192
  0
VERTEX
  5
5D756
  8
0
 10
-18.39292874076774
 20
10.02976460897374
 30
-148.585734701194
 70
   192
  0
VERTEX
  5
5D757
  8
0
 10
-18.66180634515528
 20
9.021964565188796
 30
-148.5857347011947
 70
   192
  0
VERTEX
  5
5D758
  8
0
 10
-18.1727646687439
 20
9.021964565188123
 30
-148.7134742820918
 70
   192
  0
VERTEX
  5
5D759
  8
0
 10
-17.78954592605164
 20
9.021964565188233
 30
-149.0966930247832
 70
   192
  0
VERTEX
  5
5D75A
  8
0
 10
0.0
 20
0.0
 30
0.0
 70
   128
 71
     6
 72
     7
 73
     8
  0
VERTEX
  5
5D75B
  8
0
 10
0.0
 20
0.0
 30
0.0
 70
   128
 71
     9
 72
    11
 73
     6
  0
VERTEX
  5
5D75C
  8
0
 10
0.0
 20
0.0
 30
0.0
 70
   128
 71
     8
 72
     9
 73
     6
  0
VERTEX
  5
5D75D
  8
0
 10
0.0
 20
0.0
 30
0.0
 70
   128
 71
     9
 72
    10
 73
    11
  0
VERTEX
  5
5D75E
  8
0
 10
0.0
 20
0.0
 30
0.0
 70
   128
 71
    12
 72
     5
 73
     6
  0
VERTEX
  5
5D75F
  8
0
 10
0.0
 20
0.0
 30
0.0
 70
   128
 71
    11
 72
    12
 73
     6
  0
VERTEX
  5
5D760
  8
0
 10
0.0
 20
0.0
 30
0.0
 70
   128
 71
    12
 72
     1
 73
     2
  0
VERTEX
  5
5D761
  8
0
 10
0.0
 20
0.0
 30
0.0
 70
   128
 71
     3
 72
     5
 73
    12
  0
VERTEX
  5
5D762
  8
0
 10
0.0
 20
0.0
 30
0.0
 70
   128
 71
     2
 72
     3
 73
    12
  0
VERTEX
  5
5D763
  8
0
 10
0.0
 20
0.0
 30
0.0
 70
   128
 71
     3
 72
     4
 73
     5
  0
SEQEND
  5
5D991
  8
0
  0
POLYLINE
  5
5D764
  8
0
 66
     1
 10
0.0
 20
0.0
 30
0.0
 70
    64
 71
     8
 72
     6
  0
VERTEX
  5
5D765
  8
0
 10
-16.65254953164509
 20
-6.267846704442383
 30
-148.5857347012058
 70
   192
  0
VERTEX
  5
5D766
  8
0
 10
16.652925312926
 20
-6.267846704388423
 30
-148.5857347012034
 70
   192
  0
VERTEX
  5
5D767
  8
0
 10
16.65292531290812
 20
-5.77880502796514
 30
-148.7134742821004
 70
   192
  0
VERTEX
  5
5D768
  8
0
 10
16.65292531288652
 20
-5.395586285257719
 30
-149.096693024792
 70
   192
  0
VERTEX
  5
5D769
  8
0
 10
16.65292531286963
 20
-5.267846704347788
 30
-149.5857347012027
 70
   192
  0
VERTEX
  5
5D76A
  8
0
 10
-16.65254953164366
 20
-5.26784670443925
 30
-149.5857347012052
 70
   192
  0
VERTEX
  5
5D76B
  8
0
 10
-16.65254953164463
 20
-5.395586285337648
 30
-149.0966930247943
 70
   192
  0
VERTEX
  5
5D76C
  8
0
 10
-16.65254953164518
 20
-5.778805028030698
 30
-148.7134742821028
 70
   192
  0
VERTEX
  5
5D76D
  8
0
 10
0.0
 20
0.0
 30
0.0
 70
   128
 71
     5
 72
     6
 73
    -7
  0
VERTEX
  5
5D76E
  8
0
 10
0.0
 20
0.0
 30
0.0
 70
   128
 71
     4
 72
    -5
 73
     7
  0
VERTEX
  5
5D76F
  8
0
 10
0.0
 20
0.0
 30
0.0
 70
   128
 71
     8
 72
     3
 73
    -4
  0
VERTEX
  5
5D770
  8
0
 10
0.0
 20
0.0
 30
0.0
 70
   128
 71
     7
 72
    -8
 73
     4
  0
VERTEX
  5
5D771
  8
0
 10
0.0
 20
0.0
 30
0.0
 70
   128
 71
     1
 72
     2
 73
    -3
  0
VERTEX
  5
5D772
  8
0
 10
0.0
 20
0.0
 30
0.0
 70
   128
 71
     8
 72
    -1
 73
     3
  0
SEQEND
  5
5D992
  8
0
  0
POLYLINE
  5
5D773
  8
0
 66
     1
 10
0.0
 20
0.0
 30
0.0
 70
    64
 71
    32
 72
    32
  0
VERTEX
  5
5D774
  8
0
 10
16.65292531282778
 20
10.04266537025785
 30
-150.7277819891305
 70
   192
  0
VERTEX
  5
5D775
  8
0
 10
17.14649395681663
 20
9.912281477210348
 30
-150.7277819891301
 70
   192
  0
VERTEX
  5
5D776
  8
0
 10
17.5332600839289
 20
9.52112979806483
 30
-150.7277819891304
 70
   192
  0
VERTEX
  5
5D777
  8
0
 10
17.66218212630067
 20
9.021964565286924
 30
-150.7277819891312
 70
   192
  0
VERTEX
  5
5D778
  8
0
 10
17.66218212633702
 20
-4.247145899370474
 30
-150.727781989141
 70
   192
  0
VERTEX
  5
5D779
  8
0
 10
17.53326008396798
 20
-4.746311132149087
 30
-150.7277819891415
 70
   192
  0
VERTEX
  5
5D77A
  8
0
 10
17.14649395685786
 20
-5.137462811296727
 30
-150.7277819891418
 70
   192
  0
VERTEX
  5
5D77B
  8
0
 10
16.65292531286972
 20
-5.267846704346946
 30
-150.7277819891418
 70
   192
  0
VERTEX
  5
5D77C
  8
0
 10
-16.65254953164358
 20
-5.267846704438407
 30
-150.7277819891442
 70
   192
  0
VERTEX
  5
5D77D
  8
0
 10
-17.14611817563245
 20
-5.137462811390906
 30
-150.7277819891446
 70
   192
  0
VERTEX
  5
5D77E
  8
0
 10
-17.5328843027447
 20
-4.74631113224539
 30
-150.7277819891443
 70
   192
  0
VERTEX
  5
5D77F
  8
0
 10
-17.66180634511648
 20
-4.247145899467475
 30
-150.7277819891436
 70
   192
  0
VERTEX
  5
5D780
  8
0
 10
-17.66180634515292
 20
9.02196456518992
 30
-150.7277819891337
 70
   192
  0
VERTEX
  5
5D781
  8
0
 10
-17.5328843027839
 20
9.52112979796854
 30
-150.7277819891334
 70
   192
  0
VERTEX
  5
5D782
  8
0
 10
-17.14611817567378
 20
9.91228147711618
 30
-150.7277819891331
 70
   192
  0
VERTEX
  5
5D783
  8
0
 10
-16.65254953168563
 20
10.04266537016639
 30
-150.7277819891329
 70
   192
  0
VERTEX
  5
5D784
  8
0
 10
-17.49981210980475
 20
8.887409332387767
 30
-150.7277819891338
 70
   192
  0
VERTEX
  5
5D785
  8
0
 10
-17.49981210976906
 20
-4.112590667612233
 30
-150.7277819891224
 70
   192
  0
VERTEX
  5
5D786
  8
0
 10
-17.37207252887388
 20
-4.601632344022758
 30
-150.7277819891334
 70
   192
  0
VERTEX
  5
5D787
  8
0
 10
-16.98885378619135
 20
-4.984851086713552
 30
-150.7277819891417
 70
   192
  0
VERTEX
  5
5D788
  8
0
 10
-16.49981210979335
 20
-5.112590667609485
 30
-150.7277819891441
 70
   192
  0
VERTEX
  5
5D789
  8
0
 10
16.50018789023368
 20
-5.112590667518864
 30
-150.7277819891429
 70
   192
  0
VERTEX
  5
5D78A
  8
0
 10
16.98922956664417
 20
-4.984851086620226
 30
-150.7277819891399
 70
   192
  0
VERTEX
  5
5D78B
  8
0
 10
17.37244830933496
 20
-4.601632343927329
 30
-150.7277819891321
 70
   192
  0
VERTEX
  5
5D78C
  8
0
 10
17.50018789023094
 20
-4.112590667516123
 30
-150.7277819891409
 70
   192
  0
VERTEX
  5
5D78D
  8
0
 10
17.50018789019524
 20
8.887409332483882
 30
-150.7277819891224
 70
   192
  0
VERTEX
  5
5D78E
  8
0
 10
17.37244830929662
 20
9.376451008894398
 30
-150.7277819891251
 70
   192
  0
VERTEX
  5
5D78F
  8
0
 10
16.98922956660372
 20
9.759669751585191
 30
-150.727781989125
 70
   192
  0
VERTEX
  5
5D790
  8
0
 10
16.5001878901925
 20
9.887409332481136
 30
-150.7277819891307
 70
   192
  0
VERTEX
  5
5D791
  8
0
 10
-16.4998121098075
 20
9.887409332390515
 30
-150.7277819891224
 70
   192
  0
VERTEX
  5
5D792
  8
0
 10
-16.98885378621801
 20
9.75966975149189
 30
-150.7277819891263
 70
   192
  0
VERTEX
  5
5D793
  8
0
 10
-17.37207252890882
 20
9.376451008798991
 30
-150.7277819891263
 70
   192
  0
VERTEX
  5
5D794
  8
0
 10
0.0
 20
0.0
 30
0.0
 70
   128
 71
   -17
 72
    14
 73
   -13
  0
VERTEX
  5
5D795
  8
0
 10
0.0
 20
0.0
 30
0.0
 70
   128
 71
    13
 72
   -12
 73
   -18
  0
VERTEX
  5
5D796
  8
0
 10
0.0
 20
0.0
 30
0.0
 70
   128
 71
   -13
 72
    18
 73
   -17
  0
VERTEX
  5
5D797
  8
0
 10
0.0
 20
0.0
 30
0.0
 70
   128
 71
    12
 72
   -11
 73
   -18
  0
VERTEX
  5
5D798
  8
0
 10
0.0
 20
0.0
 30
0.0
 70
   128
 71
   -11
 72
    19
 73
   -18
  0
VERTEX
  5
5D799
  8
0
 10
0.0
 20
0.0
 30
0.0
 70
   128
 71
    11
 72
   -10
 73
   -20
  0
VERTEX
  5
5D79A
  8
0
 10
0.0
 20
0.0
 30
0.0
 70
   128
 71
   -11
 72
    20
 73
   -19
  0
VERTEX
  5
5D79B
  8
0
 10
0.0
 20
0.0
 30
0.0
 70
   128
 71
   -10
 72
    21
 73
   -20
  0
VERTEX
  5
5D79C
  8
0
 10
0.0
 20
0.0
 30
0.0
 70
   128
 71
   -21
 72
    10
 73
    -9
  0
VERTEX
  5
5D79D
  8
0
 10
0.0
 20
0.0
 30
0.0
 70
   128
 71
     9
 72
    -8
 73
   -22
  0
VERTEX
  5
5D79E
  8
0
 10
0.0
 20
0.0
 30
0.0
 70
   128
 71
    -9
 72
    22
 73
   -21
  0
VERTEX
  5
5D79F
  8
0
 10
0.0
 20
0.0
 30
0.0
 70
   128
 71
     8
 72
    -7
 73
   -22
  0
VERTEX
  5
5D7A0
  8
0
 10
0.0
 20
0.0
 30
0.0
 70
   128
 71
    -7
 72
    23
 73
   -22
  0
VERTEX
  5
5D7A1
  8
0
 10
0.0
 20
0.0
 30
0.0
 70
   128
 71
     7
 72
    -6
 73
   -24
  0
VERTEX
  5
5D7A2
  8
0
 10
0.0
 20
0.0
 30
0.0
 70
   128
 71
    -7
 72
    24
 73
   -23
  0
VERTEX
  5
5D7A3
  8
0
 10
0.0
 20
0.0
 30
0.0
 70
   128
 71
    -6
 72
    25
 73
   -24
  0
VERTEX
  5
5D7A4
  8
0
 10
0.0
 20
0.0
 30
0.0
 70
   128
 71
   -25
 72
     6
 73
    -5
  0
VERTEX
  5
5D7A5
  8
0
 10
0.0
 20
0.0
 30
0.0
 70
   128
 71
     5
 72
    -4
 73
   -26
  0
VERTEX
  5
5D7A6
  8
0
 10
0.0
 20
0.0
 30
0.0
 70
   128
 71
    -5
 72
    26
 73
   -25
  0
VERTEX
  5
5D7A7
  8
0
 10
0.0
 20
0.0
 30
0.0
 70
   128
 71
     4
 72
    -3
 73
   -26
  0
VERTEX
  5
5D7A8
  8
0
 10
0.0
 20
0.0
 30
0.0
 70
   128
 71
    -3
 72
    27
 73
   -26
  0
VERTEX
  5
5D7A9
  8
0
 10
0.0
 20
0.0
 30
0.0
 70
   128
 71
     3
 72
    -2
 73
   -28
  0
VERTEX
  5
5D7AA
  8
0
 10
0.0
 20
0.0
 30
0.0
 70
   128
 71
    -3
 72
    28
 73
   -27
  0
VERTEX
  5
5D7AB
  8
0
 10
0.0
 20
0.0
 30
0.0
 70
   128
 71
    -2
 72
    29
 73
   -28
  0
VERTEX
  5
5D7AC
  8
0
 10
0.0
 20
0.0
 30
0.0
 70
   128
 71
   -29
 72
     2
 73
    -1
  0
VERTEX
  5
5D7AD
  8
0
 10
0.0
 20
0.0
 30
0.0
 70
   128
 71
     1
 72
   -16
 73
   -30
  0
VERTEX
  5
5D7AE
  8
0
 10
0.0
 20
0.0
 30
0.0
 70
   128
 71
    -1
 72
    30
 73
   -29
  0
VERTEX
  5
5D7AF
  8
0
 10
0.0
 20
0.0
 30
0.0
 70
   128
 71
    16
 72
   -15
 73
   -30
  0
VERTEX
  5
5D7B0
  8
0
 10
0.0
 20
0.0
 30
0.0
 70
   128
 71
   -15
 72
    31
 73
   -30
  0
VERTEX
  5
5D7B1
  8
0
 10
0.0
 20
0.0
 30
0.0
 70
   128
 71
    15
 72
   -14
 73
   -32
  0
VERTEX
  5
5D7B2
  8
0
 10
0.0
 20
0.0
 30
0.0
 70
   128
 71
   -15
 72
    32
 73
   -31
  0
VERTEX
  5
5D7B3
  8
0
 10
0.0
 20
0.0
 30
0.0
 70
   128
 71
   -14
 72
    17
 73
   -32
  0
SEQEND
  5
5D993
  8
0
  0
POLYLINE
  5
5D7B4
  8
0
 66
     1
 10
0.0
 20
0.0
 30
0.0
 70
    64
 71
     9
 72
     7
  0
VERTEX
  5
5D7B5
  8
0
 10
-8.329884451352719
 20
5.169372452157049
 30
192.8729776129211
 70
   192
  0
VERTEX
  5
5D7B6
  8
0
 10
-5.890062750290765
 20
5.169372452168091
 30
186.9827269724508
 70
   192
  0
VERTEX
  5
5D7B7
  8
0
 10
0.0001878901806012
 20
5.169372452186065
 30
184.5429052713916
 70
   192
  0
VERTEX
  5
5D7B8
  8
0
 10
5.890438530651969
 20
5.169372452200441
 30
186.9827269724508
 70
   192
  0
VERTEX
  5
5D7B9
  8
0
 10
8.330260231713922
 20
5.169372452202799
 30
192.8729776129211
 70
   192
  0
VERTEX
  5
5D7BA
  8
0
 10
6.739357978855118
 20
5.16937245219482
 30
197.7692712858058
 70
   192
  0
VERTEX
  5
5D7BB
  8
0
 10
2.57432180808784
 20
5.169372452181152
 30
200.7953471945499
 70
   192
  0
VERTEX
  5
5D7BC
  8
0
 10
-2.573946027726623
 20
5.169372452167014
 30
200.7953471945499
 70
   192
  0
VERTEX
  5
5D7BD
  8
0
 10
-6.738982198493903
 20
5.169372452157808
 30
197.7692712858058
 70
   192
  0
VERTEX
  5
5D7BE
  8
0
 10
0.0
 20
0.0
 30
0.0
 70
   128
 71
     8
 72
     9
 73
    -1
  0
VERTEX
  5
5D7BF
  8
0
 10
0.0
 20
0.0
 30
0.0
 70
   128
 71
     7
 72
    -8
 73
    -1
  0
VERTEX
  5
5D7C0
  8
0
 10
0.0
 20
0.0
 30
0.0
 70
   128
 71
     6
 72
    -7
 73
    -1
  0
VERTEX
  5
5D7C1
  8
0
 10
0.0
 20
0.0
 30
0.0
 70
   128
 71
     5
 72
    -6
 73
    -1
  0
VERTEX
  5
5D7C2
  8
0
 10
0.0
 20
0.0
 30
0.0
 70
   128
 71
     4
 72
    -5
 73
    -1
  0
VERTEX
  5
5D7C3
  8
0
 10
0.0
 20
0.0
 30
0.0
 70
   128
 71
     3
 72
    -4
 73
    -1
  0
VERTEX
  5
5D7C4
  8
0
 10
0.0
 20
0.0
 30
0.0
 70
   128
 71
     2
 72
    -3
 73
     1
  0
SEQEND
  5
5D994
  8
0
  0
POLYLINE
  5
5D7C5
  8
0
 66
     1
 10
0.0
 20
0.0
 30
0.0
 70
    64
 71
    13
 72
    11
  0
VERTEX
  5
5D7C6
  8
0
 10
-8.329884451324387
 20
-5.098053890384357
 30
192.8729776129178
 70
   192
  0
VERTEX
  5
5D7C7
  8
0
 10
-8.329884451352717
 20
5.169372452157049
 30
192.8729776129249
 70
   192
  0
VERTEX
  5
5D7C8
  8
0
 10
-6.738982198493903
 20
5.169372452157808
 30
197.7692712858058
 70
   192
  0
VERTEX
  5
5D7C9
  8
0
 10
-7.216735182060884
 20
-5.095779813546861
 30
197.0331923101264
 70
   192
  0
VERTEX
  5
5D7CA
  8
0
 10
4.172387773508694
 20
-5.094002556705552
 30
200.0829787172747
 70
   192
  0
VERTEX
  5
5D7CB
  8
0
 10
0.0001878902082716
 20
-5.093326246141914
 30
201.2030499544507
 70
   192
  0
VERTEX
  5
5D7CC
  8
0
 10
2.57432180808784
 20
5.169372452181152
 30
200.7953471945499
 70
   192
  0
VERTEX
  5
5D7CD
  8
0
 10
8.330260231713927
 20
5.169372452202797
 30
192.8729776129249
 70
   192
  0
VERTEX
  5
5D7CE
  8
0
 10
8.330260231742121
 20
-5.09805389033858
 30
192.8729776129173
 70
   192
  0
VERTEX
  5
5D7CF
  8
0
 10
7.218763651570336
 20
-5.095781437416835
 30
197.0303289006958
 70
   192
  0
VERTEX
  5
5D7D0
  8
0
 10
6.739357978855118
 20
5.16937245219482
 30
197.7692712858058
 70
   192
  0
VERTEX
  5
5D7D1
  8
0
 10
-4.168910206189063
 20
-5.094001507354538
 30
200.0847332814973
 70
   192
  0
VERTEX
  5
5D7D2
  8
0
 10
-2.573946027726623
 20
5.169372452167014
 30
200.7953471945499
 70
   192
  0
VERTEX
  5
5D7D3
  8
0
 10
0.0
 20
0.0
 30
0.0
 70
   128
 71
     1
 72
     2
 73
     3
  0
VERTEX
  5
5D7D4
  8
0
 10
0.0
 20
0.0
 30
0.0
 70
   128
 71
     4
 72
     1
 73
     3
  0
VERTEX
  5
5D7D5
  8
0
 10
0.0
 20
0.0
 30
0.0
 70
   128
 71
     5
 72
     6
 73
     7
  0
VERTEX
  5
5D7D6
  8
0
 10
0.0
 20
0.0
 30
0.0
 70
   128
 71
     8
 72
     9
 73
    10
  0
VERTEX
  5
5D7D7
  8
0
 10
0.0
 20
0.0
 30
0.0
 70
   128
 71
    11
 72
     8
 73
    10
  0
VERTEX
  5
5D7D8
  8
0
 10
0.0
 20
0.0
 30
0.0
 70
   128
 71
     6
 72
    12
 73
    13
  0
VERTEX
  5
5D7D9
  8
0
 10
0.0
 20
0.0
 30
0.0
 70
   128
 71
     7
 72
     6
 73
    13
  0
VERTEX
  5
5D7DA
  8
0
 10
0.0
 20
0.0
 30
0.0
 70
   128
 71
    12
 72
     4
 73
     3
  0
VERTEX
  5
5D7DB
  8
0
 10
0.0
 20
0.0
 30
0.0
 70
   128
 71
    13
 72
    12
 73
     3
  0
VERTEX
  5
5D7DC
  8
0
 10
0.0
 20
0.0
 30
0.0
 70
   128
 71
    10
 72
     5
 73
     7
  0
VERTEX
  5
5D7DD
  8
0
 10
0.0
 20
0.0
 30
0.0
 70
   128
 71
    11
 72
    10
 73
     7
  0
SEQEND
  5
5D995
  8
0
  0
POLYLINE
  5
5D7DE
  8
0
 66
     1
 10
0.0
 20
0.0
 30
0.0
 70
    64
 71
     9
 72
     7
  0
VERTEX
  5
5D7DF
  8
0
 10
16.50018789020383
 20
-4.112590667796883
 30
226.3983899795901
 70
   192
  0
VERTEX
  5
5D7E0
  8
0
 10
16.50018789020643
 20
-4.601632344207654
 30
226.2706503986924
 70
   192
  0
VERTEX
  5
5D7E1
  8
0
 10
16.50018789020747
 20
-4.984851086899221
 30
225.8874316560003
 70
   192
  0
VERTEX
  5
5D7E2
  8
0
 10
16.50018789020655
 20
-5.112590667796143
 30
225.3983899795894
 70
   192
  0
VERTEX
  5
5D7E3
  8
0
 10
16.98922956661711
 20
-4.984851086897519
 30
225.3983899795896
 70
   192
  0
VERTEX
  5
5D7E4
  8
0
 10
17.37244830930796
 20
-4.601632344204621
 30
225.3983899795899
 70
   192
  0
VERTEX
  5
5D7E5
  8
0
 10
17.50018789020391
 20
-4.112590667793401
 30
225.3983899795901
 70
   192
  0
VERTEX
  5
5D7E6
  8
0
 10
17.37244830930658
 20
-4.112590667794114
 30
225.887431656001
 70
   192
  0
VERTEX
  5
5D7E7
  8
0
 10
16.9892295666147
 20
-4.11259066779545
 30
226.2706503986929
 70
   192
  0
VERTEX
  5
5D7E8
  8
0
 10
0.0
 20
0.0
 30
0.0
 70
   128
 71
     3
 72
     4
 73
     5
  0
VERTEX
  5
5D7E9
  8
0
 10
0.0
 20
0.0
 30
0.0
 70
   128
 71
     2
 72
     3
 73
    -5
  0
VERTEX
  5
5D7EA
  8
0
 10
0.0
 20
0.0
 30
0.0
 70
   128
 71
     9
 72
     1
 73
     2
  0
VERTEX
  5
5D7EB
  8
0
 10
0.0
 20
0.0
 30
0.0
 70
   128
 71
     6
 72
     9
 73
    -2
  0
VERTEX
  5
5D7EC
  8
0
 10
0.0
 20
0.0
 30
0.0
 70
   128
 71
     5
 72
    -6
 73
    -2
  0
VERTEX
  5
5D7ED
  8
0
 10
0.0
 20
0.0
 30
0.0
 70
   128
 71
     7
 72
     8
 73
     9
  0
VERTEX
  5
5D7EE
  8
0
 10
0.0
 20
0.0
 30
0.0
 70
   128
 71
     6
 72
     7
 73
     9
  0
SEQEND
  5
5D996
  8
0
  0
POLYLINE
  5
5D7EF
  8
0
 66
     1
 10
0.0
 20
0.0
 30
0.0
 70
    64
 71
     9
 72
     7
  0
VERTEX
  5
5D7F0
  8
0
 10
16.50018789016813
 20
8.887409332203118
 30
226.3983899795997
 70
   192
  0
VERTEX
  5
5D7F1
  8
0
 10
16.989229566579
 20
8.887409332204559
 30
226.2706503987024
 70
   192
  0
VERTEX
  5
5D7F2
  8
0
 10
17.37244830927087
 20
8.887409332205895
 30
225.8874316560106
 70
   192
  0
VERTEX
  5
5D7F3
  8
0
 10
17.50018789016819
 20
8.887409332206602
 30
225.3983899795997
 70
   192
  0
VERTEX
  5
5D7F4
  8
0
 10
17.37244830926954
 20
9.376451008617126
 30
225.3983899796005
 70
   192
  0
VERTEX
  5
5D7F5
  8
0
 10
16.98922956657664
 20
9.759669751307914
 30
225.3983899796008
 70
   192
  0
VERTEX
  5
5D7F6
  8
0
 10
16.50018789016544
 20
9.887409332203854
 30
225.3983899796004
 70
   192
  0
VERTEX
  5
5D7F7
  8
0
 10
16.50018789016572
 20
9.759669751306177
 30
225.8874316560112
 70
   192
  0
VERTEX
  5
5D7F8
  8
0
 10
16.50018789016675
 20
9.376451008614051
 30
226.2706503987027
 70
   192
  0
VERTEX
  5
5D7F9
  8
0
 10
0.0
 20
0.0
 30
0.0
 70
   128
 71
     6
 72
     7
 73
     8
  0
VERTEX
  5
5D7FA
  8
0
 10
0.0
 20
0.0
 30
0.0
 70
   128
 71
     5
 72
     6
 73
    -8
  0
VERTEX
  5
5D7FB
  8
0
 10
0.0
 20
0.0
 30
0.0
 70
   128
 71
     3
 72
     4
 73
     5
  0
VERTEX
  5
5D7FC
  8
0
 10
0.0
 20
0.0
 30
0.0
 70
   128
 71
     9
 72
     3
 73
    -5
  0
VERTEX
  5
5D7FD
  8
0
 10
0.0
 20
0.0
 30
0.0
 70
   128
 71
     8
 72
    -9
 73
    -5
  0
VERTEX
  5
5D7FE
  8
0
 10
0.0
 20
0.0
 30
0.0
 70
   128
 71
     1
 72
     2
 73
     3
  0
VERTEX
  5
5D7FF
  8
0
 10
0.0
 20
0.0
 30
0.0
 70
   128
 71
     9
 72
     1
 73
     3
  0
SEQEND
  5
5D997
  8
0
  0
POLYLINE
  5
5D800
  8
0
 66
     1
 10
0.0
 20
0.0
 30
0.0
 70
    64
 71
     9
 72
     7
  0
VERTEX
  5
5D801
  8
0
 10
-16.49981210983188
 20
8.887409332112497
 30
226.3983899795973
 70
   192
  0
VERTEX
  5
5D802
  8
0
 10
-16.49981210983257
 20
9.376451008523494
 30
226.2706503987004
 70
   192
  0
VERTEX
  5
5D803
  8
0
 10
-16.49981210983363
 20
9.75966975121563
 30
225.8874316560088
 70
   192
  0
VERTEX
  5
5D804
  8
0
 10
-16.49981210983464
 20
9.887409332113233
 30
225.398389979598
 70
   192
  0
VERTEX
  5
5D805
  8
0
 10
-16.98885378624515
 20
9.759669751214613
 30
225.3983899795979
 70
   192
  0
VERTEX
  5
5D806
  8
0
 10
-17.37207252893592
 20
9.376451008521709
 30
225.3983899795975
 70
   192
  0
VERTEX
  5
5D807
  8
0
 10
-17.49981210983182
 20
8.887409332110487
 30
225.3983899795972
 70
   192
  0
VERTEX
  5
5D808
  8
0
 10
-17.37207252893459
 20
8.887409332111384
 30
225.8874316560081
 70
   192
  0
VERTEX
  5
5D809
  8
0
 10
-16.98885378624276
 20
8.887409332112155
 30
226.2706503987
 70
   192
  0
VERTEX
  5
5D80A
  8
0
 10
0.0
 20
0.0
 30
0.0
 70
   128
 71
     3
 72
     4
 73
     5
  0
VERTEX
  5
5D80B
  8
0
 10
0.0
 20
0.0
 30
0.0
 70
   128
 71
     2
 72
     3
 73
    -5
  0
VERTEX
  5
5D80C
  8
0
 10
0.0
 20
0.0
 30
0.0
 70
   128
 71
     9
 72
     1
 73
     2
  0
VERTEX
  5
5D80D
  8
0
 10
0.0
 20
0.0
 30
0.0
 70
   128
 71
     6
 72
     9
 73
    -2
  0
VERTEX
  5
5D80E
  8
0
 10
0.0
 20
0.0
 30
0.0
 70
   128
 71
     5
 72
    -6
 73
    -2
  0
VERTEX
  5
5D80F
  8
0
 10
0.0
 20
0.0
 30
0.0
 70
   128
 71
     7
 72
     8
 73
     9
  0
VERTEX
  5
5D810
  8
0
 10
0.0
 20
0.0
 30
0.0
 70
   128
 71
     6
 72
     7
 73
     9
  0
SEQEND
  5
5D998
  8
0
  0
POLYLINE
  5
5D811
  8
0
 66
     1
 10
0.0
 20
0.0
 30
0.0
 70
    64
 71
     9
 72
     7
  0
VERTEX
  5
5D812
  8
0
 10
-16.49981210979618
 20
-4.112590667887506
 30
226.3983899795877
 70
   192
  0
VERTEX
  5
5D813
  8
0
 10
-16.98885378620705
 20
-4.112590667887805
 30
226.2706503986903
 70
   192
  0
VERTEX
  5
5D814
  8
0
 10
-17.37207252889889
 20
-4.112590667888575
 30
225.8874316559984
 70
   192
  0
VERTEX
  5
5D815
  8
0
 10
-17.49981210979611
 20
-4.112590667889513
 30
225.3983899795876
 70
   192
  0
VERTEX
  5
5D816
  8
0
 10
-17.3720725288975
 20
-4.601632344300014
 30
225.398389979587
 70
   192
  0
VERTEX
  5
5D817
  8
0
 10
-16.9888537862046
 20
-4.984851086990812
 30
225.3983899795867
 70
   192
  0
VERTEX
  5
5D818
  8
0
 10
-16.49981210979336
 20
-5.112590667886764
 30
225.3983899795869
 70
   192
  0
VERTEX
  5
5D819
  8
0
 10
-16.49981210979247
 20
-4.984851086989829
 30
225.887431655998
 70
   192
  0
VERTEX
  5
5D81A
  8
0
 10
-16.49981210979355
 20
-4.601632344298249
 30
226.2706503986902
 70
   192
  0
VERTEX
  5
5D81B
  8
0
 10
0.0
 20
0.0
 30
0.0
 70
   128
 71
     3
 72
     4
 73
     5
  0
VERTEX
  5
5D81C
  8
0
 10
0.0
 20
0.0
 30
0.0
 70
   128
 71
     2
 72
     3
 73
    -5
  0
VERTEX
  5
5D81D
  8
0
 10
0.0
 20
0.0
 30
0.0
 70
   128
 71
     9
 72
     1
 73
     2
  0
VERTEX
  5
5D81E
  8
0
 10
0.0
 20
0.0
 30
0.0
 70
   128
 71
     6
 72
     9
 73
    -2
  0
VERTEX
  5
5D81F
  8
0
 10
0.0
 20
0.0
 30
0.0
 70
   128
 71
     5
 72
    -6
 73
    -2
  0
VERTEX
  5
5D820
  8
0
 10
0.0
 20
0.0
 30
0.0
 70
   128
 71
     7
 72
     8
 73
     9
  0
VERTEX
  5
5D821
  8
0
 10
0.0
 20
0.0
 30
0.0
 70
   128
 71
     6
 72
     7
 73
     9
  0
SEQEND
  5
5D999
  8
0
  0
POLYLINE
  5
5D822
  8
0
 66
     1
 10
0.0
 20
0.0
 30
0.0
 70
    64
 71
     8
 72
     6
  0
VERTEX
  5
5D823
  8
0
 10
-16.49981210979617
 20
-4.112590667887505
 30
226.3983899795877
 70
   192
  0
VERTEX
  5
5D824
  8
0
 10
-16.49981210979355
 20
-4.601632344298249
 30
226.2706503986902
 70
   192
  0
VERTEX
  5
5D825
  8
0
 10
-16.49981210979247
 20
-4.984851086989829
 30
225.887431655998
 70
   192
  0
VERTEX
  5
5D826
  8
0
 10
-16.49981210979336
 20
-5.112590667886765
 30
225.398389979587
 70
   192
  0
VERTEX
  5
5D827
  8
0
 10
16.50018789020655
 20
-5.112590667796142
 30
225.3983899795893
 70
   192
  0
VERTEX
  5
5D828
  8
0
 10
16.50018789020747
 20
-4.984851086899221
 30
225.8874316560003
 70
   192
  0
VERTEX
  5
5D829
  8
0
 10
16.50018789020643
 20
-4.601632344207654
 30
226.2706503986924
 70
   192
  0
VERTEX
  5
5D82A
  8
0
 10
16.50018789020383
 20
-4.112590667796883
 30
226.3983899795901
 70
   192
  0
VERTEX
  5
5D82B
  8
0
 10
0.0
 20
0.0
 30
0.0
 70
   128
 71
     4
 72
     5
 73
    -6
  0
VERTEX
  5
5D82C
  8
0
 10
0.0
 20
0.0
 30
0.0
 70
   128
 71
     3
 72
    -4
 73
     6
  0
VERTEX
  5
5D82D
  8
0
 10
0.0
 20
0.0
 30
0.0
 70
   128
 71
     7
 72
     2
 73
    -3
  0
VERTEX
  5
5D82E
  8
0
 10
0.0
 20
0.0
 30
0.0
 70
   128
 71
     6
 72
    -7
 73
     3
  0
VERTEX
  5
5D82F
  8
0
 10
0.0
 20
0.0
 30
0.0
 70
   128
 71
     8
 72
     1
 73
    -2
  0
VERTEX
  5
5D830
  8
0
 10
0.0
 20
0.0
 30
0.0
 70
   128
 71
     7
 72
    -8
 73
     2
  0
SEQEND
  5
5D99A
  8
0
  0
POLYLINE
  5
5D831
  8
0
 66
     1
 10
0.0
 20
0.0
 30
0.0
 70
    64
 71
     8
 72
     6
  0
VERTEX
  5
5D832
  8
0
 10
16.50018789020383
 20
-4.112590667796883
 30
226.3983899795901
 70
   192
  0
VERTEX
  5
5D833
  8
0
 10
16.9892295666147
 20
-4.11259066779545
 30
226.2706503986929
 70
   192
  0
VERTEX
  5
5D834
  8
0
 10
17.37244830930658
 20
-4.112590667794114
 30
225.887431656001
 70
   192
  0
VERTEX
  5
5D835
  8
0
 10
17.50018789020391
 20
-4.1125906677934
 30
225.3983899795901
 70
   192
  0
VERTEX
  5
5D836
  8
0
 10
17.50018789016819
 20
8.887409332206602
 30
225.3983899795997
 70
   192
  0
VERTEX
  5
5D837
  8
0
 10
17.37244830927087
 20
8.887409332205895
 30
225.8874316560106
 70
   192
  0
VERTEX
  5
5D838
  8
0
 10
16.989229566579
 20
8.887409332204559
 30
226.2706503987024
 70
   192
  0
VERTEX
  5
5D839
  8
0
 10
16.50018789016813
 20
8.887409332203118
 30
226.3983899795997
 70
   192
  0
VERTEX
  5
5D83A
  8
0
 10
0.0
 20
0.0
 30
0.0
 70
   128
 71
     4
 72
     5
 73
    -6
  0
VERTEX
  5
5D83B
  8
0
 10
0.0
 20
0.0
 30
0.0
 70
   128
 71
     3
 72
    -4
 73
     6
  0
VERTEX
  5
5D83C
  8
0
 10
0.0
 20
0.0
 30
0.0
 70
   128
 71
     7
 72
     2
 73
    -3
  0
VERTEX
  5
5D83D
  8
0
 10
0.0
 20
0.0
 30
0.0
 70
   128
 71
     6
 72
    -7
 73
     3
  0
VERTEX
  5
5D83E
  8
0
 10
0.0
 20
0.0
 30
0.0
 70
   128
 71
     8
 72
     1
 73
    -2
  0
VERTEX
  5
5D83F
  8
0
 10
0.0
 20
0.0
 30
0.0
 70
   128
 71
     7
 72
    -8
 73
     2
  0
SEQEND
  5
5D99B
  8
0
  0
POLYLINE
  5
5D840
  8
0
 66
     1
 10
0.0
 20
0.0
 30
0.0
 70
    64
 71
     8
 72
     6
  0
VERTEX
  5
5D841
  8
0
 10
16.50018789016813
 20
8.887409332203118
 30
226.3983899795997
 70
   192
  0
VERTEX
  5
5D842
  8
0
 10
16.50018789016675
 20
9.376451008614051
 30
226.2706503987027
 70
   192
  0
VERTEX
  5
5D843
  8
0
 10
16.50018789016572
 20
9.759669751306177
 30
225.8874316560112
 70
   192
  0
VERTEX
  5
5D844
  8
0
 10
16.50018789016544
 20
9.887409332203854
 30
225.3983899796004
 70
   192
  0
VERTEX
  5
5D845
  8
0
 10
-16.49981210983464
 20
9.887409332113233
 30
225.398389979598
 70
   192
  0
VERTEX
  5
5D846
  8
0
 10
-16.49981210983363
 20
9.75966975121563
 30
225.8874316560088
 70
   192
  0
VERTEX
  5
5D847
  8
0
 10
-16.49981210983257
 20
9.376451008523494
 30
226.2706503987004
 70
   192
  0
VERTEX
  5
5D848
  8
0
 10
-16.49981210983188
 20
8.887409332112497
 30
226.3983899795973
 70
   192
  0
VERTEX
  5
5D849
  8
0
 10
0.0
 20
0.0
 30
0.0
 70
   128
 71
     4
 72
     5
 73
    -6
  0
VERTEX
  5
5D84A
  8
0
 10
0.0
 20
0.0
 30
0.0
 70
   128
 71
     3
 72
    -4
 73
     6
  0
VERTEX
  5
5D84B
  8
0
 10
0.0
 20
0.0
 30
0.0
 70
   128
 71
     7
 72
     2
 73
    -3
  0
VERTEX
  5
5D84C
  8
0
 10
0.0
 20
0.0
 30
0.0
 70
   128
 71
     6
 72
    -7
 73
     3
  0
VERTEX
  5
5D84D
  8
0
 10
0.0
 20
0.0
 30
0.0
 70
   128
 71
     8
 72
     1
 73
    -2
  0
VERTEX
  5
5D84E
  8
0
 10
0.0
 20
0.0
 30
0.0
 70
   128
 71
     7
 72
    -8
 73
     2
  0
SEQEND
  5
5D99C
  8
0
  0
POLYLINE
  5
5D84F
  8
0
 66
     1
 10
0.0
 20
0.0
 30
0.0
 70
    64
 71
     8
 72
     6
  0
VERTEX
  5
5D850
  8
0
 10
-16.49981210983189
 20
8.8874093321125
 30
226.3983899795973
 70
   192
  0
VERTEX
  5
5D851
  8
0
 10
-16.98885378624276
 20
8.887409332112155
 30
226.2706503987
 70
   192
  0
VERTEX
  5
5D852
  8
0
 10
-17.37207252893459
 20
8.887409332111384
 30
225.8874316560081
 70
   192
  0
VERTEX
  5
5D853
  8
0
 10
-17.49981210983182
 20
8.887409332110487
 30
225.3983899795972
 70
   192
  0
VERTEX
  5
5D854
  8
0
 10
-17.49981210979611
 20
-4.112590667889512
 30
225.3983899795876
 70
   192
  0
VERTEX
  5
5D855
  8
0
 10
-17.37207252889889
 20
-4.112590667888575
 30
225.8874316559984
 70
   192
  0
VERTEX
  5
5D856
  8
0
 10
-16.98885378620705
 20
-4.112590667887805
 30
226.2706503986903
 70
   192
  0
VERTEX
  5
5D857
  8
0
 10
-16.49981210979618
 20
-4.112590667887506
 30
226.3983899795877
 70
   192
  0
VERTEX
  5
5D858
  8
0
 10
0.0
 20
0.0
 30
0.0
 70
   128
 71
     4
 72
     5
 73
    -6
  0
VERTEX
  5
5D859
  8
0
 10
0.0
 20
0.0
 30
0.0
 70
   128
 71
     3
 72
    -4
 73
     6
  0
VERTEX
  5
5D85A
  8
0
 10
0.0
 20
0.0
 30
0.0
 70
   128
 71
     7
 72
     2
 73
    -3
  0
VERTEX
  5
5D85B
  8
0
 10
0.0
 20
0.0
 30
0.0
 70
   128
 71
     6
 72
    -7
 73
     3
  0
VERTEX
  5
5D85C
  8
0
 10
0.0
 20
0.0
 30
0.0
 70
   128
 71
     8
 72
     1
 73
    -2
  0
VERTEX
  5
5D85D
  8
0
 10
0.0
 20
0.0
 30
0.0
 70
   128
 71
     7
 72
    -8
 73
     2
  0
SEQEND
  5
5D99D
  8
0
  0
POLYLINE
  5
5D85E
  8
0
 66
     1
 10
0.0
 20
0.0
 30
0.0
 70
    64
 71
     4
 72
     2
  0
VERTEX
  5
5D85F
  8
0
 10
16.50018789016813
 20
8.887409332203118
 30
226.3983899795997
 70
   192
  0
VERTEX
  5
5D860
  8
0
 10
-16.49981210983188
 20
8.887409332112497
 30
226.3983899795973
 70
   192
  0
VERTEX
  5
5D861
  8
0
 10
-16.49981210979617
 20
-4.112590667887505
 30
226.3983899795877
 70
   192
  0
VERTEX
  5
5D862
  8
0
 10
16.50018789020383
 20
-4.112590667796883
 30
226.3983899795901
 70
   192
  0
VERTEX
  5
5D863
  8
0
 10
0.0
 20
0.0
 30
0.0
 70
   128
 71
     3
 72
     4
 73
    -1
  0
VERTEX
  5
5D864
  8
0
 10
0.0
 20
0.0
 30
0.0
 70
   128
 71
     2
 72
    -3
 73
     1
  0
SEQEND
  5
5D99E
  8
0
  0
POLYLINE
  5
5D865
  8
0
 66
     1
 10
0.0
 20
0.0
 30
0.0
 70
    64
 71
    15
 72
    13
  0
VERTEX
  5
5D866
  8
0
 10
-4.168910206189063
 20
-5.094001507354538
 30
200.0847332814973
 70
   192
  0
VERTEX
  5
5D867
  8
0
 10
0.0001878902082716
 20
-5.093326246141914
 30
201.2030499544507
 70
   192
  0
VERTEX
  5
5D868
  8
0
 10
0.0001878902082961
 20
-5.104211397751789
 30
201.2692066680621
 70
   192
  0
VERTEX
  5
5D869
  8
0
 10
0.0001878902083082
 20
-5.110544532410644
 30
201.334451852027
 70
   192
  0
VERTEX
  5
5D86A
  8
0
 10
0.0001878902083086
 20
-5.112590667823762
 30
201.3983899795881
 70
   192
  0
VERTEX
  5
5D86B
  8
0
 10
-7.213117846911559
 20
-5.100159362159989
 30
188.7064926260664
 70
   192
  0
VERTEX
  5
5D86C
  8
0
 10
-8.329884451324387
 20
-5.098053890384357
 30
192.8729776129178
 70
   192
  0
VERTEX
  5
5D86D
  8
0
 10
-7.414025672163885
 20
-5.112590667834796
 30
188.7415357300952
 70
   192
  0
VERTEX
  5
5D86E
  8
0
 10
0.0001878902095636
 20
-5.108003750424796
 30
184.494060220321
 70
   192
  0
VERTEX
  5
5D86F
  8
0
 10
0.0001878902095427
 20
-5.102093234981914
 30
184.5429052713839
 70
   192
  0
VERTEX
  5
5D870
  8
0
 10
-4.163096250186237
 20
-5.101591902121234
 30
185.6579446871087
 70
   192
  0
VERTEX
  5
5D871
  8
0
 10
-7.414025672164515
 20
-5.112590667840925
 30
197.0552442290801
 70
   192
  0
VERTEX
  5
5D872
  8
0
 10
-7.216735182060884
 20
-5.095779813546861
 30
197.0331923101264
 70
   192
  0
VERTEX
  5
5D873
  8
0
 10
0.0001878902095853
 20
-5.11259066781123
 30
184.3983899795881
 70
   192
  0
VERTEX
  5
5D874
  8
0
 10
0.0001878902095777
 20
-5.111464427297209
 30
184.445836924805
 70
   192
  0
VERTEX
  5
5D875
  8
0
 10
0.0
 20
0.0
 30
0.0
 70
   128
 71
     1
 72
     2
 73
     3
  0
VERTEX
  5
5D876
  8
0
 10
0.0
 20
0.0
 30
0.0
 70
   128
 71
     3
 72
     4
 73
     1
  0
VERTEX
  5
5D877
  8
0
 10
0.0
 20
0.0
 30
0.0
 70
   128
 71
     4
 72
     5
 73
     1
  0
VERTEX
  5
5D878
  8
0
 10
0.0
 20
0.0
 30
0.0
 70
   128
 71
     6
 72
     7
 73
     8
  0
VERTEX
  5
5D879
  8
0
 10
0.0
 20
0.0
 30
0.0
 70
   128
 71
     9
 72
    10
 73
    11
  0
VERTEX
  5
5D87A
  8
0
 10
0.0
 20
0.0
 30
0.0
 70
   128
 71
     1
 72
     5
 73
    12
  0
VERTEX
  5
5D87B
  8
0
 10
0.0
 20
0.0
 30
0.0
 70
   128
 71
    12
 72
    13
 73
     1
  0
VERTEX
  5
5D87C
  8
0
 10
0.0
 20
0.0
 30
0.0
 70
   128
 71
    12
 72
     8
 73
     7
  0
VERTEX
  5
5D87D
  8
0
 10
0.0
 20
0.0
 30
0.0
 70
   128
 71
     7
 72
    13
 73
    12
  0
VERTEX
  5
5D87E
  8
0
 10
0.0
 20
0.0
 30
0.0
 70
   128
 71
    11
 72
    14
 73
    15
  0
VERTEX
  5
5D87F
  8
0
 10
0.0
 20
0.0
 30
0.0
 70
   128
 71
    15
 72
     9
 73
    11
  0
VERTEX
  5
5D880
  8
0
 10
0.0
 20
0.0
 30
0.0
 70
   128
 71
    11
 72
     8
 73
    14
  0
VERTEX
  5
5D881
  8
0
 10
0.0
 20
0.0
 30
0.0
 70
   128
 71
    11
 72
     6
 73
     8
  0
SEQEND
  5
5D99F
  8
0
  0
POLYLINE
  5
5D882
  8
0
 66
     1
 10
0.0
 20
0.0
 30
0.0
 70
    64
 71
    10
 72
    10
  0
VERTEX
  5
5D883
  8
0
 10
-16.49981210979335
 20
-5.112590667609485
 30
-150.7277819891441
 70
   192
  0
VERTEX
  5
5D884
  8
0
 10
16.50018789023368
 20
-5.112590667518863
 30
-150.7277819891417
 70
   192
  0
VERTEX
  5
5D885
  8
0
 10
16.50018789020655
 20
-5.112590667796142
 30
225.3983899795893
 70
   192
  0
VERTEX
  5
5D886
  8
0
 10
-16.49981210979336
 20
-5.112590667886764
 30
225.3983899795869
 70
   192
  0
VERTEX
  5
5D887
  8
0
 10
0.0001878902095853
 20
-5.11259066781123
 30
184.3983899795881
 70
   192
  0
VERTEX
  5
5D888
  8
0
 10
-7.414025672163885
 20
-5.112590667834796
 30
188.7415357300952
 70
   192
  0
VERTEX
  5
5D889
  8
0
 10
-7.414025672164515
 20
-5.112590667840925
 30
197.0552442290801
 70
   192
  0
VERTEX
  5
5D88A
  8
0
 10
0.0001878902083086
 20
-5.112590667823762
 30
201.3983899795881
 70
   192
  0
VERTEX
  5
5D88B
  8
0
 10
7.414401452581788
 20
-5.112590667800204
 30
197.0552442290811
 70
   192
  0
VERTEX
  5
5D88C
  8
0
 10
7.414401452582412
 20
-5.112590667794077
 30
188.7415357300963
 70
   192
  0
VERTEX
  5
5D88D
  8
0
 10
0.0
 20
0.0
 30
0.0
 70
   128
 71
    -2
 72
     5
 73
    -6
  0
VERTEX
  5
5D88E
  8
0
 10
0.0
 20
0.0
 30
0.0
 70
   128
 71
     1
 72
    -2
 73
    -6
  0
VERTEX
  5
5D88F
  8
0
 10
0.0
 20
0.0
 30
0.0
 70
   128
 71
    -6
 72
     4
 73
    -1
  0
VERTEX
  5
5D890
  8
0
 10
0.0
 20
0.0
 30
0.0
 70
   128
 71
     6
 72
    -7
 73
    -4
  0
VERTEX
  5
5D891
  8
0
 10
0.0
 20
0.0
 30
0.0
 70
   128
 71
    -8
 72
     3
 73
    -4
  0
VERTEX
  5
5D892
  8
0
 10
0.0
 20
0.0
 30
0.0
 70
   128
 71
     7
 72
    -8
 73
    -4
  0
VERTEX
  5
5D893
  8
0
 10
0.0
 20
0.0
 30
0.0
 70
   128
 71
     8
 72
    -9
 73
    -3
  0
VERTEX
  5
5D894
  8
0
 10
0.0
 20
0.0
 30
0.0
 70
   128
 71
     9
 72
   -10
 73
    -3
  0
VERTEX
  5
5D895
  8
0
 10
0.0
 20
0.0
 30
0.0
 70
   128
 71
     2
 72
    -3
 73
   -10
  0
VERTEX
  5
5D896
  8
0
 10
0.0
 20
0.0
 30
0.0
 70
   128
 71
    10
 72
    -5
 73
    -2
  0
SEQEND
  5
5D9A0
  8
0
  0
POLYLINE
  5
5D897
  8
0
 66
     1
 10
0.0
 20
0.0
 30
0.0
 70
    64
 71
     8
 72
     6
  0
VERTEX
  5
5D898
  8
0
 10
-16.4998121098075
 20
9.887409332390515
 30
-150.7277819891224
 70
   192
  0
VERTEX
  5
5D899
  8
0
 10
-16.98885378621801
 20
9.75966975149189
 30
-150.7277819891263
 70
   192
  0
VERTEX
  5
5D89A
  8
0
 10
-17.37207252890882
 20
9.376451008798991
 30
-150.7277819891263
 70
   192
  0
VERTEX
  5
5D89B
  8
0
 10
-17.49981210980476
 20
8.887409332387767
 30
-150.7277819891224
 70
   192
  0
VERTEX
  5
5D89C
  8
0
 10
-17.49981210983182
 20
8.887409332110487
 30
225.3983899795972
 70
   192
  0
VERTEX
  5
5D89D
  8
0
 10
-17.37207252893592
 20
9.376451008521709
 30
225.3983899795975
 70
   192
  0
VERTEX
  5
5D89E
  8
0
 10
-16.98885378624515
 20
9.759669751214613
 30
225.3983899795979
 70
   192
  0
VERTEX
  5
5D89F
  8
0
 10
-16.49981210983464
 20
9.887409332113233
 30
225.398389979598
 70
   192
  0
VERTEX
  5
5D8A0
  8
0
 10
0.0
 20
0.0
 30
0.0
 70
   128
 71
     4
 72
     5
 73
    -6
  0
VERTEX
  5
5D8A1
  8
0
 10
0.0
 20
0.0
 30
0.0
 70
   128
 71
     3
 72
    -4
 73
     6
  0
VERTEX
  5
5D8A2
  8
0
 10
0.0
 20
0.0
 30
0.0
 70
   128
 71
     7
 72
     2
 73
    -3
  0
VERTEX
  5
5D8A3
  8
0
 10
0.0
 20
0.0
 30
0.0
 70
   128
 71
     6
 72
    -7
 73
     3
  0
VERTEX
  5
5D8A4
  8
0
 10
0.0
 20
0.0
 30
0.0
 70
   128
 71
     8
 72
     1
 73
    -2
  0
VERTEX
  5
5D8A5
  8
0
 10
0.0
 20
0.0
 30
0.0
 70
   128
 71
     7
 72
    -8
 73
     2
  0
SEQEND
  5
5D9A1
  8
0
  0
POLYLINE
  5
5D8A6
  8
0
 66
     1
 10
0.0
 20
0.0
 30
0.0
 70
    64
 71
     8
 72
     6
  0
VERTEX
  5
5D8A7
  8
0
 10
17.50018789019524
 20
8.887409332483882
 30
-150.7277819891224
 70
   192
  0
VERTEX
  5
5D8A8
  8
0
 10
17.37244830929662
 20
9.376451008894398
 30
-150.7277819891251
 70
   192
  0
VERTEX
  5
5D8A9
  8
0
 10
16.98922956660372
 20
9.759669751585191
 30
-150.727781989125
 70
   192
  0
VERTEX
  5
5D8AA
  8
0
 10
16.5001878901925
 20
9.887409332481134
 30
-150.7277819891224
 70
   192
  0
VERTEX
  5
5D8AB
  8
0
 10
16.50018789016544
 20
9.887409332203854
 30
225.3983899796004
 70
   192
  0
VERTEX
  5
5D8AC
  8
0
 10
16.98922956657664
 20
9.759669751307914
 30
225.3983899796008
 70
   192
  0
VERTEX
  5
5D8AD
  8
0
 10
17.37244830926954
 20
9.376451008617126
 30
225.3983899796005
 70
   192
  0
VERTEX
  5
5D8AE
  8
0
 10
17.50018789016819
 20
8.887409332206602
 30
225.3983899795997
 70
   192
  0
VERTEX
  5
5D8AF
  8
0
 10
0.0
 20
0.0
 30
0.0
 70
   128
 71
     4
 72
     5
 73
    -6
  0
VERTEX
  5
5D8B0
  8
0
 10
0.0
 20
0.0
 30
0.0
 70
   128
 71
     3
 72
    -4
 73
     6
  0
VERTEX
  5
5D8B1
  8
0
 10
0.0
 20
0.0
 30
0.0
 70
   128
 71
     7
 72
     2
 73
    -3
  0
VERTEX
  5
5D8B2
  8
0
 10
0.0
 20
0.0
 30
0.0
 70
   128
 71
     6
 72
    -7
 73
     3
  0
VERTEX
  5
5D8B3
  8
0
 10
0.0
 20
0.0
 30
0.0
 70
   128
 71
     8
 72
     1
 73
    -2
  0
VERTEX
  5
5D8B4
  8
0
 10
0.0
 20
0.0
 30
0.0
 70
   128
 71
     7
 72
    -8
 73
     2
  0
SEQEND
  5
5D9A2
  8
0
  0
POLYLINE
  5
5D8B5
  8
0
 66
     1
 10
0.0
 20
0.0
 30
0.0
 70
    64
 71
     8
 72
     6
  0
VERTEX
  5
5D8B6
  8
0
 10
16.50018789023368
 20
-5.112590667518864
 30
-150.7277819891429
 70
   192
  0
VERTEX
  5
5D8B7
  8
0
 10
16.98922956664417
 20
-4.984851086620226
 30
-150.7277819891399
 70
   192
  0
VERTEX
  5
5D8B8
  8
0
 10
17.37244830933496
 20
-4.601632343927329
 30
-150.7277819891321
 70
   192
  0
VERTEX
  5
5D8B9
  8
0
 10
17.50018789023094
 20
-4.112590667516121
 30
-150.7277819891224
 70
   192
  0
VERTEX
  5
5D8BA
  8
0
 10
17.50018789020391
 20
-4.1125906677934
 30
225.3983899795901
 70
   192
  0
VERTEX
  5
5D8BB
  8
0
 10
17.37244830930796
 20
-4.601632344204621
 30
225.3983899795899
 70
   192
  0
VERTEX
  5
5D8BC
  8
0
 10
16.98922956661711
 20
-4.984851086897519
 30
225.3983899795896
 70
   192
  0
VERTEX
  5
5D8BD
  8
0
 10
16.50018789020655
 20
-5.112590667796142
 30
225.3983899795893
 70
   192
  0
VERTEX
  5
5D8BE
  8
0
 10
0.0
 20
0.0
 30
0.0
 70
   128
 71
     4
 72
     5
 73
    -6
  0
VERTEX
  5
5D8BF
  8
0
 10
0.0
 20
0.0
 30
0.0
 70
   128
 71
     3
 72
    -4
 73
     6
  0
VERTEX
  5
5D8C0
  8
0
 10
0.0
 20
0.0
 30
0.0
 70
   128
 71
     7
 72
     2
 73
    -3
  0
VERTEX
  5
5D8C1
  8
0
 10
0.0
 20
0.0
 30
0.0
 70
   128
 71
     6
 72
    -7
 73
     3
  0
VERTEX
  5
5D8C2
  8
0
 10
0.0
 20
0.0
 30
0.0
 70
   128
 71
     8
 72
     1
 73
    -2
  0
VERTEX
  5
5D8C3
  8
0
 10
0.0
 20
0.0
 30
0.0
 70
   128
 71
     7
 72
    -8
 73
     2
  0
SEQEND
  5
5D9A3
  8
0
  0
POLYLINE
  5
5D8C4
  8
0
 66
     1
 10
0.0
 20
0.0
 30
0.0
 70
    64
 71
     8
 72
     6
  0
VERTEX
  5
5D8C5
  8
0
 10
-17.49981210976906
 20
-4.112590667612233
 30
-150.7277819891224
 70
   192
  0
VERTEX
  5
5D8C6
  8
0
 10
-17.37207252887388
 20
-4.601632344022758
 30
-150.7277819891334
 70
   192
  0
VERTEX
  5
5D8C7
  8
0
 10
-16.98885378619135
 20
-4.984851086713552
 30
-150.7277819891417
 70
   192
  0
VERTEX
  5
5D8C8
  8
0
 10
-16.49981210979336
 20
-5.112590667609485
 30
-150.7277819891441
 70
   192
  0
VERTEX
  5
5D8C9
  8
0
 10
-16.49981210979336
 20
-5.112590667886764
 30
225.3983899795869
 70
   192
  0
VERTEX
  5
5D8CA
  8
0
 10
-16.9888537862046
 20
-4.984851086990812
 30
225.3983899795867
 70
   192
  0
VERTEX
  5
5D8CB
  8
0
 10
-17.3720725288975
 20
-4.601632344300014
 30
225.398389979587
 70
   192
  0
VERTEX
  5
5D8CC
  8
0
 10
-17.49981210979611
 20
-4.112590667889513
 30
225.3983899795876
 70
   192
  0
VERTEX
  5
5D8CD
  8
0
 10
0.0
 20
0.0
 30
0.0
 70
   128
 71
     4
 72
     5
 73
    -6
  0
VERTEX
  5
5D8CE
  8
0
 10
0.0
 20
0.0
 30
0.0
 70
   128
 71
     3
 72
    -4
 73
     6
  0
VERTEX
  5
5D8CF
  8
0
 10
0.0
 20
0.0
 30
0.0
 70
   128
 71
     7
 72
     2
 73
    -3
  0
VERTEX
  5
5D8D0
  8
0
 10
0.0
 20
0.0
 30
0.0
 70
   128
 71
     6
 72
    -7
 73
     3
  0
VERTEX
  5
5D8D1
  8
0
 10
0.0
 20
0.0
 30
0.0
 70
   128
 71
     8
 72
     1
 73
    -2
  0
VERTEX
  5
5D8D2
  8
0
 10
0.0
 20
0.0
 30
0.0
 70
   128
 71
     7
 72
    -8
 73
     2
  0
SEQEND
  5
5D9A4
  8
0
  0
POLYLINE
  5
5D8D3
  8
0
 66
     1
 10
0.0
 20
0.0
 30
0.0
 70
    64
 71
     4
 72
     2
  0
VERTEX
  5
5D8D4
  8
0
 10
16.5001878901925
 20
9.887409332481136
 30
-150.7277819891307
 70
   192
  0
VERTEX
  5
5D8D5
  8
0
 10
-16.4998121098075
 20
9.887409332390513
 30
-150.727781989133
 70
   192
  0
VERTEX
  5
5D8D6
  8
0
 10
-16.49981210983464
 20
9.887409332113233
 30
225.398389979598
 70
   192
  0
VERTEX
  5
5D8D7
  8
0
 10
16.50018789016544
 20
9.887409332203854
 30
225.3983899796004
 70
   192
  0
VERTEX
  5
5D8D8
  8
0
 10
0.0
 20
0.0
 30
0.0
 70
   128
 71
     3
 72
     4
 73
    -1
  0
VERTEX
  5
5D8D9
  8
0
 10
0.0
 20
0.0
 30
0.0
 70
   128
 71
     2
 72
    -3
 73
     1
  0
SEQEND
  5
5D9A5
  8
0
  0
POLYLINE
  5
5D8DA
  8
0
 66
     1
 10
0.0
 20
0.0
 30
0.0
 70
    64
 71
     4
 72
     2
  0
VERTEX
  5
5D8DB
  8
0
 10
-17.49981210980475
 20
8.887409332387767
 30
-150.7277819891338
 70
   192
  0
VERTEX
  5
5D8DC
  8
0
 10
-17.49981210976905
 20
-4.112590667612231
 30
-150.7277819891434
 70
   192
  0
VERTEX
  5
5D8DD
  8
0
 10
-17.49981210979611
 20
-4.112590667889513
 30
225.3983899795876
 70
   192
  0
VERTEX
  5
5D8DE
  8
0
 10
-17.49981210983182
 20
8.887409332110487
 30
225.3983899795972
 70
   192
  0
VERTEX
  5
5D8DF
  8
0
 10
0.0
 20
0.0
 30
0.0
 70
   128
 71
     3
 72
     4
 73
    -1
  0
VERTEX
  5
5D8E0
  8
0
 10
0.0
 20
0.0
 30
0.0
 70
   128
 71
     2
 72
    -3
 73
     1
  0
SEQEND
  5
5D9A6
  8
0
  0
POLYLINE
  5
5D8E1
  8
0
 66
     1
 10
0.0
 20
0.0
 30
0.0
 70
    64
 71
     4
 72
     2
  0
VERTEX
  5
5D8E2
  8
0
 10
17.50018789023094
 20
-4.112590667516123
 30
-150.7277819891409
 70
   192
  0
VERTEX
  5
5D8E3
  8
0
 10
17.50018789019525
 20
8.887409332483882
 30
-150.7277819891313
 70
   192
  0
VERTEX
  5
5D8E4
  8
0
 10
17.50018789016819
 20
8.887409332206602
 30
225.3983899795997
 70
   192
  0
VERTEX
  5
5D8E5
  8
0
 10
17.50018789020391
 20
-4.1125906677934
 30
225.3983899795901
 70
   192
  0
VERTEX
  5
5D8E6
  8
0
 10
0.0
 20
0.0
 30
0.0
 70
   128
 71
     3
 72
     4
 73
    -1
  0
VERTEX
  5
5D8E7
  8
0
 10
0.0
 20
0.0
 30
0.0
 70
   128
 71
     2
 72
    -3
 73
     1
  0
SEQEND
  5
5D9A7
  8
0
  0
POLYLINE
  5
5D8E8
  8
0
 66
     1
 10
0.0
 20
0.0
 30
0.0
 70
    64
 71
    16
 72
    14
  0
VERTEX
  5
5D8E9
  8
0
 10
16.50018789019306
 20
9.88740933248694
 30
-158.6016100203996
 70
   192
  0
VERTEX
  5
5D8EA
  8
0
 10
16.98922956660428
 20
9.759669751590996
 30
-158.6016100203994
 70
   192
  0
VERTEX
  5
5D8EB
  8
0
 10
17.37244830929718
 20
9.376451008900203
 30
-158.6016100203996
 70
   192
  0
VERTEX
  5
5D8EC
  8
0
 10
17.50018789019581
 20
8.887409332489685
 30
-158.6016100204003
 70
   192
  0
VERTEX
  5
5D8ED
  8
0
 10
17.5001878902315
 20
-4.112590667510317
 30
-158.6016100204099
 70
   192
  0
VERTEX
  5
5D8EE
  8
0
 10
17.37244830933553
 20
-4.601632343921525
 30
-158.6016100204104
 70
   192
  0
VERTEX
  5
5D8EF
  8
0
 10
16.98922956664473
 20
-4.984851086614421
 30
-158.6016100204106
 70
   192
  0
VERTEX
  5
5D8F0
  8
0
 10
16.50018789023425
 20
-5.112590667513059
 30
-158.6016100204107
 70
   192
  0
VERTEX
  5
5D8F1
  8
0
 10
-16.49981210976574
 20
-5.112590667603681
 30
-158.6016100204131
 70
   192
  0
VERTEX
  5
5D8F2
  8
0
 10
-16.98885378617696
 20
-4.984851086707748
 30
-158.6016100204134
 70
   192
  0
VERTEX
  5
5D8F3
  8
0
 10
-17.37207252886986
 20
-4.601632344016953
 30
-158.6016100204131
 70
   192
  0
VERTEX
  5
5D8F4
  8
0
 10
-17.49981210976849
 20
-4.112590667606428
 30
-158.6016100204124
 70
   192
  0
VERTEX
  5
5D8F5
  8
0
 10
-17.4998121098042
 20
8.887409332393572
 30
-158.6016100204029
 70
   192
  0
VERTEX
  5
5D8F6
  8
0
 10
-17.37207252890825
 20
9.376451008804796
 30
-158.6016100204025
 70
   192
  0
VERTEX
  5
5D8F7
  8
0
 10
-16.98885378621744
 20
9.759669751497697
 30
-158.6016100204022
 70
   192
  0
VERTEX
  5
5D8F8
  8
0
 10
-16.49981210980693
 20
9.887409332396317
 30
-158.601610020402
 70
   192
  0
VERTEX
  5
5D8F9
  8
0
 10
0.0
 20
0.0
 30
0.0
 70
   128
 71
    15
 72
    16
 73
    -1
  0
VERTEX
  5
5D8FA
  8
0
 10
0.0
 20
0.0
 30
0.0
 70
   128
 71
    14
 72
   -15
 73
    -1
  0
VERTEX
  5
5D8FB
  8
0
 10
0.0
 20
0.0
 30
0.0
 70
   128
 71
    13
 72
   -14
 73
    -1
  0
VERTEX
  5
5D8FC
  8
0
 10
0.0
 20
0.0
 30
0.0
 70
   128
 71
    12
 72
   -13
 73
    -1
  0
VERTEX
  5
5D8FD
  8
0
 10
0.0
 20
0.0
 30
0.0
 70
   128
 71
    11
 72
   -12
 73
    -1
  0
VERTEX
  5
5D8FE
  8
0
 10
0.0
 20
0.0
 30
0.0
 70
   128
 71
    10
 72
   -11
 73
    -1
  0
VERTEX
  5
5D8FF
  8
0
 10
0.0
 20
0.0
 30
0.0
 70
   128
 71
     9
 72
   -10
 73
    -1
  0
VERTEX
  5
5D900
  8
0
 10
0.0
 20
0.0
 30
0.0
 70
   128
 71
     8
 72
    -9
 73
    -1
  0
VERTEX
  5
5D901
  8
0
 10
0.0
 20
0.0
 30
0.0
 70
   128
 71
     7
 72
    -8
 73
    -1
  0
VERTEX
  5
5D902
  8
0
 10
0.0
 20
0.0
 30
0.0
 70
   128
 71
     6
 72
    -7
 73
    -1
  0
VERTEX
  5
5D903
  8
0
 10
0.0
 20
0.0
 30
0.0
 70
   128
 71
     5
 72
    -6
 73
    -1
  0
VERTEX
  5
5D904
  8
0
 10
0.0
 20
0.0
 30
0.0
 70
   128
 71
     4
 72
    -5
 73
    -1
  0
VERTEX
  5
5D905
  8
0
 10
0.0
 20
0.0
 30
0.0
 70
   128
 71
     3
 72
    -4
 73
    -1
  0
VERTEX
  5
5D906
  8
0
 10
0.0
 20
0.0
 30
0.0
 70
   128
 71
     2
 72
    -3
 73
     1
  0
SEQEND
  5
5D9A8
  8
0
  0
POLYLINE
  5
5D907
  8
0
 66
     1
 10
0.0
 20
0.0
 30
0.0
 70
    64
 71
     4
 72
     2
  0
VERTEX
  5
5D908
  8
0
 10
17.50018789019581
 20
8.887409332489685
 30
-158.6016100204003
 70
   192
  0
VERTEX
  5
5D909
  8
0
 10
17.50018789019581
 20
8.887409332489684
 30
-158.5857347011923
 70
   192
  0
VERTEX
  5
5D90A
  8
0
 10
17.50018789023151
 20
-4.112590667510329
 30
-158.5857347012019
 70
   192
  0
VERTEX
  5
5D90B
  8
0
 10
17.5001878902315
 20
-4.112590667510317
 30
-158.6016100204099
 70
   192
  0
VERTEX
  5
5D90C
  8
0
 10
0.0
 20
0.0
 30
0.0
 70
   128
 71
     3
 72
     4
 73
    -1
  0
VERTEX
  5
5D90D
  8
0
 10
0.0
 20
0.0
 30
0.0
 70
   128
 71
     2
 72
    -3
 73
     1
  0
SEQEND
  5
5D9A9
  8
0
  0
POLYLINE
  5
5D90E
  8
0
 66
     1
 10
0.0
 20
0.0
 30
0.0
 70
    64
 71
     4
 72
     2
  0
VERTEX
  5
5D90F
  8
0
 10
-17.49981210976849
 20
-4.112590667606428
 30
-158.6016100204124
 70
   192
  0
VERTEX
  5
5D910
  8
0
 10
-17.49981210976849
 20
-4.112590667606441
 30
-158.5857347012044
 70
   192
  0
VERTEX
  5
5D911
  8
0
 10
-17.49981210980419
 20
8.88740933239357
 30
-158.5857347011948
 70
   192
  0
VERTEX
  5
5D912
  8
0
 10
-17.4998121098042
 20
8.887409332393572
 30
-158.6016100204029
 70
   192
  0
VERTEX
  5
5D913
  8
0
 10
0.0
 20
0.0
 30
0.0
 70
   128
 71
     3
 72
     4
 73
    -1
  0
VERTEX
  5
5D914
  8
0
 10
0.0
 20
0.0
 30
0.0
 70
   128
 71
     2
 72
    -3
 73
     1
  0
SEQEND
  5
5D9AA
  8
0
  0
POLYLINE
  5
5D915
  8
0
 66
     1
 10
0.0
 20
0.0
 30
0.0
 70
    64
 71
     4
 72
     2
  0
VERTEX
  5
5D916
  8
0
 10
-16.49981210980693
 20
9.887409332396317
 30
-158.601610020402
 70
   192
  0
VERTEX
  5
5D917
  8
0
 10
-16.49981210980693
 20
9.887409332396304
 30
-158.585734701194
 70
   192
  0
VERTEX
  5
5D918
  8
0
 10
16.50018789019308
 20
9.887409332486932
 30
-158.5857347011916
 70
   192
  0
VERTEX
  5
5D919
  8
0
 10
16.50018789019306
 20
9.88740933248694
 30
-158.6016100203996
 70
   192
  0
VERTEX
  5
5D91A
  8
0
 10
0.0
 20
0.0
 30
0.0
 70
   128
 71
     3
 72
     4
 73
    -1
  0
VERTEX
  5
5D91B
  8
0
 10
0.0
 20
0.0
 30
0.0
 70
   128
 71
     2
 72
    -3
 73
     1
  0
SEQEND
  5
5D9AB
  8
0
  0
POLYLINE
  5
5D91C
  8
0
 66
     1
 10
0.0
 20
0.0
 30
0.0
 70
    64
 71
     8
 72
     6
  0
VERTEX
  5
5D91D
  8
0
 10
-16.49981210976574
 20
-5.112590667603681
 30
-158.6016100204131
 70
   192
  0
VERTEX
  5
5D91E
  8
0
 10
-16.49981210976574
 20
-5.112590667603693
 30
-158.5857347012038
 70
   192
  0
VERTEX
  5
5D91F
  8
0
 10
-16.98885378617695
 20
-4.984851086707758
 30
-158.5857347012046
 70
   192
  0
VERTEX
  5
5D920
  8
0
 10
-17.37207252886986
 20
-4.601632344016966
 30
-158.5857347012048
 70
   192
  0
VERTEX
  5
5D921
  8
0
 10
-17.49981210976849
 20
-4.112590667606441
 30
-158.5857347012044
 70
   192
  0
VERTEX
  5
5D922
  8
0
 10
-17.49981210976849
 20
-4.112590667606428
 30
-158.6016100204124
 70
   192
  0
VERTEX
  5
5D923
  8
0
 10
-17.37207252886986
 20
-4.601632344016953
 30
-158.6016100204131
 70
   192
  0
VERTEX
  5
5D924
  8
0
 10
-16.98885378617696
 20
-4.984851086707748
 30
-158.6016100204134
 70
   192
  0
VERTEX
  5
5D925
  8
0
 10
0.0
 20
0.0
 30
0.0
 70
   128
 71
     5
 72
     6
 73
    -7
  0
VERTEX
  5
5D926
  8
0
 10
0.0
 20
0.0
 30
0.0
 70
   128
 71
     4
 72
    -5
 73
     7
  0
VERTEX
  5
5D927
  8
0
 10
0.0
 20
0.0
 30
0.0
 70
   128
 71
     8
 72
     3
 73
    -4
  0
VERTEX
  5
5D928
  8
0
 10
0.0
 20
0.0
 30
0.0
 70
   128
 71
     7
 72
    -8
 73
     4
  0
VERTEX
  5
5D929
  8
0
 10
0.0
 20
0.0
 30
0.0
 70
   128
 71
     1
 72
     2
 73
    -3
  0
VERTEX
  5
5D92A
  8
0
 10
0.0
 20
0.0
 30
0.0
 70
   128
 71
     8
 72
    -1
 73
     3
  0
SEQEND
  5
5D9AC
  8
0
  0
POLYLINE
  5
5D92B
  8
0
 66
     1
 10
0.0
 20
0.0
 30
0.0
 70
    64
 71
     8
 72
     6
  0
VERTEX
  5
5D92C
  8
0
 10
17.5001878902315
 20
-4.112590667510317
 30
-158.6016100204099
 70
   192
  0
VERTEX
  5
5D92D
  8
0
 10
17.50018789023142
 20
-4.112590667510328
 30
-158.5857347012019
 70
   192
  0
VERTEX
  5
5D92E
  8
0
 10
17.37244830933549
 20
-4.601632343921536
 30
-158.5857347012023
 70
   192
  0
VERTEX
  5
5D92F
  8
0
 10
16.98922956664473
 20
-4.984851086614433
 30
-158.5857347012026
 70
   192
  0
VERTEX
  5
5D930
  8
0
 10
16.50018789023425
 20
-5.112590667513071
 30
-158.5857347012027
 70
   192
  0
VERTEX
  5
5D931
  8
0
 10
16.50018789023425
 20
-5.112590667513059
 30
-158.6016100204107
 70
   192
  0
VERTEX
  5
5D932
  8
0
 10
16.98922956664473
 20
-4.984851086614421
 30
-158.6016100204106
 70
   192
  0
VERTEX
  5
5D933
  8
0
 10
17.37244830933553
 20
-4.601632343921525
 30
-158.6016100204104
 70
   192
  0
VERTEX
  5
5D934
  8
0
 10
0.0
 20
0.0
 30
0.0
 70
   128
 71
     5
 72
     6
 73
    -7
  0
VERTEX
  5
5D935
  8
0
 10
0.0
 20
0.0
 30
0.0
 70
   128
 71
     4
 72
    -5
 73
     7
  0
VERTEX
  5
5D936
  8
0
 10
0.0
 20
0.0
 30
0.0
 70
   128
 71
     8
 72
     3
 73
    -4
  0
VERTEX
  5
5D937
  8
0
 10
0.0
 20
0.0
 30
0.0
 70
   128
 71
     7
 72
    -8
 73
     4
  0
VERTEX
  5
5D938
  8
0
 10
0.0
 20
0.0
 30
0.0
 70
   128
 71
     1
 72
     2
 73
    -3
  0
VERTEX
  5
5D939
  8
0
 10
0.0
 20
0.0
 30
0.0
 70
   128
 71
     8
 72
    -1
 73
     3
  0
SEQEND
  5
5D9AD
  8
0
  0
POLYLINE
  5
5D93A
  8
0
 66
     1
 10
0.0
 20
0.0
 30
0.0
 70
    64
 71
     8
 72
     6
  0
VERTEX
  5
5D93B
  8
0
 10
16.50018789019306
 20
9.88740933248694
 30
-158.6016100203996
 70
   192
  0
VERTEX
  5
5D93C
  8
0
 10
16.50018789019307
 20
9.887409332486929
 30
-158.5857347011916
 70
   192
  0
VERTEX
  5
5D93D
  8
0
 10
16.98922956660429
 20
9.75966975159099
 30
-158.5857347011914
 70
   192
  0
VERTEX
  5
5D93E
  8
0
 10
17.37244830929719
 20
9.376451008900197
 30
-158.5857347011917
 70
   192
  0
VERTEX
  5
5D93F
  8
0
 10
17.50018789019581
 20
8.887409332489684
 30
-158.5857347011923
 70
   192
  0
VERTEX
  5
5D940
  8
0
 10
17.50018789019581
 20
8.887409332489685
 30
-158.6016100204003
 70
   192
  0
VERTEX
  5
5D941
  8
0
 10
17.37244830929718
 20
9.376451008900203
 30
-158.6016100203996
 70
   192
  0
VERTEX
  5
5D942
  8
0
 10
16.98922956660428
 20
9.759669751590996
 30
-158.6016100203994
 70
   192
  0
VERTEX
  5
5D943
  8
0
 10
0.0
 20
0.0
 30
0.0
 70
   128
 71
     5
 72
     6
 73
    -7
  0
VERTEX
  5
5D944
  8
0
 10
0.0
 20
0.0
 30
0.0
 70
   128
 71
     4
 72
    -5
 73
     7
  0
VERTEX
  5
5D945
  8
0
 10
0.0
 20
0.0
 30
0.0
 70
   128
 71
     8
 72
     3
 73
    -4
  0
VERTEX
  5
5D946
  8
0
 10
0.0
 20
0.0
 30
0.0
 70
   128
 71
     7
 72
    -8
 73
     4
  0
VERTEX
  5
5D947
  8
0
 10
0.0
 20
0.0
 30
0.0
 70
   128
 71
     1
 72
     2
 73
    -3
  0
VERTEX
  5
5D948
  8
0
 10
0.0
 20
0.0
 30
0.0
 70
   128
 71
     8
 72
    -1
 73
     3
  0
SEQEND
  5
5D9AE
  8
0
  0
POLYLINE
  5
5D949
  8
0
 66
     1
 10
0.0
 20
0.0
 30
0.0
 70
    64
 71
     8
 72
     6
  0
VERTEX
  5
5D94A
  8
0
 10
-17.4998121098042
 20
8.887409332393572
 30
-158.6016100204029
 70
   192
  0
VERTEX
  5
5D94B
  8
0
 10
-17.49981210980419
 20
8.88740933239357
 30
-158.5857347011948
 70
   192
  0
VERTEX
  5
5D94C
  8
0
 10
-17.37207252890824
 20
9.376451008804787
 30
-158.5857347011944
 70
   192
  0
VERTEX
  5
5D94D
  8
0
 10
-16.98885378621744
 20
9.759669751497684
 30
-158.5857347011942
 70
   192
  0
VERTEX
  5
5D94E
  8
0
 10
-16.49981210980693
 20
9.887409332396304
 30
-158.585734701194
 70
   192
  0
VERTEX
  5
5D94F
  8
0
 10
-16.49981210980693
 20
9.887409332396317
 30
-158.601610020402
 70
   192
  0
VERTEX
  5
5D950
  8
0
 10
-16.98885378621744
 20
9.759669751497697
 30
-158.6016100204022
 70
   192
  0
VERTEX
  5
5D951
  8
0
 10
-17.37207252890825
 20
9.376451008804796
 30
-158.6016100204025
 70
   192
  0
VERTEX
  5
5D952
  8
0
 10
0.0
 20
0.0
 30
0.0
 70
   128
 71
     5
 72
     6
 73
    -7
  0
VERTEX
  5
5D953
  8
0
 10
0.0
 20
0.0
 30
0.0
 70
   128
 71
     4
 72
    -5
 73
     7
  0
VERTEX
  5
5D954
  8
0
 10
0.0
 20
0.0
 30
0.0
 70
   128
 71
     8
 72
     3
 73
    -4
  0
VERTEX
  5
5D955
  8
0
 10
0.0
 20
0.0
 30
0.0
 70
   128
 71
     7
 72
    -8
 73
     4
  0
VERTEX
  5
5D956
  8
0
 10
0.0
 20
0.0
 30
0.0
 70
   128
 71
     1
 72
     2
 73
    -3
  0
VERTEX
  5
5D957
  8
0
 10
0.0
 20
0.0
 30
0.0
 70
   128
 71
     8
 72
    -1
 73
     3
  0
SEQEND
  5
5D9AF
  8
0
  0
POLYLINE
  5
5D958
  8
0
 66
     1
 10
0.0
 20
0.0
 30
0.0
 70
    64
 71
     4
 72
     2
  0
VERTEX
  5
5D959
  8
0
 10
16.50018789023425
 20
-5.112590667513059
 30
-158.6016100204107
 70
   192
  0
VERTEX
  5
5D95A
  8
0
 10
16.50018789023425
 20
-5.112590667513071
 30
-158.5857347012027
 70
   192
  0
VERTEX
  5
5D95B
  8
0
 10
-16.49981210976575
 20
-5.112590667603693
 30
-158.585734701205
 70
   192
  0
VERTEX
  5
5D95C
  8
0
 10
-16.49981210976574
 20
-5.112590667603681
 30
-158.6016100204131
 70
   192
  0
VERTEX
  5
5D95D
  8
0
 10
0.0
 20
0.0
 30
0.0
 70
   128
 71
     3
 72
     4
 73
    -1
  0
VERTEX
  5
5D95E
  8
0
 10
0.0
 20
0.0
 30
0.0
 70
   128
 71
     2
 72
    -3
 73
     1
  0
SEQEND
  5
5D9B0
  8
0
  0
ENDBLK
  5
5D96E
  8
0
  0
ENDSEC
  0
SECTION
  2
ENTITIES
  0
INSERT
  5
5CBB4
  8
0
  2
*X1
 10
0.0
 20
0.0
 30
0.0
  0
INSERT
  5
5CBB5
  8
0
  2
*X2
 10
0.0
 20
0.0
 30
0.0
  0
ENDSEC
  0
EOF
