  0
SECTION
  2
HEADER
  9
$ACADVER
  1
AC1009
  9
$DWGCODEPAGE
  3
ansi_1250
  9
$INSBASE
 10
0.0
 20
0.0
 30
0.0
  9
$EXTMIN
 10
-400.0000000000001
 20
-300.0000000000001
 30
-20.00000000000004
  9
$EXTMAX
 10
400.0
 20
300.0
 30
0.0000000000000711
  9
$LIMMIN
 10
0.0
 20
0.0
  9
$LIMMAX
 10
420.0
 20
297.0
  9
$ORTHOMODE
 70
     0
  9
$REGENMODE
 70
     1
  9
$FILLMODE
 70
     1
  9
$QTEXTMODE
 70
     0
  9
$MIRRTEXT
 70
     0
  9
$DRAGMODE
 70
     2
  9
$LTSCALE
 40
1.0
  9
$OSMODE
 70
   511
  9
$ATTMODE
 70
     1
  9
$TEXTSIZE
 40
2.5
  9
$TRACEWID
 40
1.0
  9
$TEXTSTYLE
  7
STANDARD
  9
$CLAYER
  8
0
  9
$CELTYPE
  6
BYLAYER
  9
$CECOLOR
 62
   256
  9
$DIMSCALE
 40
1.0
  9
$DIMASZ
 40
2.5
  9
$DIMEXO
 40
0.625
  9
$DIMDLI
 40
3.75
  9
$DIMRND
 40
0.0
  9
$DIMDLE
 40
0.0
  9
$DIMEXE
 40
1.25
  9
$DIMTP
 40
0.0
  9
$DIMTM
 40
0.0
  9
$DIMTXT
 40
2.5
  9
$DIMCEN
 40
-2.5
  9
$DIMTSZ
 40
0.0
  9
$DIMTOL
 70
     0
  9
$DIMLIM
 70
     0
  9
$DIMTIH
 70
     0
  9
$DIMTOH
 70
     0
  9
$DIMSE1
 70
     0
  9
$DIMSE2
 70
     0
  9
$DIMTAD
 70
     1
  9
$DIMZIN
 70
     8
  9
$DIMBLK
  1

  9
$DIMASO
 70
     1
  9
$DIMSHO
 70
     1
  9
$DIMPOST
  1

  9
$DIMAPOST
  1

  9
$DIMALT
 70
     0
  9
$DIMALTD
 70
     3
  9
$DIMALTF
 40
0.03937007874016
  9
$DIMLFAC
 40
1.0
  9
$DIMTOFL
 70
     1
  9
$DIMTVP
 40
0.0
  9
$DIMTIX
 70
     0
  9
$DIMSOXD
 70
     0
  9
$DIMSAH
 70
     0
  9
$DIMBLK1
  1

  9
$DIMBLK2
  1

  9
$DIMSTYLE
  2
ISO-25
  9
$DIMCLRD
 70
     0
  9
$DIMCLRE
 70
     0
  9
$DIMCLRT
 70
     0
  9
$DIMTFAC
 40
1.0
  9
$DIMGAP
 40
0.625
  9
$LUNITS
 70
     2
  9
$LUPREC
 70
     3
  9
$SKETCHINC
 40
1.0
  9
$FILLETRAD
 40
10.0
  9
$AUNITS
 70
     0
  9
$AUPREC
 70
     0
  9
$MENU
  1
.
  9
$ELEVATION
 40
0.0
  9
$PELEVATION
 40
0.0
  9
$THICKNESS
 40
0.0
  9
$LIMCHECK
 70
     0
  9
$CHAMFERA
 40
10.0
  9
$CHAMFERB
 40
10.0
  9
$SKPOLY
 70
     0
  9
$TDCREATE
 40
2455022.720692848
  9
$TDUPDATE
 40
2460535.569038033
  9
$TDINDWG
 40
0.0009519792
  9
$TDUSRTIMER
 40
0.0009519792
  9
$USRTIMER
 70
     1
  9
$ANGBASE
 50
0.0
  9
$ANGDIR
 70
     0
  9
$PDMODE
 70
     0
  9
$PDSIZE
 40
0.0
  9
$PLINEWID
 40
0.0
  9
$COORDS
 70
     1
  9
$SPLFRAME
 70
     0
  9
$SPLINETYPE
 70
     6
  9
$SPLINESEGS
 70
     8
  9
$ATTDIA
 70
     0
  9
$ATTREQ
 70
     1
  9
$HANDLING
 70
     1
  9
$HANDSEED
  5
1A3C
  9
$SURFTAB1
 70
     6
  9
$SURFTAB2
 70
     6
  9
$SURFTYPE
 70
     6
  9
$SURFU
 70
     6
  9
$SURFV
 70
     6
  9
$UCSNAME
  2

  9
$UCSORG
 10
0.0
 20
0.0
 30
0.0
  9
$UCSXDIR
 10
1.0
 20
0.0
 30
0.0
  9
$UCSYDIR
 10
0.0
 20
1.0
 30
0.0
  9
$PUCSNAME
  2

  9
$PUCSORG
 10
0.0
 20
0.0
 30
0.0
  9
$PUCSXDIR
 10
1.0
 20
0.0
 30
0.0
  9
$PUCSYDIR
 10
0.0
 20
1.0
 30
0.0
  9
$USERI1
 70
     0
  9
$USERI2
 70
     0
  9
$USERI3
 70
     0
  9
$USERI4
 70
     0
  9
$USERI5
 70
     0
  9
$USERR1
 40
0.0
  9
$USERR2
 40
0.0
  9
$USERR3
 40
0.0
  9
$USERR4
 40
0.0
  9
$USERR5
 40
0.0
  9
$WORLDVIEW
 70
     1
  9
$SHADEDGE
 70
     3
  9
$SHADEDIF
 70
    70
  9
$TILEMODE
 70
     1
  9
$MAXACTVP
 70
    64
  9
$PLIMCHECK
 70
     0
  9
$PEXTMIN
 10
1.000000000000000E+20
 20
1.000000000000000E+20
 30
1.000000000000000E+20
  9
$PEXTMAX
 10
-1.000000000000000E+20
 20
-1.000000000000000E+20
 30
-1.000000000000000E+20
  9
$PLIMMIN
 10
0.0
 20
0.0
  9
$PLIMMAX
 10
0.0
 20
0.0
  9
$UNITMODE
 70
     0
  9
$VISRETAIN
 70
     1
  9
$PLINEGEN
 70
     0
  9
$PSLTSCALE
 70
     1
  0
ENDSEC
  0
SECTION
  2
TABLES
  0
TABLE
  2
VPORT
 70
     1
  0
VPORT
  2
*ACTIVE
 70
     0
 10
0.0
 20
0.0
 11
1.0
 21
1.0
 12
-94.88447817080794
 22
-62.94654482311037
 13
0.0
 23
0.0
 14
10.0
 24
10.0
 15
10.0
 25
10.0
 16
0.5773502691896226
 26
0.5773502691896226
 36
0.5773502691896226
 17
-134.1869158878504
 27
-0.0000000000000284
 37
0.0
 40
516.352437778694
 41
1.961089494163424
 42
50.0
 43
0.0
 44
0.0
 50
0.0
 51
0.0
 71
    16
 72
  1000
 73
     1
 74
     3
 75
     0
 76
     0
 77
     0
 78
     0
  0
ENDTAB
  0
TABLE
  2
LTYPE
 70
     1
  0
LTYPE
  2
CONTINUOUS
 70
     0
  3
Solid line
 72
    65
 73
     0
 40
0.0
  0
ENDTAB
  0
TABLE
  2
LAYER
 70
     1
  0
LAYER
  2
0
 70
     0
 62
     7
  6
CONTINUOUS
  0
ENDTAB
  0
TABLE
  2
STYLE
 70
     2
  0
STYLE
  2
STANDARD
 70
     0
 40
0.0
 41
1.0
 50
0.0
 71
     0
 42
2.5
  3
arial.ttf
  4

  0
STYLE
  2
ANNOTATIVE
 70
     0
 40
0.0
 41
1.0
 50
0.0
 71
     0
 42
2.5
  3
arial.ttf
  4

  0
ENDTAB
  0
TABLE
  2
VIEW
 70
     0
  0
ENDTAB
  0
TABLE
  2
UCS
 70
     0
  0
ENDTAB
  0
TABLE
  2
APPID
 70
     2
  0
APPID
  2
ACAD
 70
     0
  0
APPID
  2
ACADANNOTATIVE
 70
     0
  0
ENDTAB
  0
TABLE
  2
DIMSTYLE
 70
     2
  0
DIMSTYLE
  2
ISO-25
 70
     0
  3

  4

  5

  6

  7

 40
1.0
 41
2.5
 42
0.625
 43
3.75
 44
1.25
 45
0.0
 46
0.0
 47
0.0
 48
0.0
140
2.5
141
-2.5
142
0.0
143
0.03937007874016
144
1.0
145
0.0
146
1.0
147
0.625
 71
     0
 72
     0
 73
     0
 74
     0
 75
     0
 76
     0
 77
     1
 78
     8
170
     0
171
     3
172
     1
173
     0
174
     0
175
     0
176
     0
177
     0
178
     0
  0
DIMSTYLE
  2
ANNOTATIVE
 70
     0
  3

  4

  5

  6

  7

 40
0.0
 41
2.5
 42
0.625
 43
3.75
 44
1.25
 45
0.0
 46
0.0
 47
0.0
 48
0.0
140
2.5
141
-2.5
142
0.0
143
0.03937007874016
144
1.0
145
0.0
146
1.0
147
0.625
 71
     0
 72
     0
 73
     0
 74
     0
 75
     0
 76
     0
 77
     1
 78
     8
170
     0
171
     3
172
     1
173
     0
174
     0
175
     0
176
     0
177
     0
178
     0
  0
ENDTAB
  0
ENDSEC
  0
SECTION
  2
BLOCKS
  0
BLOCK
  8
0
  2
$MODEL_SPACE
 70
     0
 10
0.0
 20
0.0
 30
0.0
  3
$MODEL_SPACE
  1

  0
ENDBLK
  5
21
  8
0
  0
BLOCK
 67
     1
  8
0
  2
$PAPER_SPACE
 70
     0
 10
0.0
 20
0.0
 30
0.0
  3
$PAPER_SPACE
  1

  0
ENDBLK
  5
1D
 67
     1
  8
0
  0
BLOCK
  8
0
  2
*X1
 70
     1
 10
0.0
 20
0.0
 30
0.0
  3
*X1
  1

  0
POLYLINE
  5
13E6
  8
0
 66
     1
 10
0.0
 20
0.0
 30
0.0
 70
    64
 71
     8
 72
     6
  0
VERTEX
  5
13E7
  8
0
 10
393.301270189222
 20
275.0000000000001
 30
0.0
 70
   192
  0
VERTEX
  5
13E8
  8
0
 10
393.301270189222
 20
275.0000000000001
 30
-2.0
 70
   192
  0
VERTEX
  5
13E9
  8
0
 10
375.0000000000001
 20
293.301270189222
 30
-2.0
 70
   192
  0
VERTEX
  5
13EA
  8
0
 10
375.0000000000001
 20
293.301270189222
 30
0.0
 70
   192
  0
VERTEX
  5
13EB
  8
0
 10
400.0000000000001
 20
250.0000000000001
 30
0.0
 70
   192
  0
VERTEX
  5
13EC
  8
0
 10
400.0
 20
250.0000000000001
 30
-2.0
 70
   192
  0
VERTEX
  5
13ED
  8
0
 10
350.0000000000001
 20
300.0000000000001
 30
-2.0
 70
   192
  0
VERTEX
  5
13EE
  8
0
 10
350.0000000000001
 20
300.0000000000001
 30
0.0
 70
   192
  0
VERTEX
  5
13EF
  8
0
 10
0.0
 20
0.0
 30
0.0
 70
   128
 71
     1
 72
     2
 73
    -3
  0
VERTEX
  5
13F0
  8
0
 10
0.0
 20
0.0
 30
0.0
 70
   128
 71
    -1
 72
     3
 73
     4
  0
VERTEX
  5
13F1
  8
0
 10
0.0
 20
0.0
 30
0.0
 70
   128
 71
     5
 72
     6
 73
    -2
  0
VERTEX
  5
13F2
  8
0
 10
0.0
 20
0.0
 30
0.0
 70
   128
 71
    -5
 72
     2
 73
     1
  0
VERTEX
  5
13F3
  8
0
 10
0.0
 20
0.0
 30
0.0
 70
   128
 71
     4
 72
     3
 73
    -7
  0
VERTEX
  5
13F4
  8
0
 10
0.0
 20
0.0
 30
0.0
 70
   128
 71
    -4
 72
     7
 73
     8
  0
SEQEND
  5
19B9
  8
0
  0
POLYLINE
  5
13F5
  8
0
 66
     1
 10
0.0
 20
0.0
 30
0.0
 70
    64
 71
     4
 72
     2
  0
VERTEX
  5
13F6
  8
0
 10
400.0
 20
250.0000000000001
 30
0.0
 70
   192
  0
VERTEX
  5
13F7
  8
0
 10
400.0
 20
-249.9999999999999
 30
0.0
 70
   192
  0
VERTEX
  5
13F8
  8
0
 10
400.0
 20
-249.9999999999999
 30
-2.0
 70
   192
  0
VERTEX
  5
13F9
  8
0
 10
400.0
 20
250.0000000000001
 30
-2.0
 70
   192
  0
VERTEX
  5
13FA
  8
0
 10
0.0
 20
0.0
 30
0.0
 70
   128
 71
     3
 72
     4
 73
    -1
  0
VERTEX
  5
13FB
  8
0
 10
0.0
 20
0.0
 30
0.0
 70
   128
 71
     2
 72
    -3
 73
     1
  0
SEQEND
  5
19BA
  8
0
  0
POLYLINE
  5
13FC
  8
0
 66
     1
 10
0.0
 20
0.0
 30
0.0
 70
    64
 71
     8
 72
     6
  0
VERTEX
  5
13FD
  8
0
 10
375.0000000000001
 20
-293.3012701892218
 30
0.0
 70
   192
  0
VERTEX
  5
13FE
  8
0
 10
375.0000000000001
 20
-293.3012701892218
 30
-2.0
 70
   192
  0
VERTEX
  5
13FF
  8
0
 10
393.301270189222
 20
-274.9999999999999
 30
-2.0
 70
   192
  0
VERTEX
  5
1400
  8
0
 10
393.301270189222
 20
-274.9999999999999
 30
0.0
 70
   192
  0
VERTEX
  5
1401
  8
0
 10
350.0000000000001
 20
-299.9999999999999
 30
0.0
 70
   192
  0
VERTEX
  5
1402
  8
0
 10
350.0000000000001
 20
-299.9999999999999
 30
-2.0
 70
   192
  0
VERTEX
  5
1403
  8
0
 10
400.0000000000001
 20
-249.9999999999999
 30
-2.0
 70
   192
  0
VERTEX
  5
1404
  8
0
 10
400.0
 20
-249.9999999999999
 30
0.0
 70
   192
  0
VERTEX
  5
1405
  8
0
 10
0.0
 20
0.0
 30
0.0
 70
   128
 71
     1
 72
     2
 73
    -3
  0
VERTEX
  5
1406
  8
0
 10
0.0
 20
0.0
 30
0.0
 70
   128
 71
    -1
 72
     3
 73
     4
  0
VERTEX
  5
1407
  8
0
 10
0.0
 20
0.0
 30
0.0
 70
   128
 71
     5
 72
     6
 73
    -2
  0
VERTEX
  5
1408
  8
0
 10
0.0
 20
0.0
 30
0.0
 70
   128
 71
    -5
 72
     2
 73
     1
  0
VERTEX
  5
1409
  8
0
 10
0.0
 20
0.0
 30
0.0
 70
   128
 71
     4
 72
     3
 73
    -7
  0
VERTEX
  5
140A
  8
0
 10
0.0
 20
0.0
 30
0.0
 70
   128
 71
    -4
 72
     7
 73
     8
  0
SEQEND
  5
19BB
  8
0
  0
POLYLINE
  5
140B
  8
0
 66
     1
 10
0.0
 20
0.0
 30
0.0
 70
    64
 71
     4
 72
     2
  0
VERTEX
  5
140C
  8
0
 10
350.0000000000001
 20
-299.9999999999999
 30
0.0
 70
   192
  0
VERTEX
  5
140D
  8
0
 10
350.0000000000001
 20
-299.9999999999999
 30
-2.0
 70
   192
  0
VERTEX
  5
140E
  8
0
 10
-350.0000000000001
 20
-300.0000000000001
 30
-2.0
 70
   192
  0
VERTEX
  5
140F
  8
0
 10
-350.0000000000001
 20
-300.0000000000001
 30
0.0
 70
   192
  0
VERTEX
  5
1410
  8
0
 10
0.0
 20
0.0
 30
0.0
 70
   128
 71
     1
 72
     4
 73
    -3
  0
VERTEX
  5
1411
  8
0
 10
0.0
 20
0.0
 30
0.0
 70
   128
 71
    -1
 72
     3
 73
     2
  0
SEQEND
  5
19BC
  8
0
  0
POLYLINE
  5
1412
  8
0
 66
     1
 10
0.0
 20
0.0
 30
0.0
 70
    64
 71
     8
 72
     6
  0
VERTEX
  5
1413
  8
0
 10
-393.301270189222
 20
-275.0000000000001
 30
0.0
 70
   192
  0
VERTEX
  5
1414
  8
0
 10
-393.301270189222
 20
-275.0000000000001
 30
-2.0
 70
   192
  0
VERTEX
  5
1415
  8
0
 10
-375.0000000000001
 20
-293.301270189222
 30
-2.0
 70
   192
  0
VERTEX
  5
1416
  8
0
 10
-375.0000000000001
 20
-293.301270189222
 30
0.0
 70
   192
  0
VERTEX
  5
1417
  8
0
 10
-400.0000000000001
 20
-250.0000000000001
 30
0.0
 70
   192
  0
VERTEX
  5
1418
  8
0
 10
-400.0
 20
-250.0000000000001
 30
-2.0
 70
   192
  0
VERTEX
  5
1419
  8
0
 10
-350.0000000000001
 20
-300.0000000000001
 30
-2.0
 70
   192
  0
VERTEX
  5
141A
  8
0
 10
-350.0000000000001
 20
-300.0000000000001
 30
0.0
 70
   192
  0
VERTEX
  5
141B
  8
0
 10
0.0
 20
0.0
 30
0.0
 70
   128
 71
     1
 72
     2
 73
    -3
  0
VERTEX
  5
141C
  8
0
 10
0.0
 20
0.0
 30
0.0
 70
   128
 71
    -1
 72
     3
 73
     4
  0
VERTEX
  5
141D
  8
0
 10
0.0
 20
0.0
 30
0.0
 70
   128
 71
     5
 72
     6
 73
    -2
  0
VERTEX
  5
141E
  8
0
 10
0.0
 20
0.0
 30
0.0
 70
   128
 71
    -5
 72
     2
 73
     1
  0
VERTEX
  5
141F
  8
0
 10
0.0
 20
0.0
 30
0.0
 70
   128
 71
     4
 72
     3
 73
    -7
  0
VERTEX
  5
1420
  8
0
 10
0.0
 20
0.0
 30
0.0
 70
   128
 71
    -4
 72
     7
 73
     8
  0
SEQEND
  5
19BD
  8
0
  0
POLYLINE
  5
1421
  8
0
 66
     1
 10
0.0
 20
0.0
 30
0.0
 70
    64
 71
     4
 72
     2
  0
VERTEX
  5
1422
  8
0
 10
-400.0
 20
-250.0000000000001
 30
0.0
 70
   192
  0
VERTEX
  5
1423
  8
0
 10
-400.0
 20
-250.0000000000001
 30
-2.0
 70
   192
  0
VERTEX
  5
1424
  8
0
 10
-400.0000000000001
 20
250.0
 30
-2.0
 70
   192
  0
VERTEX
  5
1425
  8
0
 10
-400.0
 20
250.0
 30
0.0
 70
   192
  0
VERTEX
  5
1426
  8
0
 10
0.0
 20
0.0
 30
0.0
 70
   128
 71
     1
 72
     4
 73
    -3
  0
VERTEX
  5
1427
  8
0
 10
0.0
 20
0.0
 30
0.0
 70
   128
 71
    -1
 72
     3
 73
     2
  0
SEQEND
  5
19BE
  8
0
  0
POLYLINE
  5
1428
  8
0
 66
     1
 10
0.0
 20
0.0
 30
0.0
 70
    64
 71
     8
 72
     6
  0
VERTEX
  5
1429
  8
0
 10
-375.0000000000001
 20
293.301270189222
 30
0.0
 70
   192
  0
VERTEX
  5
142A
  8
0
 10
-375.0000000000001
 20
293.301270189222
 30
-2.0
 70
   192
  0
VERTEX
  5
142B
  8
0
 10
-393.301270189222
 20
275.0
 30
-2.0
 70
   192
  0
VERTEX
  5
142C
  8
0
 10
-393.301270189222
 20
275.0
 30
0.0
 70
   192
  0
VERTEX
  5
142D
  8
0
 10
-350.0000000000001
 20
300.0
 30
0.0
 70
   192
  0
VERTEX
  5
142E
  8
0
 10
-350.0000000000001
 20
300.0000000000001
 30
-2.0
 70
   192
  0
VERTEX
  5
142F
  8
0
 10
-400.0000000000001
 20
250.0
 30
-2.0
 70
   192
  0
VERTEX
  5
1430
  8
0
 10
-400.0000000000001
 20
250.0
 30
0.0
 70
   192
  0
VERTEX
  5
1431
  8
0
 10
0.0
 20
0.0
 30
0.0
 70
   128
 71
     1
 72
     2
 73
    -3
  0
VERTEX
  5
1432
  8
0
 10
0.0
 20
0.0
 30
0.0
 70
   128
 71
    -1
 72
     3
 73
     4
  0
VERTEX
  5
1433
  8
0
 10
0.0
 20
0.0
 30
0.0
 70
   128
 71
     5
 72
     6
 73
    -2
  0
VERTEX
  5
1434
  8
0
 10
0.0
 20
0.0
 30
0.0
 70
   128
 71
    -5
 72
     2
 73
     1
  0
VERTEX
  5
1435
  8
0
 10
0.0
 20
0.0
 30
0.0
 70
   128
 71
     4
 72
     3
 73
    -7
  0
VERTEX
  5
1436
  8
0
 10
0.0
 20
0.0
 30
0.0
 70
   128
 71
    -4
 72
     7
 73
     8
  0
SEQEND
  5
19BF
  8
0
  0
POLYLINE
  5
1437
  8
0
 66
     1
 10
0.0
 20
0.0
 30
0.0
 70
    64
 71
     4
 72
     2
  0
VERTEX
  5
1438
  8
0
 10
-350.0000000000001
 20
300.0000000000001
 30
0.0
 70
   192
  0
VERTEX
  5
1439
  8
0
 10
350.0000000000001
 20
300.0000000000001
 30
0.0
 70
   192
  0
VERTEX
  5
143A
  8
0
 10
350.0000000000001
 20
300.0000000000001
 30
-2.0
 70
   192
  0
VERTEX
  5
143B
  8
0
 10
-350.0000000000001
 20
300.0000000000001
 30
-2.0
 70
   192
  0
VERTEX
  5
143C
  8
0
 10
0.0
 20
0.0
 30
0.0
 70
   128
 71
     3
 72
     4
 73
    -1
  0
VERTEX
  5
143D
  8
0
 10
0.0
 20
0.0
 30
0.0
 70
   128
 71
     2
 72
    -3
 73
     1
  0
SEQEND
  5
19C0
  8
0
  0
POLYLINE
  5
143E
  8
0
 66
     1
 10
0.0
 20
0.0
 30
0.0
 70
    64
 71
    16
 72
    14
  0
VERTEX
  5
143F
  8
0
 10
350.0000000000001
 20
300.0000000000001
 30
-2.0
 70
   192
  0
VERTEX
  5
1440
  8
0
 10
-350.0000000000001
 20
300.0
 30
-2.0
 70
   192
  0
VERTEX
  5
1441
  8
0
 10
-375.0000000000001
 20
293.301270189222
 30
-2.0
 70
   192
  0
VERTEX
  5
1442
  8
0
 10
-393.301270189222
 20
275.0
 30
-2.0
 70
   192
  0
VERTEX
  5
1443
  8
0
 10
-400.0
 20
250.0
 30
-2.0
 70
   192
  0
VERTEX
  5
1444
  8
0
 10
-400.0000000000001
 20
-250.0000000000001
 30
-2.0
 70
   192
  0
VERTEX
  5
1445
  8
0
 10
-393.301270189222
 20
-275.0000000000001
 30
-2.0
 70
   192
  0
VERTEX
  5
1446
  8
0
 10
-375.0000000000001
 20
-293.301270189222
 30
-2.0
 70
   192
  0
VERTEX
  5
1447
  8
0
 10
-350.0000000000001
 20
-300.0000000000001
 30
-2.0
 70
   192
  0
VERTEX
  5
1448
  8
0
 10
350.0000000000001
 20
-299.9999999999999
 30
-2.0
 70
   192
  0
VERTEX
  5
1449
  8
0
 10
375.0000000000001
 20
-293.3012701892218
 30
-2.0
 70
   192
  0
VERTEX
  5
144A
  8
0
 10
393.301270189222
 20
-274.9999999999999
 30
-2.0
 70
   192
  0
VERTEX
  5
144B
  8
0
 10
400.0
 20
-249.9999999999999
 30
-2.0
 70
   192
  0
VERTEX
  5
144C
  8
0
 10
400.0000000000001
 20
250.0000000000001
 30
-2.0
 70
   192
  0
VERTEX
  5
144D
  8
0
 10
393.301270189222
 20
275.0000000000001
 30
-2.0
 70
   192
  0
VERTEX
  5
144E
  8
0
 10
375.0000000000001
 20
293.301270189222
 30
-2.0
 70
   192
  0
VERTEX
  5
144F
  8
0
 10
0.0
 20
0.0
 30
0.0
 70
   128
 71
     1
 72
    16
 73
   -15
  0
VERTEX
  5
1450
  8
0
 10
0.0
 20
0.0
 30
0.0
 70
   128
 71
    -1
 72
    15
 73
   -14
  0
VERTEX
  5
1451
  8
0
 10
0.0
 20
0.0
 30
0.0
 70
   128
 71
    -1
 72
    14
 73
   -13
  0
VERTEX
  5
1452
  8
0
 10
0.0
 20
0.0
 30
0.0
 70
   128
 71
    -1
 72
    13
 73
   -12
  0
VERTEX
  5
1453
  8
0
 10
0.0
 20
0.0
 30
0.0
 70
   128
 71
    -1
 72
    12
 73
   -11
  0
VERTEX
  5
1454
  8
0
 10
0.0
 20
0.0
 30
0.0
 70
   128
 71
    -1
 72
    11
 73
   -10
  0
VERTEX
  5
1455
  8
0
 10
0.0
 20
0.0
 30
0.0
 70
   128
 71
    -1
 72
    10
 73
    -9
  0
VERTEX
  5
1456
  8
0
 10
0.0
 20
0.0
 30
0.0
 70
   128
 71
    -1
 72
     9
 73
    -8
  0
VERTEX
  5
1457
  8
0
 10
0.0
 20
0.0
 30
0.0
 70
   128
 71
    -1
 72
     8
 73
    -7
  0
VERTEX
  5
1458
  8
0
 10
0.0
 20
0.0
 30
0.0
 70
   128
 71
    -1
 72
     7
 73
    -6
  0
VERTEX
  5
1459
  8
0
 10
0.0
 20
0.0
 30
0.0
 70
   128
 71
    -1
 72
     6
 73
    -5
  0
VERTEX
  5
145A
  8
0
 10
0.0
 20
0.0
 30
0.0
 70
   128
 71
    -1
 72
     5
 73
    -4
  0
VERTEX
  5
145B
  8
0
 10
0.0
 20
0.0
 30
0.0
 70
   128
 71
    -1
 72
     4
 73
    -3
  0
VERTEX
  5
145C
  8
0
 10
0.0
 20
0.0
 30
0.0
 70
   128
 71
    -1
 72
     3
 73
     2
  0
SEQEND
  5
19C1
  8
0
  0
POLYLINE
  5
145D
  8
0
 66
     1
 10
0.0
 20
0.0
 30
0.0
 70
    64
 71
    32
 72
    32
  0
VERTEX
  5
145E
  8
0
 10
400.0000000000001
 20
250.0000000000001
 30
0.0
 70
   192
  0
VERTEX
  5
145F
  8
0
 10
393.301270189222
 20
275.0000000000001
 30
0.0
 70
   192
  0
VERTEX
  5
1460
  8
0
 10
375.0000000000001
 20
293.301270189222
 30
0.0
 70
   192
  0
VERTEX
  5
1461
  8
0
 10
350.0000000000001
 20
300.0000000000001
 30
0.0
 70
   192
  0
VERTEX
  5
1462
  8
0
 10
-350.0000000000001
 20
300.0000000000001
 30
0.0
 70
   192
  0
VERTEX
  5
1463
  8
0
 10
-375.0000000000001
 20
293.301270189222
 30
0.0
 70
   192
  0
VERTEX
  5
1464
  8
0
 10
-393.301270189222
 20
275.0
 30
0.0
 70
   192
  0
VERTEX
  5
1465
  8
0
 10
-400.0000000000001
 20
250.0
 30
0.0
 70
   192
  0
VERTEX
  5
1466
  8
0
 10
-400.0
 20
-250.0000000000001
 30
0.0
 70
   192
  0
VERTEX
  5
1467
  8
0
 10
-393.301270189222
 20
-275.0000000000001
 30
0.0
 70
   192
  0
VERTEX
  5
1468
  8
0
 10
-375.0000000000001
 20
-293.301270189222
 30
0.0
 70
   192
  0
VERTEX
  5
1469
  8
0
 10
-350.0000000000001
 20
-300.0000000000001
 30
0.0
 70
   192
  0
VERTEX
  5
146A
  8
0
 10
350.0000000000001
 20
-299.9999999999999
 30
0.0
 70
   192
  0
VERTEX
  5
146B
  8
0
 10
375.0000000000001
 20
-293.3012701892218
 30
0.0
 70
   192
  0
VERTEX
  5
146C
  8
0
 10
393.301270189222
 20
-274.9999999999999
 30
0.0
 70
   192
  0
VERTEX
  5
146D
  8
0
 10
400.0000000000001
 20
-249.9999999999999
 30
0.0
 70
   192
  0
VERTEX
  5
146E
  8
0
 10
380.0000000000001
 20
250.0000000000001
 30
0.0
 70
   192
  0
VERTEX
  5
146F
  8
0
 10
380.0000000000001
 20
-249.9999999999999
 30
0.0
 70
   192
  0
VERTEX
  5
1470
  8
0
 10
375.9807621135332
 20
-264.9999999999999
 30
0.0
 70
   192
  0
VERTEX
  5
1471
  8
0
 10
365.0000000000001
 20
-275.980762113533
 30
0.0
 70
   192
  0
VERTEX
  5
1472
  8
0
 10
350.0000000000001
 20
-279.9999999999999
 30
0.0
 70
   192
  0
VERTEX
  5
1473
  8
0
 10
-350.0000000000001
 20
-280.0000000000001
 30
0.0
 70
   192
  0
VERTEX
  5
1474
  8
0
 10
-365.0000000000001
 20
-275.9807621135333
 30
0.0
 70
   192
  0
VERTEX
  5
1475
  8
0
 10
-375.9807621135332
 20
-265.0000000000001
 30
0.0
 70
   192
  0
VERTEX
  5
1476
  8
0
 10
-380.0
 20
-250.0000000000001
 30
0.0
 70
   192
  0
VERTEX
  5
1477
  8
0
 10
-380.0000000000001
 20
250.0
 30
0.0
 70
   192
  0
VERTEX
  5
1478
  8
0
 10
-375.9807621135332
 20
264.9999999999999
 30
0.0
 70
   192
  0
VERTEX
  5
1479
  8
0
 10
-365.0000000000001
 20
275.9807621135331
 30
0.0
 70
   192
  0
VERTEX
  5
147A
  8
0
 10
-350.0000000000001
 20
279.9999999999999
 30
0.0
 70
   192
  0
VERTEX
  5
147B
  8
0
 10
350.0000000000001
 20
280.0
 30
0.0
 70
   192
  0
VERTEX
  5
147C
  8
0
 10
365.0000000000001
 20
275.9807621135332
 30
0.0
 70
   192
  0
VERTEX
  5
147D
  8
0
 10
375.9807621135332
 20
265.0000000000001
 30
0.0
 70
   192
  0
VERTEX
  5
147E
  8
0
 10
0.0
 20
0.0
 30
0.0
 70
   128
 71
    -2
 72
    17
 73
   -18
  0
VERTEX
  5
147F
  8
0
 10
0.0
 20
0.0
 30
0.0
 70
   128
 71
     1
 72
    -2
 73
   -18
  0
VERTEX
  5
1480
  8
0
 10
0.0
 20
0.0
 30
0.0
 70
   128
 71
    16
 72
    -1
 73
   -18
  0
VERTEX
  5
1481
  8
0
 10
0.0
 20
0.0
 30
0.0
 70
   128
 71
    15
 72
   -16
 73
   -18
  0
VERTEX
  5
1482
  8
0
 10
0.0
 20
0.0
 30
0.0
 70
   128
 71
    18
 72
   -19
 73
   -15
  0
VERTEX
  5
1483
  8
0
 10
0.0
 20
0.0
 30
0.0
 70
   128
 71
   -20
 72
    14
 73
   -15
  0
VERTEX
  5
1484
  8
0
 10
0.0
 20
0.0
 30
0.0
 70
   128
 71
    19
 72
   -20
 73
   -15
  0
VERTEX
  5
1485
  8
0
 10
0.0
 20
0.0
 30
0.0
 70
   128
 71
    20
 72
   -21
 73
   -14
  0
VERTEX
  5
1486
  8
0
 10
0.0
 20
0.0
 30
0.0
 70
   128
 71
    12
 72
    13
 73
   -14
  0
VERTEX
  5
1487
  8
0
 10
0.0
 20
0.0
 30
0.0
 70
   128
 71
    11
 72
   -12
 73
   -14
  0
VERTEX
  5
1488
  8
0
 10
0.0
 20
0.0
 30
0.0
 70
   128
 71
   -22
 72
   -11
 73
   -14
  0
VERTEX
  5
1489
  8
0
 10
0.0
 20
0.0
 30
0.0
 70
   128
 71
    21
 72
   -22
 73
   -14
  0
VERTEX
  5
148A
  8
0
 10
0.0
 20
0.0
 30
0.0
 70
   128
 71
    22
 72
   -23
 73
   -11
  0
VERTEX
  5
148B
  8
0
 10
0.0
 20
0.0
 30
0.0
 70
   128
 71
   -24
 72
    10
 73
   -11
  0
VERTEX
  5
148C
  8
0
 10
0.0
 20
0.0
 30
0.0
 70
   128
 71
    23
 72
   -24
 73
   -11
  0
VERTEX
  5
148D
  8
0
 10
0.0
 20
0.0
 30
0.0
 70
   128
 71
    24
 72
   -25
 73
   -10
  0
VERTEX
  5
148E
  8
0
 10
0.0
 20
0.0
 30
0.0
 70
   128
 71
     8
 72
     9
 73
   -10
  0
VERTEX
  5
148F
  8
0
 10
0.0
 20
0.0
 30
0.0
 70
   128
 71
     7
 72
    -8
 73
   -10
  0
VERTEX
  5
1490
  8
0
 10
0.0
 20
0.0
 30
0.0
 70
   128
 71
   -26
 72
    -7
 73
   -10
  0
VERTEX
  5
1491
  8
0
 10
0.0
 20
0.0
 30
0.0
 70
   128
 71
    25
 72
   -26
 73
   -10
  0
VERTEX
  5
1492
  8
0
 10
0.0
 20
0.0
 30
0.0
 70
   128
 71
    26
 72
   -27
 73
    -7
  0
VERTEX
  5
1493
  8
0
 10
0.0
 20
0.0
 30
0.0
 70
   128
 71
   -28
 72
     6
 73
    -7
  0
VERTEX
  5
1494
  8
0
 10
0.0
 20
0.0
 30
0.0
 70
   128
 71
    27
 72
   -28
 73
    -7
  0
VERTEX
  5
1495
  8
0
 10
0.0
 20
0.0
 30
0.0
 70
   128
 71
    28
 72
   -29
 73
    -6
  0
VERTEX
  5
1496
  8
0
 10
0.0
 20
0.0
 30
0.0
 70
   128
 71
     4
 72
     5
 73
    -6
  0
VERTEX
  5
1497
  8
0
 10
0.0
 20
0.0
 30
0.0
 70
   128
 71
     3
 72
    -4
 73
    -6
  0
VERTEX
  5
1498
  8
0
 10
0.0
 20
0.0
 30
0.0
 70
   128
 71
   -30
 72
    -3
 73
    -6
  0
VERTEX
  5
1499
  8
0
 10
0.0
 20
0.0
 30
0.0
 70
   128
 71
    29
 72
   -30
 73
    -6
  0
VERTEX
  5
149A
  8
0
 10
0.0
 20
0.0
 30
0.0
 70
   128
 71
    30
 72
   -31
 73
    -3
  0
VERTEX
  5
149B
  8
0
 10
0.0
 20
0.0
 30
0.0
 70
   128
 71
   -32
 72
     2
 73
    -3
  0
VERTEX
  5
149C
  8
0
 10
0.0
 20
0.0
 30
0.0
 70
   128
 71
    31
 72
   -32
 73
    -3
  0
VERTEX
  5
149D
  8
0
 10
0.0
 20
0.0
 30
0.0
 70
   128
 71
    32
 72
   -17
 73
    -2
  0
SEQEND
  5
19C2
  8
0
  0
POLYLINE
  5
149E
  8
0
 66
     1
 10
0.0
 20
0.0
 30
0.0
 70
    64
 71
     4
 72
     2
  0
VERTEX
  5
149F
  8
0
 10
380.0000000000001
 20
-249.9999999999999
 30
0.0
 70
   192
  0
VERTEX
  5
14A0
  8
0
 10
380.0000000000001
 20
-249.9999999999999
 30
-0.5
 70
   192
  0
VERTEX
  5
14A1
  8
0
 10
380.0000000000001
 20
250.0
 30
-0.5
 70
   192
  0
VERTEX
  5
14A2
  8
0
 10
380.0000000000001
 20
250.0000000000001
 30
0.0
 70
   192
  0
VERTEX
  5
14A3
  8
0
 10
0.0
 20
0.0
 30
0.0
 70
   128
 71
     1
 72
     4
 73
    -3
  0
VERTEX
  5
14A4
  8
0
 10
0.0
 20
0.0
 30
0.0
 70
   128
 71
    -1
 72
     3
 73
     2
  0
SEQEND
  5
19C3
  8
0
  0
POLYLINE
  5
14A5
  8
0
 66
     1
 10
0.0
 20
0.0
 30
0.0
 70
    64
 71
     8
 72
     6
  0
VERTEX
  5
14A6
  8
0
 10
375.9807621135332
 20
-264.9999999999999
 30
-0.5
 70
   192
  0
VERTEX
  5
14A7
  8
0
 10
365.0000000000001
 20
-275.980762113533
 30
-0.5
 70
   192
  0
VERTEX
  5
14A8
  8
0
 10
365.0000000000001
 20
-275.980762113533
 30
0.0
 70
   192
  0
VERTEX
  5
14A9
  8
0
 10
375.9807621135332
 20
-264.9999999999999
 30
0.0
 70
   192
  0
VERTEX
  5
14AA
  8
0
 10
350.0000000000001
 20
-279.9999999999999
 30
-0.5
 70
   192
  0
VERTEX
  5
14AB
  8
0
 10
350.0000000000001
 20
-279.9999999999999
 30
0.0
 70
   192
  0
VERTEX
  5
14AC
  8
0
 10
380.0000000000001
 20
-249.9999999999999
 30
-0.5
 70
   192
  0
VERTEX
  5
14AD
  8
0
 10
380.0
 20
-249.9999999999999
 30
0.0
 70
   192
  0
VERTEX
  5
14AE
  8
0
 10
0.0
 20
0.0
 30
0.0
 70
   128
 71
     1
 72
     2
 73
    -3
  0
VERTEX
  5
14AF
  8
0
 10
0.0
 20
0.0
 30
0.0
 70
   128
 71
     4
 72
    -1
 73
     3
  0
VERTEX
  5
14B0
  8
0
 10
0.0
 20
0.0
 30
0.0
 70
   128
 71
     2
 72
     5
 73
    -6
  0
VERTEX
  5
14B1
  8
0
 10
0.0
 20
0.0
 30
0.0
 70
   128
 71
     3
 72
    -2
 73
     6
  0
VERTEX
  5
14B2
  8
0
 10
0.0
 20
0.0
 30
0.0
 70
   128
 71
     7
 72
     1
 73
    -4
  0
VERTEX
  5
14B3
  8
0
 10
0.0
 20
0.0
 30
0.0
 70
   128
 71
     8
 72
    -7
 73
     4
  0
SEQEND
  5
19C4
  8
0
  0
POLYLINE
  5
14B4
  8
0
 66
     1
 10
0.0
 20
0.0
 30
0.0
 70
    64
 71
     4
 72
     2
  0
VERTEX
  5
14B5
  8
0
 10
-350.0000000000001
 20
-280.0000000000001
 30
0.0
 70
   192
  0
VERTEX
  5
14B6
  8
0
 10
350.0000000000001
 20
-279.9999999999999
 30
0.0
 70
   192
  0
VERTEX
  5
14B7
  8
0
 10
350.0000000000001
 20
-279.9999999999999
 30
-0.5
 70
   192
  0
VERTEX
  5
14B8
  8
0
 10
-350.0000000000001
 20
-280.0000000000001
 30
-0.5
 70
   192
  0
VERTEX
  5
14B9
  8
0
 10
0.0
 20
0.0
 30
0.0
 70
   128
 71
     3
 72
     4
 73
    -1
  0
VERTEX
  5
14BA
  8
0
 10
0.0
 20
0.0
 30
0.0
 70
   128
 71
     2
 72
    -3
 73
     1
  0
SEQEND
  5
19C5
  8
0
  0
POLYLINE
  5
14BB
  8
0
 66
     1
 10
0.0
 20
0.0
 30
0.0
 70
    64
 71
     8
 72
     6
  0
VERTEX
  5
14BC
  8
0
 10
-365.0000000000001
 20
-275.9807621135333
 30
-0.5
 70
   192
  0
VERTEX
  5
14BD
  8
0
 10
-375.9807621135332
 20
-265.0000000000001
 30
-0.5
 70
   192
  0
VERTEX
  5
14BE
  8
0
 10
-375.9807621135332
 20
-265.0000000000001
 30
0.0
 70
   192
  0
VERTEX
  5
14BF
  8
0
 10
-365.0000000000001
 20
-275.9807621135333
 30
0.0
 70
   192
  0
VERTEX
  5
14C0
  8
0
 10
-380.0
 20
-250.0000000000001
 30
-0.5
 70
   192
  0
VERTEX
  5
14C1
  8
0
 10
-380.0
 20
-250.0000000000001
 30
0.0
 70
   192
  0
VERTEX
  5
14C2
  8
0
 10
-350.0000000000001
 20
-280.0000000000001
 30
-0.5
 70
   192
  0
VERTEX
  5
14C3
  8
0
 10
-350.0000000000001
 20
-280.0000000000001
 30
0.0
 70
   192
  0
VERTEX
  5
14C4
  8
0
 10
0.0
 20
0.0
 30
0.0
 70
   128
 71
     1
 72
     2
 73
    -3
  0
VERTEX
  5
14C5
  8
0
 10
0.0
 20
0.0
 30
0.0
 70
   128
 71
     4
 72
    -1
 73
     3
  0
VERTEX
  5
14C6
  8
0
 10
0.0
 20
0.0
 30
0.0
 70
   128
 71
     2
 72
     5
 73
    -6
  0
VERTEX
  5
14C7
  8
0
 10
0.0
 20
0.0
 30
0.0
 70
   128
 71
     3
 72
    -2
 73
     6
  0
VERTEX
  5
14C8
  8
0
 10
0.0
 20
0.0
 30
0.0
 70
   128
 71
     7
 72
     1
 73
    -4
  0
VERTEX
  5
14C9
  8
0
 10
0.0
 20
0.0
 30
0.0
 70
   128
 71
     8
 72
    -7
 73
     4
  0
SEQEND
  5
19C6
  8
0
  0
POLYLINE
  5
14CA
  8
0
 66
     1
 10
0.0
 20
0.0
 30
0.0
 70
    64
 71
     4
 72
     2
  0
VERTEX
  5
14CB
  8
0
 10
-380.0000000000001
 20
250.0
 30
0.0
 70
   192
  0
VERTEX
  5
14CC
  8
0
 10
-380.0000000000001
 20
-250.0000000000001
 30
0.0
 70
   192
  0
VERTEX
  5
14CD
  8
0
 10
-380.0
 20
-250.0000000000001
 30
-0.5
 70
   192
  0
VERTEX
  5
14CE
  8
0
 10
-380.0000000000001
 20
250.0
 30
-0.5
 70
   192
  0
VERTEX
  5
14CF
  8
0
 10
0.0
 20
0.0
 30
0.0
 70
   128
 71
     3
 72
     4
 73
    -1
  0
VERTEX
  5
14D0
  8
0
 10
0.0
 20
0.0
 30
0.0
 70
   128
 71
     2
 72
    -3
 73
     1
  0
SEQEND
  5
19C7
  8
0
  0
POLYLINE
  5
14D1
  8
0
 66
     1
 10
0.0
 20
0.0
 30
0.0
 70
    64
 71
     8
 72
     6
  0
VERTEX
  5
14D2
  8
0
 10
-375.9807621135332
 20
264.9999999999999
 30
-0.5
 70
   192
  0
VERTEX
  5
14D3
  8
0
 10
-365.0000000000001
 20
275.9807621135331
 30
-0.5
 70
   192
  0
VERTEX
  5
14D4
  8
0
 10
-365.0000000000001
 20
275.9807621135331
 30
0.0
 70
   192
  0
VERTEX
  5
14D5
  8
0
 10
-375.9807621135332
 20
264.9999999999999
 30
0.0
 70
   192
  0
VERTEX
  5
14D6
  8
0
 10
-350.0000000000001
 20
279.9999999999999
 30
-0.5
 70
   192
  0
VERTEX
  5
14D7
  8
0
 10
-350.0000000000001
 20
279.9999999999999
 30
0.0
 70
   192
  0
VERTEX
  5
14D8
  8
0
 10
-380.0000000000001
 20
250.0
 30
-0.5
 70
   192
  0
VERTEX
  5
14D9
  8
0
 10
-380.0
 20
250.0
 30
0.0
 70
   192
  0
VERTEX
  5
14DA
  8
0
 10
0.0
 20
0.0
 30
0.0
 70
   128
 71
     1
 72
     2
 73
    -3
  0
VERTEX
  5
14DB
  8
0
 10
0.0
 20
0.0
 30
0.0
 70
   128
 71
     4
 72
    -1
 73
     3
  0
VERTEX
  5
14DC
  8
0
 10
0.0
 20
0.0
 30
0.0
 70
   128
 71
     2
 72
     5
 73
    -6
  0
VERTEX
  5
14DD
  8
0
 10
0.0
 20
0.0
 30
0.0
 70
   128
 71
     3
 72
    -2
 73
     6
  0
VERTEX
  5
14DE
  8
0
 10
0.0
 20
0.0
 30
0.0
 70
   128
 71
     7
 72
     1
 73
    -4
  0
VERTEX
  5
14DF
  8
0
 10
0.0
 20
0.0
 30
0.0
 70
   128
 71
     8
 72
    -7
 73
     4
  0
SEQEND
  5
19C8
  8
0
  0
POLYLINE
  5
14E0
  8
0
 66
     1
 10
0.0
 20
0.0
 30
0.0
 70
    64
 71
     4
 72
     2
  0
VERTEX
  5
14E1
  8
0
 10
350.0000000000001
 20
280.0
 30
0.0
 70
   192
  0
VERTEX
  5
14E2
  8
0
 10
350.0000000000001
 20
280.0
 30
-0.5
 70
   192
  0
VERTEX
  5
14E3
  8
0
 10
-350.0000000000001
 20
279.9999999999999
 30
-0.5
 70
   192
  0
VERTEX
  5
14E4
  8
0
 10
-350.0000000000001
 20
279.9999999999999
 30
0.0
 70
   192
  0
VERTEX
  5
14E5
  8
0
 10
0.0
 20
0.0
 30
0.0
 70
   128
 71
     1
 72
     4
 73
    -3
  0
VERTEX
  5
14E6
  8
0
 10
0.0
 20
0.0
 30
0.0
 70
   128
 71
    -1
 72
     3
 73
     2
  0
SEQEND
  5
19C9
  8
0
  0
POLYLINE
  5
14E7
  8
0
 66
     1
 10
0.0
 20
0.0
 30
0.0
 70
    64
 71
     8
 72
     6
  0
VERTEX
  5
14E8
  8
0
 10
358.6602540378444
 20
255.0
 30
0.0
 70
   192
  0
VERTEX
  5
14E9
  8
0
 10
358.6602540378444
 20
255.0
 30
-0.5
 70
   192
  0
VERTEX
  5
14EA
  8
0
 10
355.0000000000001
 20
258.6602540378444
 30
-0.5
 70
   192
  0
VERTEX
  5
14EB
  8
0
 10
355.0000000000001
 20
258.6602540378444
 30
0.0
 70
   192
  0
VERTEX
  5
14EC
  8
0
 10
360.0
 20
250.0
 30
0.0
 70
   192
  0
VERTEX
  5
14ED
  8
0
 10
360.0000000000001
 20
250.0
 30
-0.5
 70
   192
  0
VERTEX
  5
14EE
  8
0
 10
350.0000000000001
 20
260.0
 30
-0.5
 70
   192
  0
VERTEX
  5
14EF
  8
0
 10
350.0000000000001
 20
260.0
 30
0.0
 70
   192
  0
VERTEX
  5
14F0
  8
0
 10
0.0
 20
0.0
 30
0.0
 70
   128
 71
     1
 72
     2
 73
    -3
  0
VERTEX
  5
14F1
  8
0
 10
0.0
 20
0.0
 30
0.0
 70
   128
 71
    -1
 72
     3
 73
     4
  0
VERTEX
  5
14F2
  8
0
 10
0.0
 20
0.0
 30
0.0
 70
   128
 71
     5
 72
     6
 73
    -2
  0
VERTEX
  5
14F3
  8
0
 10
0.0
 20
0.0
 30
0.0
 70
   128
 71
    -5
 72
     2
 73
     1
  0
VERTEX
  5
14F4
  8
0
 10
0.0
 20
0.0
 30
0.0
 70
   128
 71
     4
 72
     3
 73
    -7
  0
VERTEX
  5
14F5
  8
0
 10
0.0
 20
0.0
 30
0.0
 70
   128
 71
    -4
 72
     7
 73
     8
  0
SEQEND
  5
19CA
  8
0
  0
POLYLINE
  5
14F6
  8
0
 66
     1
 10
0.0
 20
0.0
 30
0.0
 70
    64
 71
     4
 72
     2
  0
VERTEX
  5
14F7
  8
0
 10
-350.0000000000001
 20
259.9999999999999
 30
0.0
 70
   192
  0
VERTEX
  5
14F8
  8
0
 10
350.0000000000001
 20
260.0
 30
0.0
 70
   192
  0
VERTEX
  5
14F9
  8
0
 10
350.0000000000001
 20
260.0
 30
-0.5
 70
   192
  0
VERTEX
  5
14FA
  8
0
 10
-350.0000000000001
 20
259.9999999999999
 30
-0.5
 70
   192
  0
VERTEX
  5
14FB
  8
0
 10
0.0
 20
0.0
 30
0.0
 70
   128
 71
     3
 72
     4
 73
    -1
  0
VERTEX
  5
14FC
  8
0
 10
0.0
 20
0.0
 30
0.0
 70
   128
 71
     2
 72
    -3
 73
     1
  0
SEQEND
  5
19CB
  8
0
  0
POLYLINE
  5
14FD
  8
0
 66
     1
 10
0.0
 20
0.0
 30
0.0
 70
    64
 71
     8
 72
     6
  0
VERTEX
  5
14FE
  8
0
 10
-355.0
 20
258.6602540378443
 30
0.0
 70
   192
  0
VERTEX
  5
14FF
  8
0
 10
-355.0
 20
258.6602540378443
 30
-0.5
 70
   192
  0
VERTEX
  5
1500
  8
0
 10
-358.6602540378444
 20
255.0
 30
-0.5
 70
   192
  0
VERTEX
  5
1501
  8
0
 10
-358.6602540378444
 20
255.0
 30
0.0
 70
   192
  0
VERTEX
  5
1502
  8
0
 10
-350.0000000000001
 20
259.9999999999999
 30
0.0
 70
   192
  0
VERTEX
  5
1503
  8
0
 10
-350.0000000000001
 20
259.9999999999999
 30
-0.5
 70
   192
  0
VERTEX
  5
1504
  8
0
 10
-360.0
 20
250.0
 30
-0.5
 70
   192
  0
VERTEX
  5
1505
  8
0
 10
-360.0000000000001
 20
250.0
 30
0.0
 70
   192
  0
VERTEX
  5
1506
  8
0
 10
0.0
 20
0.0
 30
0.0
 70
   128
 71
     1
 72
     2
 73
    -3
  0
VERTEX
  5
1507
  8
0
 10
0.0
 20
0.0
 30
0.0
 70
   128
 71
    -1
 72
     3
 73
     4
  0
VERTEX
  5
1508
  8
0
 10
0.0
 20
0.0
 30
0.0
 70
   128
 71
     5
 72
     6
 73
    -2
  0
VERTEX
  5
1509
  8
0
 10
0.0
 20
0.0
 30
0.0
 70
   128
 71
    -5
 72
     2
 73
     1
  0
VERTEX
  5
150A
  8
0
 10
0.0
 20
0.0
 30
0.0
 70
   128
 71
     4
 72
     3
 73
    -7
  0
VERTEX
  5
150B
  8
0
 10
0.0
 20
0.0
 30
0.0
 70
   128
 71
    -4
 72
     7
 73
     8
  0
SEQEND
  5
19CC
  8
0
  0
POLYLINE
  5
150C
  8
0
 66
     1
 10
0.0
 20
0.0
 30
0.0
 70
    64
 71
     4
 72
     2
  0
VERTEX
  5
150D
  8
0
 10
-360.0
 20
-250.0000000000001
 30
0.0
 70
   192
  0
VERTEX
  5
150E
  8
0
 10
-360.0000000000001
 20
-250.0000000000001
 30
-0.5
 70
   192
  0
VERTEX
  5
150F
  8
0
 10
-360.0000000000001
 20
250.0
 30
-0.5
 70
   192
  0
VERTEX
  5
1510
  8
0
 10
-360.0000000000001
 20
250.0
 30
0.0
 70
   192
  0
VERTEX
  5
1511
  8
0
 10
0.0
 20
0.0
 30
0.0
 70
   128
 71
     1
 72
     4
 73
    -3
  0
VERTEX
  5
1512
  8
0
 10
0.0
 20
0.0
 30
0.0
 70
   128
 71
    -1
 72
     3
 73
     2
  0
SEQEND
  5
19CD
  8
0
  0
POLYLINE
  5
1513
  8
0
 66
     1
 10
0.0
 20
0.0
 30
0.0
 70
    64
 71
     8
 72
     6
  0
VERTEX
  5
1514
  8
0
 10
-358.6602540378444
 20
-255.0000000000001
 30
0.0
 70
   192
  0
VERTEX
  5
1515
  8
0
 10
-358.6602540378444
 20
-255.0000000000001
 30
-0.5
 70
   192
  0
VERTEX
  5
1516
  8
0
 10
-355.0000000000001
 20
-258.6602540378445
 30
-0.5
 70
   192
  0
VERTEX
  5
1517
  8
0
 10
-355.0000000000001
 20
-258.6602540378445
 30
0.0
 70
   192
  0
VERTEX
  5
1518
  8
0
 10
-360.0
 20
-250.0000000000001
 30
0.0
 70
   192
  0
VERTEX
  5
1519
  8
0
 10
-360.0
 20
-250.0000000000001
 30
-0.5
 70
   192
  0
VERTEX
  5
151A
  8
0
 10
-350.0000000000001
 20
-260.0000000000001
 30
-0.5
 70
   192
  0
VERTEX
  5
151B
  8
0
 10
-350.0000000000001
 20
-260.0000000000001
 30
0.0
 70
   192
  0
VERTEX
  5
151C
  8
0
 10
0.0
 20
0.0
 30
0.0
 70
   128
 71
     1
 72
     2
 73
    -3
  0
VERTEX
  5
151D
  8
0
 10
0.0
 20
0.0
 30
0.0
 70
   128
 71
    -1
 72
     3
 73
     4
  0
VERTEX
  5
151E
  8
0
 10
0.0
 20
0.0
 30
0.0
 70
   128
 71
     5
 72
     6
 73
    -2
  0
VERTEX
  5
151F
  8
0
 10
0.0
 20
0.0
 30
0.0
 70
   128
 71
    -5
 72
     2
 73
     1
  0
VERTEX
  5
1520
  8
0
 10
0.0
 20
0.0
 30
0.0
 70
   128
 71
     4
 72
     3
 73
    -7
  0
VERTEX
  5
1521
  8
0
 10
0.0
 20
0.0
 30
0.0
 70
   128
 71
    -4
 72
     7
 73
     8
  0
SEQEND
  5
19CE
  8
0
  0
POLYLINE
  5
1522
  8
0
 66
     1
 10
0.0
 20
0.0
 30
0.0
 70
    64
 71
     4
 72
     2
  0
VERTEX
  5
1523
  8
0
 10
350.0000000000001
 20
-259.9999999999999
 30
0.0
 70
   192
  0
VERTEX
  5
1524
  8
0
 10
350.0000000000001
 20
-259.9999999999999
 30
-0.5
 70
   192
  0
VERTEX
  5
1525
  8
0
 10
-350.0000000000001
 20
-260.0000000000001
 30
-0.5
 70
   192
  0
VERTEX
  5
1526
  8
0
 10
-350.0000000000001
 20
-260.0000000000001
 30
0.0
 70
   192
  0
VERTEX
  5
1527
  8
0
 10
0.0
 20
0.0
 30
0.0
 70
   128
 71
     1
 72
     4
 73
    -3
  0
VERTEX
  5
1528
  8
0
 10
0.0
 20
0.0
 30
0.0
 70
   128
 71
    -1
 72
     3
 73
     2
  0
SEQEND
  5
19CF
  8
0
  0
POLYLINE
  5
1529
  8
0
 66
     1
 10
0.0
 20
0.0
 30
0.0
 70
    64
 71
     8
 72
     6
  0
VERTEX
  5
152A
  8
0
 10
355.0000000000001
 20
-258.6602540378443
 30
0.0
 70
   192
  0
VERTEX
  5
152B
  8
0
 10
355.0000000000001
 20
-258.6602540378443
 30
-0.5
 70
   192
  0
VERTEX
  5
152C
  8
0
 10
358.6602540378444
 20
-254.9999999999999
 30
-0.5
 70
   192
  0
VERTEX
  5
152D
  8
0
 10
358.6602540378444
 20
-254.9999999999999
 30
0.0
 70
   192
  0
VERTEX
  5
152E
  8
0
 10
350.0000000000001
 20
-259.9999999999999
 30
0.0
 70
   192
  0
VERTEX
  5
152F
  8
0
 10
350.0000000000001
 20
-259.9999999999999
 30
-0.5
 70
   192
  0
VERTEX
  5
1530
  8
0
 10
360.0
 20
-249.9999999999999
 30
-0.5
 70
   192
  0
VERTEX
  5
1531
  8
0
 10
360.0000000000001
 20
-249.9999999999999
 30
0.0
 70
   192
  0
VERTEX
  5
1532
  8
0
 10
0.0
 20
0.0
 30
0.0
 70
   128
 71
     1
 72
     2
 73
    -3
  0
VERTEX
  5
1533
  8
0
 10
0.0
 20
0.0
 30
0.0
 70
   128
 71
    -1
 72
     3
 73
     4
  0
VERTEX
  5
1534
  8
0
 10
0.0
 20
0.0
 30
0.0
 70
   128
 71
     5
 72
     6
 73
    -2
  0
VERTEX
  5
1535
  8
0
 10
0.0
 20
0.0
 30
0.0
 70
   128
 71
    -5
 72
     2
 73
     1
  0
VERTEX
  5
1536
  8
0
 10
0.0
 20
0.0
 30
0.0
 70
   128
 71
     4
 72
     3
 73
    -7
  0
VERTEX
  5
1537
  8
0
 10
0.0
 20
0.0
 30
0.0
 70
   128
 71
    -4
 72
     7
 73
     8
  0
SEQEND
  5
19D0
  8
0
  0
POLYLINE
  5
1538
  8
0
 66
     1
 10
0.0
 20
0.0
 30
0.0
 70
    64
 71
     4
 72
     2
  0
VERTEX
  5
1539
  8
0
 10
360.0000000000001
 20
250.0
 30
0.0
 70
   192
  0
VERTEX
  5
153A
  8
0
 10
360.0000000000001
 20
-249.9999999999999
 30
0.0
 70
   192
  0
VERTEX
  5
153B
  8
0
 10
360.0000000000001
 20
-249.9999999999999
 30
-0.5
 70
   192
  0
VERTEX
  5
153C
  8
0
 10
360.0000000000001
 20
250.0
 30
-0.5
 70
   192
  0
VERTEX
  5
153D
  8
0
 10
0.0
 20
0.0
 30
0.0
 70
   128
 71
     3
 72
     4
 73
    -1
  0
VERTEX
  5
153E
  8
0
 10
0.0
 20
0.0
 30
0.0
 70
   128
 71
     2
 72
    -3
 73
     1
  0
SEQEND
  5
19D1
  8
0
  0
POLYLINE
  5
153F
  8
0
 66
     1
 10
0.0
 20
0.0
 30
0.0
 70
    64
 71
     8
 72
     6
  0
VERTEX
  5
1540
  8
0
 10
365.0000000000001
 20
275.9807621135332
 30
-0.5
 70
   192
  0
VERTEX
  5
1541
  8
0
 10
375.9807621135332
 20
265.0
 30
-0.5
 70
   192
  0
VERTEX
  5
1542
  8
0
 10
375.9807621135332
 20
265.0000000000001
 30
0.0
 70
   192
  0
VERTEX
  5
1543
  8
0
 10
365.0000000000001
 20
275.9807621135332
 30
0.0
 70
   192
  0
VERTEX
  5
1544
  8
0
 10
380.0
 20
250.0
 30
-0.5
 70
   192
  0
VERTEX
  5
1545
  8
0
 10
380.0
 20
250.0000000000001
 30
0.0
 70
   192
  0
VERTEX
  5
1546
  8
0
 10
350.0000000000001
 20
280.0
 30
-0.5
 70
   192
  0
VERTEX
  5
1547
  8
0
 10
350.0000000000001
 20
280.0
 30
0.0
 70
   192
  0
VERTEX
  5
1548
  8
0
 10
0.0
 20
0.0
 30
0.0
 70
   128
 71
     1
 72
     2
 73
    -3
  0
VERTEX
  5
1549
  8
0
 10
0.0
 20
0.0
 30
0.0
 70
   128
 71
     4
 72
    -1
 73
     3
  0
VERTEX
  5
154A
  8
0
 10
0.0
 20
0.0
 30
0.0
 70
   128
 71
     2
 72
     5
 73
    -6
  0
VERTEX
  5
154B
  8
0
 10
0.0
 20
0.0
 30
0.0
 70
   128
 71
     3
 72
    -2
 73
     6
  0
VERTEX
  5
154C
  8
0
 10
0.0
 20
0.0
 30
0.0
 70
   128
 71
     7
 72
     1
 73
    -4
  0
VERTEX
  5
154D
  8
0
 10
0.0
 20
0.0
 30
0.0
 70
   128
 71
     8
 72
    -7
 73
     4
  0
SEQEND
  5
19D2
  8
0
  0
POLYLINE
  5
154E
  8
0
 66
     1
 10
0.0
 20
0.0
 30
0.0
 70
    64
 71
    32
 72
    32
  0
VERTEX
  5
154F
  8
0
 10
380.0000000000001
 20
-249.9999999999999
 30
-0.5
 70
   192
  0
VERTEX
  5
1550
  8
0
 10
380.0000000000001
 20
250.0
 30
-0.5
 70
   192
  0
VERTEX
  5
1551
  8
0
 10
375.9807621135332
 20
265.0
 30
-0.5
 70
   192
  0
VERTEX
  5
1552
  8
0
 10
365.0000000000001
 20
275.9807621135332
 30
-0.5
 70
   192
  0
VERTEX
  5
1553
  8
0
 10
350.0000000000001
 20
280.0
 30
-0.5
 70
   192
  0
VERTEX
  5
1554
  8
0
 10
-350.0000000000001
 20
279.9999999999999
 30
-0.5
 70
   192
  0
VERTEX
  5
1555
  8
0
 10
-365.0000000000001
 20
275.9807621135331
 30
-0.5
 70
   192
  0
VERTEX
  5
1556
  8
0
 10
-375.9807621135332
 20
264.9999999999999
 30
-0.5
 70
   192
  0
VERTEX
  5
1557
  8
0
 10
-380.0
 20
250.0
 30
-0.5
 70
   192
  0
VERTEX
  5
1558
  8
0
 10
-380.0000000000001
 20
-250.0000000000001
 30
-0.5
 70
   192
  0
VERTEX
  5
1559
  8
0
 10
-375.9807621135332
 20
-265.0000000000001
 30
-0.5
 70
   192
  0
VERTEX
  5
155A
  8
0
 10
-365.0000000000001
 20
-275.9807621135333
 30
-0.5
 70
   192
  0
VERTEX
  5
155B
  8
0
 10
-350.0000000000001
 20
-280.0000000000001
 30
-0.5
 70
   192
  0
VERTEX
  5
155C
  8
0
 10
350.0000000000001
 20
-279.9999999999999
 30
-0.5
 70
   192
  0
VERTEX
  5
155D
  8
0
 10
365.0000000000001
 20
-275.980762113533
 30
-0.5
 70
   192
  0
VERTEX
  5
155E
  8
0
 10
375.9807621135332
 20
-264.9999999999999
 30
-0.5
 70
   192
  0
VERTEX
  5
155F
  8
0
 10
350.0000000000001
 20
260.0
 30
-0.5
 70
   192
  0
VERTEX
  5
1560
  8
0
 10
355.0000000000001
 20
258.6602540378444
 30
-0.5
 70
   192
  0
VERTEX
  5
1561
  8
0
 10
358.6602540378444
 20
255.0
 30
-0.5
 70
   192
  0
VERTEX
  5
1562
  8
0
 10
360.0
 20
250.0
 30
-0.5
 70
   192
  0
VERTEX
  5
1563
  8
0
 10
360.0000000000001
 20
-249.9999999999999
 30
-0.5
 70
   192
  0
VERTEX
  5
1564
  8
0
 10
358.6602540378444
 20
-254.9999999999999
 30
-0.5
 70
   192
  0
VERTEX
  5
1565
  8
0
 10
355.0000000000001
 20
-258.6602540378443
 30
-0.5
 70
   192
  0
VERTEX
  5
1566
  8
0
 10
350.0000000000001
 20
-259.9999999999999
 30
-0.5
 70
   192
  0
VERTEX
  5
1567
  8
0
 10
-350.0000000000001
 20
-260.0000000000001
 30
-0.5
 70
   192
  0
VERTEX
  5
1568
  8
0
 10
-355.0000000000001
 20
-258.6602540378445
 30
-0.5
 70
   192
  0
VERTEX
  5
1569
  8
0
 10
-358.6602540378444
 20
-255.0000000000001
 30
-0.5
 70
   192
  0
VERTEX
  5
156A
  8
0
 10
-360.0
 20
-250.0000000000001
 30
-0.5
 70
   192
  0
VERTEX
  5
156B
  8
0
 10
-360.0000000000001
 20
250.0
 30
-0.5
 70
   192
  0
VERTEX
  5
156C
  8
0
 10
-358.6602540378444
 20
255.0
 30
-0.5
 70
   192
  0
VERTEX
  5
156D
  8
0
 10
-355.0
 20
258.6602540378443
 30
-0.5
 70
   192
  0
VERTEX
  5
156E
  8
0
 10
-350.0000000000001
 20
259.9999999999999
 30
-0.5
 70
   192
  0
VERTEX
  5
156F
  8
0
 10
0.0
 20
0.0
 30
0.0
 70
   128
 71
    -3
 72
    17
 73
   -18
  0
VERTEX
  5
1570
  8
0
 10
0.0
 20
0.0
 30
0.0
 70
   128
 71
    18
 72
   -19
 73
    -3
  0
VERTEX
  5
1571
  8
0
 10
0.0
 20
0.0
 30
0.0
 70
   128
 71
    19
 72
   -20
 73
    -3
  0
VERTEX
  5
1572
  8
0
 10
0.0
 20
0.0
 30
0.0
 70
   128
 71
     1
 72
     2
 73
    -3
  0
VERTEX
  5
1573
  8
0
 10
0.0
 20
0.0
 30
0.0
 70
   128
 71
    16
 72
    -1
 73
    -3
  0
VERTEX
  5
1574
  8
0
 10
0.0
 20
0.0
 30
0.0
 70
   128
 71
   -21
 72
   -16
 73
    -3
  0
VERTEX
  5
1575
  8
0
 10
0.0
 20
0.0
 30
0.0
 70
   128
 71
    20
 72
   -21
 73
    -3
  0
VERTEX
  5
1576
  8
0
 10
0.0
 20
0.0
 30
0.0
 70
   128
 71
    21
 72
   -22
 73
   -16
  0
VERTEX
  5
1577
  8
0
 10
0.0
 20
0.0
 30
0.0
 70
   128
 71
    22
 72
   -23
 73
   -16
  0
VERTEX
  5
1578
  8
0
 10
0.0
 20
0.0
 30
0.0
 70
   128
 71
    23
 72
   -24
 73
   -16
  0
VERTEX
  5
1579
  8
0
 10
0.0
 20
0.0
 30
0.0
 70
   128
 71
    14
 72
    15
 73
   -16
  0
VERTEX
  5
157A
  8
0
 10
0.0
 20
0.0
 30
0.0
 70
   128
 71
    13
 72
   -14
 73
   -16
  0
VERTEX
  5
157B
  8
0
 10
0.0
 20
0.0
 30
0.0
 70
   128
 71
    12
 72
   -13
 73
   -16
  0
VERTEX
  5
157C
  8
0
 10
0.0
 20
0.0
 30
0.0
 70
   128
 71
   -25
 72
   -12
 73
   -16
  0
VERTEX
  5
157D
  8
0
 10
0.0
 20
0.0
 30
0.0
 70
   128
 71
    24
 72
   -25
 73
   -16
  0
VERTEX
  5
157E
  8
0
 10
0.0
 20
0.0
 30
0.0
 70
   128
 71
    25
 72
   -26
 73
   -12
  0
VERTEX
  5
157F
  8
0
 10
0.0
 20
0.0
 30
0.0
 70
   128
 71
    26
 72
   -27
 73
   -12
  0
VERTEX
  5
1580
  8
0
 10
0.0
 20
0.0
 30
0.0
 70
   128
 71
    27
 72
   -28
 73
   -12
  0
VERTEX
  5
1581
  8
0
 10
0.0
 20
0.0
 30
0.0
 70
   128
 71
    10
 72
    11
 73
   -12
  0
VERTEX
  5
1582
  8
0
 10
0.0
 20
0.0
 30
0.0
 70
   128
 71
     9
 72
   -10
 73
   -12
  0
VERTEX
  5
1583
  8
0
 10
0.0
 20
0.0
 30
0.0
 70
   128
 71
     8
 72
    -9
 73
   -12
  0
VERTEX
  5
1584
  8
0
 10
0.0
 20
0.0
 30
0.0
 70
   128
 71
   -29
 72
    -8
 73
   -12
  0
VERTEX
  5
1585
  8
0
 10
0.0
 20
0.0
 30
0.0
 70
   128
 71
    28
 72
   -29
 73
   -12
  0
VERTEX
  5
1586
  8
0
 10
0.0
 20
0.0
 30
0.0
 70
   128
 71
    29
 72
   -30
 73
    -8
  0
VERTEX
  5
1587
  8
0
 10
0.0
 20
0.0
 30
0.0
 70
   128
 71
    30
 72
   -31
 73
    -8
  0
VERTEX
  5
1588
  8
0
 10
0.0
 20
0.0
 30
0.0
 70
   128
 71
    31
 72
   -32
 73
    -8
  0
VERTEX
  5
1589
  8
0
 10
0.0
 20
0.0
 30
0.0
 70
   128
 71
     6
 72
     7
 73
    -8
  0
VERTEX
  5
158A
  8
0
 10
0.0
 20
0.0
 30
0.0
 70
   128
 71
     5
 72
    -6
 73
    -8
  0
VERTEX
  5
158B
  8
0
 10
0.0
 20
0.0
 30
0.0
 70
   128
 71
     4
 72
    -5
 73
    -8
  0
VERTEX
  5
158C
  8
0
 10
0.0
 20
0.0
 30
0.0
 70
   128
 71
     3
 72
    -4
 73
    -8
  0
VERTEX
  5
158D
  8
0
 10
0.0
 20
0.0
 30
0.0
 70
   128
 71
   -17
 72
    -3
 73
    -8
  0
VERTEX
  5
158E
  8
0
 10
0.0
 20
0.0
 30
0.0
 70
   128
 71
    32
 72
   -17
 73
    -8
  0
SEQEND
  5
19D3
  8
0
  0
POLYLINE
  5
158F
  8
0
 66
     1
 10
0.0
 20
0.0
 30
0.0
 70
    64
 71
    16
 72
    14
  0
VERTEX
  5
1590
  8
0
 10
360.0000000000001
 20
-249.9999999999999
 30
0.0
 70
   192
  0
VERTEX
  5
1591
  8
0
 10
360.0000000000001
 20
250.0
 30
0.0
 70
   192
  0
VERTEX
  5
1592
  8
0
 10
358.6602540378444
 20
255.0
 30
0.0
 70
   192
  0
VERTEX
  5
1593
  8
0
 10
355.0000000000001
 20
258.6602540378444
 30
0.0
 70
   192
  0
VERTEX
  5
1594
  8
0
 10
350.0000000000001
 20
260.0
 30
0.0
 70
   192
  0
VERTEX
  5
1595
  8
0
 10
-350.0000000000001
 20
259.9999999999999
 30
0.0
 70
   192
  0
VERTEX
  5
1596
  8
0
 10
-355.0
 20
258.6602540378443
 30
0.0
 70
   192
  0
VERTEX
  5
1597
  8
0
 10
-358.6602540378444
 20
255.0
 30
0.0
 70
   192
  0
VERTEX
  5
1598
  8
0
 10
-360.0
 20
250.0
 30
0.0
 70
   192
  0
VERTEX
  5
1599
  8
0
 10
-360.0000000000001
 20
-250.0000000000001
 30
0.0
 70
   192
  0
VERTEX
  5
159A
  8
0
 10
-358.6602540378444
 20
-255.0000000000001
 30
0.0
 70
   192
  0
VERTEX
  5
159B
  8
0
 10
-355.0000000000001
 20
-258.6602540378445
 30
0.0
 70
   192
  0
VERTEX
  5
159C
  8
0
 10
-350.0000000000001
 20
-260.0000000000001
 30
0.0
 70
   192
  0
VERTEX
  5
159D
  8
0
 10
350.0000000000001
 20
-259.9999999999999
 30
0.0
 70
   192
  0
VERTEX
  5
159E
  8
0
 10
355.0000000000001
 20
-258.6602540378443
 30
0.0
 70
   192
  0
VERTEX
  5
159F
  8
0
 10
358.6602540378444
 20
-254.9999999999999
 30
0.0
 70
   192
  0
VERTEX
  5
15A0
  8
0
 10
0.0
 20
0.0
 30
0.0
 70
   128
 71
    15
 72
    16
 73
    -1
  0
VERTEX
  5
15A1
  8
0
 10
0.0
 20
0.0
 30
0.0
 70
   128
 71
    14
 72
   -15
 73
    -1
  0
VERTEX
  5
15A2
  8
0
 10
0.0
 20
0.0
 30
0.0
 70
   128
 71
    13
 72
   -14
 73
    -1
  0
VERTEX
  5
15A3
  8
0
 10
0.0
 20
0.0
 30
0.0
 70
   128
 71
    12
 72
   -13
 73
    -1
  0
VERTEX
  5
15A4
  8
0
 10
0.0
 20
0.0
 30
0.0
 70
   128
 71
    11
 72
   -12
 73
    -1
  0
VERTEX
  5
15A5
  8
0
 10
0.0
 20
0.0
 30
0.0
 70
   128
 71
    10
 72
   -11
 73
    -1
  0
VERTEX
  5
15A6
  8
0
 10
0.0
 20
0.0
 30
0.0
 70
   128
 71
     9
 72
   -10
 73
    -1
  0
VERTEX
  5
15A7
  8
0
 10
0.0
 20
0.0
 30
0.0
 70
   128
 71
     8
 72
    -9
 73
    -1
  0
VERTEX
  5
15A8
  8
0
 10
0.0
 20
0.0
 30
0.0
 70
   128
 71
     7
 72
    -8
 73
    -1
  0
VERTEX
  5
15A9
  8
0
 10
0.0
 20
0.0
 30
0.0
 70
   128
 71
     6
 72
    -7
 73
    -1
  0
VERTEX
  5
15AA
  8
0
 10
0.0
 20
0.0
 30
0.0
 70
   128
 71
     5
 72
    -6
 73
    -1
  0
VERTEX
  5
15AB
  8
0
 10
0.0
 20
0.0
 30
0.0
 70
   128
 71
     4
 72
    -5
 73
    -1
  0
VERTEX
  5
15AC
  8
0
 10
0.0
 20
0.0
 30
0.0
 70
   128
 71
     3
 72
    -4
 73
    -1
  0
VERTEX
  5
15AD
  8
0
 10
0.0
 20
0.0
 30
0.0
 70
   128
 71
     2
 72
    -3
 73
     1
  0
SEQEND
  5
19D4
  8
0
  0
ENDBLK
  5
19B8
  8
0
  0
BLOCK
  8
0
  2
*X2
 70
     1
 10
0.0
 20
0.0
 30
0.0
  3
*X2
  1

  0
POLYLINE
  5
15AF
  8
0
 66
     1
 10
0.0
 20
0.0
 30
0.0
 70
    64
 71
     6
 72
     4
  0
VERTEX
  5
15B0
  8
0
 10
-185.0000000000006
 20
170.0000000000005
 30
-12.0
 70
   192
  0
VERTEX
  5
15B1
  8
0
 10
-219.0000000000006
 20
170.0
 30
-12.0
 70
   192
  0
VERTEX
  5
15B2
  8
0
 10
-219.0000000000006
 20
170.0
 30
-5.0
 70
   192
  0
VERTEX
  5
15B3
  8
0
 10
-222.0000000000006
 20
170.0
 30
-5.0
 70
   192
  0
VERTEX
  5
15B4
  8
0
 10
-222.0000000000006
 20
169.9999999999999
 30
-15.0
 70
   192
  0
VERTEX
  5
15B5
  8
0
 10
-185.0000000000006
 20
170.0000000000005
 30
-15.0
 70
   192
  0
VERTEX
  5
15B6
  8
0
 10
0.0
 20
0.0
 30
0.0
 70
   128
 71
     6
 72
     1
 73
    -2
  0
VERTEX
  5
15B7
  8
0
 10
0.0
 20
0.0
 30
0.0
 70
   128
 71
     5
 72
    -6
 73
    -2
  0
VERTEX
  5
15B8
  8
0
 10
0.0
 20
0.0
 30
0.0
 70
   128
 71
     3
 72
     4
 73
    -5
  0
VERTEX
  5
15B9
  8
0
 10
0.0
 20
0.0
 30
0.0
 70
   128
 71
     2
 72
    -3
 73
    -5
  0
SEQEND
  5
19D7
  8
0
  0
POLYLINE
  5
15BA
  8
0
 66
     1
 10
0.0
 20
0.0
 30
0.0
 70
    64
 71
     6
 72
     4
  0
VERTEX
  5
15BB
  8
0
 10
-222.0000000000005
 20
134.9999999999999
 30
-2.0
 70
   192
  0
VERTEX
  5
15BC
  8
0
 10
-222.0000000000007
 20
194.9999999999999
 30
-2.0
 70
   192
  0
VERTEX
  5
15BD
  8
0
 10
-222.0000000000007
 20
194.9999999999999
 30
-15.0
 70
   192
  0
VERTEX
  5
15BE
  8
0
 10
-222.0000000000006
 20
169.9999999999999
 30
-15.0
 70
   192
  0
VERTEX
  5
15BF
  8
0
 10
-222.0000000000006
 20
169.9999999999999
 30
-5.0
 70
   192
  0
VERTEX
  5
15C0
  8
0
 10
-222.0000000000005
 20
134.9999999999999
 30
-5.0
 70
   192
  0
VERTEX
  5
15C1
  8
0
 10
0.0
 20
0.0
 30
0.0
 70
   128
 71
     3
 72
     4
 73
    -5
  0
VERTEX
  5
15C2
  8
0
 10
0.0
 20
0.0
 30
0.0
 70
   128
 71
     2
 72
    -3
 73
    -5
  0
VERTEX
  5
15C3
  8
0
 10
0.0
 20
0.0
 30
0.0
 70
   128
 71
     6
 72
     1
 73
    -2
  0
VERTEX
  5
15C4
  8
0
 10
0.0
 20
0.0
 30
0.0
 70
   128
 71
     5
 72
    -6
 73
    -2
  0
SEQEND
  5
19D8
  8
0
  0
POLYLINE
  5
15C5
  8
0
 66
     1
 10
0.0
 20
0.0
 30
0.0
 70
    64
 71
     4
 72
     2
  0
VERTEX
  5
15C6
  8
0
 10
-222.0000000000007
 20
194.9999999999999
 30
-2.0
 70
   192
  0
VERTEX
  5
15C7
  8
0
 10
-222.0000000000007
 20
195.0
 30
-15.0
 70
   192
  0
VERTEX
  5
15C8
  8
0
 10
-142.0000000000007
 20
195.0000000000002
 30
-15.0
 70
   192
  0
VERTEX
  5
15C9
  8
0
 10
-142.0000000000007
 20
195.0000000000002
 30
-2.0
 70
   192
  0
VERTEX
  5
15CA
  8
0
 10
0.0
 20
0.0
 30
0.0
 70
   128
 71
     1
 72
     4
 73
    -3
  0
VERTEX
  5
15CB
  8
0
 10
0.0
 20
0.0
 30
0.0
 70
   128
 71
    -1
 72
     3
 73
     2
  0
SEQEND
  5
19D9
  8
0
  0
POLYLINE
  5
15CC
  8
0
 66
     1
 10
0.0
 20
0.0
 30
0.0
 70
    64
 71
     6
 72
     4
  0
VERTEX
  5
15CD
  8
0
 10
-142.0000000000007
 20
195.0000000000002
 30
-2.0
 70
   192
  0
VERTEX
  5
15CE
  8
0
 10
-142.0000000000007
 20
195.0000000000002
 30
-15.0
 70
   192
  0
VERTEX
  5
15CF
  8
0
 10
-142.0000000000006
 20
170.0000000000002
 30
-15.0
 70
   192
  0
VERTEX
  5
15D0
  8
0
 10
-142.0000000000006
 20
170.0000000000002
 30
-5.0
 70
   192
  0
VERTEX
  5
15D1
  8
0
 10
-142.0000000000005
 20
135.0000000000002
 30
-5.0
 70
   192
  0
VERTEX
  5
15D2
  8
0
 10
-142.0000000000005
 20
135.0000000000002
 30
-2.0
 70
   192
  0
VERTEX
  5
15D3
  8
0
 10
0.0
 20
0.0
 30
0.0
 70
   128
 71
     4
 72
     3
 73
    -2
  0
VERTEX
  5
15D4
  8
0
 10
0.0
 20
0.0
 30
0.0
 70
   128
 71
    -4
 72
     2
 73
    -1
  0
VERTEX
  5
15D5
  8
0
 10
0.0
 20
0.0
 30
0.0
 70
   128
 71
     1
 72
     6
 73
    -5
  0
VERTEX
  5
15D6
  8
0
 10
0.0
 20
0.0
 30
0.0
 70
   128
 71
    -1
 72
     5
 73
    -4
  0
SEQEND
  5
19DA
  8
0
  0
POLYLINE
  5
15D7
  8
0
 66
     1
 10
0.0
 20
0.0
 30
0.0
 70
    64
 71
     4
 72
     2
  0
VERTEX
  5
15D8
  8
0
 10
-142.0000000000005
 20
135.0000000000002
 30
-2.0
 70
   192
  0
VERTEX
  5
15D9
  8
0
 10
-222.0000000000005
 20
134.9999999999999
 30
-2.0
 70
   192
  0
VERTEX
  5
15DA
  8
0
 10
-222.0000000000005
 20
134.9999999999999
 30
-5.0
 70
   192
  0
VERTEX
  5
15DB
  8
0
 10
-142.0000000000005
 20
135.0000000000002
 30
-5.0
 70
   192
  0
VERTEX
  5
15DC
  8
0
 10
0.0
 20
0.0
 30
0.0
 70
   128
 71
     3
 72
     4
 73
    -1
  0
VERTEX
  5
15DD
  8
0
 10
0.0
 20
0.0
 30
0.0
 70
   128
 71
     2
 72
    -3
 73
     1
  0
SEQEND
  5
19DB
  8
0
  0
POLYLINE
  5
15DE
  8
0
 66
     1
 10
0.0
 20
0.0
 30
0.0
 70
    64
 71
     8
 72
     6
  0
VERTEX
  5
15DF
  8
0
 10
-145.0000000000007
 20
192.0000000000002
 30
-5.0
 70
   192
  0
VERTEX
  5
15E0
  8
0
 10
-219.0000000000007
 20
191.9999999999999
 30
-5.0
 70
   192
  0
VERTEX
  5
15E1
  8
0
 10
-219.0000000000006
 20
170.0
 30
-5.0
 70
   192
  0
VERTEX
  5
15E2
  8
0
 10
-222.0000000000006
 20
169.9999999999999
 30
-5.0
 70
   192
  0
VERTEX
  5
15E3
  8
0
 10
-222.0000000000005
 20
134.9999999999999
 30
-5.0
 70
   192
  0
VERTEX
  5
15E4
  8
0
 10
-142.0000000000005
 20
135.0000000000002
 30
-5.0
 70
   192
  0
VERTEX
  5
15E5
  8
0
 10
-142.0000000000006
 20
170.0000000000002
 30
-5.0
 70
   192
  0
VERTEX
  5
15E6
  8
0
 10
-145.0000000000006
 20
170.0000000000002
 30
-5.0
 70
   192
  0
VERTEX
  5
15E7
  8
0
 10
0.0
 20
0.0
 30
0.0
 70
   128
 71
     8
 72
     7
 73
    -6
  0
VERTEX
  5
15E8
  8
0
 10
0.0
 20
0.0
 30
0.0
 70
   128
 71
     3
 72
     2
 73
    -1
  0
VERTEX
  5
15E9
  8
0
 10
0.0
 20
0.0
 30
0.0
 70
   128
 71
    -3
 72
     1
 73
    -8
  0
VERTEX
  5
15EA
  8
0
 10
0.0
 20
0.0
 30
0.0
 70
   128
 71
    -8
 72
     6
 73
    -5
  0
VERTEX
  5
15EB
  8
0
 10
0.0
 20
0.0
 30
0.0
 70
   128
 71
    -8
 72
    -5
 73
    -3
  0
VERTEX
  5
15EC
  8
0
 10
0.0
 20
0.0
 30
0.0
 70
   128
 71
     5
 72
     4
 73
    -3
  0
SEQEND
  5
19DC
  8
0
  0
POLYLINE
  5
15ED
  8
0
 66
     1
 10
0.0
 20
0.0
 30
0.0
 70
    64
 71
     4
 72
     2
  0
VERTEX
  5
15EE
  8
0
 10
-222.0000000000007
 20
194.9999999999999
 30
-2.0
 70
   192
  0
VERTEX
  5
15EF
  8
0
 10
-222.0000000000005
 20
134.9999999999999
 30
-2.0
 70
   192
  0
VERTEX
  5
15F0
  8
0
 10
-142.0000000000005
 20
135.0000000000002
 30
-2.0
 70
   192
  0
VERTEX
  5
15F1
  8
0
 10
-142.0000000000007
 20
195.0000000000002
 30
-2.0
 70
   192
  0
VERTEX
  5
15F2
  8
0
 10
0.0
 20
0.0
 30
0.0
 70
   128
 71
     3
 72
     4
 73
    -1
  0
VERTEX
  5
15F3
  8
0
 10
0.0
 20
0.0
 30
0.0
 70
   128
 71
     2
 72
    -3
 73
     1
  0
SEQEND
  5
19DD
  8
0
  0
POLYLINE
  5
15F4
  8
0
 66
     1
 10
0.0
 20
0.0
 30
0.0
 70
    64
 71
     4
 72
     2
  0
VERTEX
  5
15F5
  8
0
 10
-179.0000000000007
 20
190.0000000000001
 30
-12.0
 70
   192
  0
VERTEX
  5
15F6
  8
0
 10
-185.0000000000006
 20
189.9999999999999
 30
-12.0
 70
   192
  0
VERTEX
  5
15F7
  8
0
 10
-185.0000000000006
 20
189.9999999999999
 30
-15.0
 70
   192
  0
VERTEX
  5
15F8
  8
0
 10
-179.0000000000007
 20
190.0000000000001
 30
-15.0
 70
   192
  0
VERTEX
  5
15F9
  8
0
 10
0.0
 20
0.0
 30
0.0
 70
   128
 71
     3
 72
     4
 73
    -1
  0
VERTEX
  5
15FA
  8
0
 10
0.0
 20
0.0
 30
0.0
 70
   128
 71
     2
 72
    -3
 73
     1
  0
SEQEND
  5
19DE
  8
0
  0
POLYLINE
  5
15FB
  8
0
 66
     1
 10
0.0
 20
0.0
 30
0.0
 70
    64
 71
     4
 72
     2
  0
VERTEX
  5
15FC
  8
0
 10
-185.0000000000006
 20
189.9999999999999
 30
-12.0
 70
   192
  0
VERTEX
  5
15FD
  8
0
 10
-185.0000000000006
 20
170.0000000000005
 30
-12.0
 70
   192
  0
VERTEX
  5
15FE
  8
0
 10
-185.0000000000006
 20
170.0000000000005
 30
-15.0
 70
   192
  0
VERTEX
  5
15FF
  8
0
 10
-185.0000000000006
 20
189.9999999999999
 30
-15.0
 70
   192
  0
VERTEX
  5
1600
  8
0
 10
0.0
 20
0.0
 30
0.0
 70
   128
 71
     3
 72
     4
 73
    -1
  0
VERTEX
  5
1601
  8
0
 10
0.0
 20
0.0
 30
0.0
 70
   128
 71
     2
 72
    -3
 73
     1
  0
SEQEND
  5
19DF
  8
0
  0
POLYLINE
  5
1602
  8
0
 66
     1
 10
0.0
 20
0.0
 30
0.0
 70
    64
 71
     6
 72
     4
  0
VERTEX
  5
1603
  8
0
 10
-145.0000000000006
 20
170.0000000000002
 30
-5.0
 70
   192
  0
VERTEX
  5
1604
  8
0
 10
-145.0000000000006
 20
170.0000000000002
 30
-12.0
 70
   192
  0
VERTEX
  5
1605
  8
0
 10
-179.0000000000006
 20
170.0000000000002
 30
-12.0
 70
   192
  0
VERTEX
  5
1606
  8
0
 10
-179.0000000000006
 20
170.0000000000002
 30
-15.0
 70
   192
  0
VERTEX
  5
1607
  8
0
 10
-142.0000000000006
 20
170.0000000000002
 30
-15.0
 70
   192
  0
VERTEX
  5
1608
  8
0
 10
-142.0000000000006
 20
170.0000000000002
 30
-5.0
 70
   192
  0
VERTEX
  5
1609
  8
0
 10
0.0
 20
0.0
 30
0.0
 70
   128
 71
     6
 72
     1
 73
    -2
  0
VERTEX
  5
160A
  8
0
 10
0.0
 20
0.0
 30
0.0
 70
   128
 71
     5
 72
    -6
 73
    -2
  0
VERTEX
  5
160B
  8
0
 10
0.0
 20
0.0
 30
0.0
 70
   128
 71
     3
 72
     4
 73
    -5
  0
VERTEX
  5
160C
  8
0
 10
0.0
 20
0.0
 30
0.0
 70
   128
 71
     2
 72
    -3
 73
    -5
  0
SEQEND
  5
19E0
  8
0
  0
POLYLINE
  5
160D
  8
0
 66
     1
 10
0.0
 20
0.0
 30
0.0
 70
    64
 71
     4
 72
     2
  0
VERTEX
  5
160E
  8
0
 10
-179.0000000000006
 20
170.0000000000002
 30
-12.0
 70
   192
  0
VERTEX
  5
160F
  8
0
 10
-179.0000000000007
 20
190.0000000000001
 30
-12.0
 70
   192
  0
VERTEX
  5
1610
  8
0
 10
-179.0000000000007
 20
190.0000000000001
 30
-15.0
 70
   192
  0
VERTEX
  5
1611
  8
0
 10
-179.0000000000006
 20
170.0000000000002
 30
-15.0
 70
   192
  0
VERTEX
  5
1612
  8
0
 10
0.0
 20
0.0
 30
0.0
 70
   128
 71
     3
 72
     4
 73
    -1
  0
VERTEX
  5
1613
  8
0
 10
0.0
 20
0.0
 30
0.0
 70
   128
 71
     2
 72
    -3
 73
     1
  0
SEQEND
  5
19E1
  8
0
  0
POLYLINE
  5
1614
  8
0
 66
     1
 10
0.0
 20
0.0
 30
0.0
 70
    64
 71
     8
 72
     6
  0
VERTEX
  5
1615
  8
0
 10
-179.0000000000007
 20
190.0000000000001
 30
-15.0
 70
   192
  0
VERTEX
  5
1616
  8
0
 10
-185.0000000000006
 20
189.9999999999999
 30
-15.0
 70
   192
  0
VERTEX
  5
1617
  8
0
 10
-185.0000000000006
 20
170.0000000000005
 30
-15.0
 70
   192
  0
VERTEX
  5
1618
  8
0
 10
-222.0000000000006
 20
170.0
 30
-15.0
 70
   192
  0
VERTEX
  5
1619
  8
0
 10
-222.0000000000007
 20
194.9999999999999
 30
-15.0
 70
   192
  0
VERTEX
  5
161A
  8
0
 10
-142.0000000000007
 20
195.0000000000003
 30
-15.0
 70
   192
  0
VERTEX
  5
161B
  8
0
 10
-142.0000000000006
 20
170.0000000000002
 30
-15.0
 70
   192
  0
VERTEX
  5
161C
  8
0
 10
-179.0000000000006
 20
170.0000000000002
 30
-15.0
 70
   192
  0
VERTEX
  5
161D
  8
0
 10
0.0
 20
0.0
 30
0.0
 70
   128
 71
     7
 72
     8
 73
    -1
  0
VERTEX
  5
161E
  8
0
 10
0.0
 20
0.0
 30
0.0
 70
   128
 71
     6
 72
    -7
 73
    -1
  0
VERTEX
  5
161F
  8
0
 10
0.0
 20
0.0
 30
0.0
 70
   128
 71
    -6
 72
     1
 73
    -2
  0
VERTEX
  5
1620
  8
0
 10
0.0
 20
0.0
 30
0.0
 70
   128
 71
     5
 72
    -6
 73
    -2
  0
VERTEX
  5
1621
  8
0
 10
0.0
 20
0.0
 30
0.0
 70
   128
 71
     3
 72
     4
 73
    -5
  0
VERTEX
  5
1622
  8
0
 10
0.0
 20
0.0
 30
0.0
 70
   128
 71
     2
 72
    -3
 73
    -5
  0
SEQEND
  5
19E2
  8
0
  0
POLYLINE
  5
1623
  8
0
 66
     1
 10
0.0
 20
0.0
 30
0.0
 70
    64
 71
     4
 72
     2
  0
VERTEX
  5
1624
  8
0
 10
-219.0000000000006
 20
170.0
 30
-5.0
 70
   192
  0
VERTEX
  5
1625
  8
0
 10
-219.0000000000007
 20
191.9999999999999
 30
-5.0
 70
   192
  0
VERTEX
  5
1626
  8
0
 10
-219.0000000000007
 20
191.9999999999999
 30
-12.0
 70
   192
  0
VERTEX
  5
1627
  8
0
 10
-219.0000000000006
 20
170.0
 30
-12.0
 70
   192
  0
VERTEX
  5
1628
  8
0
 10
0.0
 20
0.0
 30
0.0
 70
   128
 71
     1
 72
     4
 73
    -3
  0
VERTEX
  5
1629
  8
0
 10
0.0
 20
0.0
 30
0.0
 70
   128
 71
    -1
 72
     3
 73
     2
  0
SEQEND
  5
19E3
  8
0
  0
POLYLINE
  5
162A
  8
0
 66
     1
 10
0.0
 20
0.0
 30
0.0
 70
    64
 71
     4
 72
     2
  0
VERTEX
  5
162B
  8
0
 10
-145.0000000000007
 20
192.0000000000002
 30
-5.0
 70
   192
  0
VERTEX
  5
162C
  8
0
 10
-219.0000000000007
 20
192.0
 30
-5.0
 70
   192
  0
VERTEX
  5
162D
  8
0
 10
-219.0000000000007
 20
191.9999999999999
 30
-12.0
 70
   192
  0
VERTEX
  5
162E
  8
0
 10
-145.0000000000007
 20
192.0000000000002
 30
-12.0
 70
   192
  0
VERTEX
  5
162F
  8
0
 10
0.0
 20
0.0
 30
0.0
 70
   128
 71
     3
 72
     4
 73
    -1
  0
VERTEX
  5
1630
  8
0
 10
0.0
 20
0.0
 30
0.0
 70
   128
 71
     2
 72
    -3
 73
     1
  0
SEQEND
  5
19E4
  8
0
  0
POLYLINE
  5
1631
  8
0
 66
     1
 10
0.0
 20
0.0
 30
0.0
 70
    64
 71
     4
 72
     2
  0
VERTEX
  5
1632
  8
0
 10
-145.0000000000006
 20
170.0000000000002
 30
-5.0
 70
   192
  0
VERTEX
  5
1633
  8
0
 10
-145.0000000000007
 20
192.0000000000002
 30
-5.0
 70
   192
  0
VERTEX
  5
1634
  8
0
 10
-145.0000000000007
 20
192.0000000000002
 30
-12.0
 70
   192
  0
VERTEX
  5
1635
  8
0
 10
-145.0000000000006
 20
170.0000000000002
 30
-12.0
 70
   192
  0
VERTEX
  5
1636
  8
0
 10
0.0
 20
0.0
 30
0.0
 70
   128
 71
     3
 72
     4
 73
    -1
  0
VERTEX
  5
1637
  8
0
 10
0.0
 20
0.0
 30
0.0
 70
   128
 71
     2
 72
    -3
 73
     1
  0
SEQEND
  5
19E5
  8
0
  0
POLYLINE
  5
1638
  8
0
 66
     1
 10
0.0
 20
0.0
 30
0.0
 70
    64
 71
     8
 72
     6
  0
VERTEX
  5
1639
  8
0
 10
-185.0000000000006
 20
189.9999999999999
 30
-12.0
 70
   192
  0
VERTEX
  5
163A
  8
0
 10
-185.0000000000006
 20
170.0000000000005
 30
-12.0
 70
   192
  0
VERTEX
  5
163B
  8
0
 10
-219.0000000000006
 20
170.0
 30
-12.0
 70
   192
  0
VERTEX
  5
163C
  8
0
 10
-219.0000000000007
 20
191.9999999999999
 30
-12.0
 70
   192
  0
VERTEX
  5
163D
  8
0
 10
-145.0000000000007
 20
192.0000000000002
 30
-12.0
 70
   192
  0
VERTEX
  5
163E
  8
0
 10
-145.0000000000006
 20
170.0000000000002
 30
-12.0
 70
   192
  0
VERTEX
  5
163F
  8
0
 10
-179.0000000000006
 20
170.0000000000002
 30
-12.0
 70
   192
  0
VERTEX
  5
1640
  8
0
 10
-179.0000000000007
 20
190.0000000000001
 30
-12.0
 70
   192
  0
VERTEX
  5
1641
  8
0
 10
0.0
 20
0.0
 30
0.0
 70
   128
 71
     8
 72
     7
 73
    -6
  0
VERTEX
  5
1642
  8
0
 10
0.0
 20
0.0
 30
0.0
 70
   128
 71
    -8
 72
     6
 73
    -5
  0
VERTEX
  5
1643
  8
0
 10
0.0
 20
0.0
 30
0.0
 70
   128
 71
    -5
 72
     1
 73
    -8
  0
VERTEX
  5
1644
  8
0
 10
0.0
 20
0.0
 30
0.0
 70
   128
 71
     5
 72
    -4
 73
    -1
  0
VERTEX
  5
1645
  8
0
 10
0.0
 20
0.0
 30
0.0
 70
   128
 71
     4
 72
     3
 73
    -2
  0
VERTEX
  5
1646
  8
0
 10
0.0
 20
0.0
 30
0.0
 70
   128
 71
    -4
 72
     2
 73
    -1
  0
SEQEND
  5
19E6
  8
0
  0
ENDBLK
  5
19D6
  8
0
  0
BLOCK
  8
0
  2
*X3
 70
     1
 10
0.0
 20
0.0
 30
0.0
  3
*X3
  1

  0
POLYLINE
  5
1648
  8
0
 66
     1
 10
0.0
 20
0.0
 30
0.0
 70
    64
 71
     8
 72
     6
  0
VERTEX
  5
1649
  8
0
 10
141.9999999999993
 20
170.0000000000003
 30
-5.0
 70
   192
  0
VERTEX
  5
164A
  8
0
 10
141.9999999999995
 20
135.0000000000012
 30
-5.0
 70
   192
  0
VERTEX
  5
164B
  8
0
 10
221.9999999999995
 20
135.0000000000015
 30
-5.0
 70
   192
  0
VERTEX
  5
164C
  8
0
 10
221.9999999999994
 20
170.0
 30
-5.0
 70
   192
  0
VERTEX
  5
164D
  8
0
 10
218.9999999999994
 20
170.0
 30
-5.0
 70
   192
  0
VERTEX
  5
164E
  8
0
 10
218.9999999999993
 20
192.0000000000014
 30
-5.0
 70
   192
  0
VERTEX
  5
164F
  8
0
 10
144.9999999999993
 20
192.0000000000012
 30
-5.0
 70
   192
  0
VERTEX
  5
1650
  8
0
 10
144.9999999999993
 20
170.0000000000003
 30
-5.0
 70
   192
  0
VERTEX
  5
1651
  8
0
 10
0.0
 20
0.0
 30
0.0
 70
   128
 71
     5
 72
    -4
 73
    -8
  0
VERTEX
  5
1652
  8
0
 10
0.0
 20
0.0
 30
0.0
 70
   128
 71
     8
 72
     7
 73
    -6
  0
VERTEX
  5
1653
  8
0
 10
0.0
 20
0.0
 30
0.0
 70
   128
 71
    -8
 72
     6
 73
    -5
  0
VERTEX
  5
1654
  8
0
 10
0.0
 20
0.0
 30
0.0
 70
   128
 71
     4
 72
     3
 73
    -2
  0
VERTEX
  5
1655
  8
0
 10
0.0
 20
0.0
 30
0.0
 70
   128
 71
    -4
 72
    -2
 73
    -8
  0
VERTEX
  5
1656
  8
0
 10
0.0
 20
0.0
 30
0.0
 70
   128
 71
     2
 72
     1
 73
    -8
  0
SEQEND
  5
19E9
  8
0
  0
POLYLINE
  5
1657
  8
0
 66
     1
 10
0.0
 20
0.0
 30
0.0
 70
    64
 71
     6
 72
     4
  0
VERTEX
  5
1658
  8
0
 10
141.9999999999995
 20
135.0000000000012
 30
-2.0
 70
   192
  0
VERTEX
  5
1659
  8
0
 10
141.9999999999993
 20
195.0000000000012
 30
-2.0
 70
   192
  0
VERTEX
  5
165A
  8
0
 10
141.9999999999993
 20
195.0000000000012
 30
-15.0
 70
   192
  0
VERTEX
  5
165B
  8
0
 10
141.9999999999994
 20
170.0000000000003
 30
-15.0
 70
   192
  0
VERTEX
  5
165C
  8
0
 10
141.9999999999993
 20
170.0000000000003
 30
-5.0
 70
   192
  0
VERTEX
  5
165D
  8
0
 10
141.9999999999995
 20
135.0000000000012
 30
-5.0
 70
   192
  0
VERTEX
  5
165E
  8
0
 10
0.0
 20
0.0
 30
0.0
 70
   128
 71
     3
 72
     4
 73
    -5
  0
VERTEX
  5
165F
  8
0
 10
0.0
 20
0.0
 30
0.0
 70
   128
 71
     2
 72
    -3
 73
    -5
  0
VERTEX
  5
1660
  8
0
 10
0.0
 20
0.0
 30
0.0
 70
   128
 71
     6
 72
     1
 73
    -2
  0
VERTEX
  5
1661
  8
0
 10
0.0
 20
0.0
 30
0.0
 70
   128
 71
     5
 72
    -6
 73
    -2
  0
SEQEND
  5
19EA
  8
0
  0
POLYLINE
  5
1662
  8
0
 66
     1
 10
0.0
 20
0.0
 30
0.0
 70
    64
 71
     4
 72
     2
  0
VERTEX
  5
1663
  8
0
 10
141.9999999999993
 20
195.0000000000012
 30
-2.0
 70
   192
  0
VERTEX
  5
1664
  8
0
 10
141.9999999999993
 20
195.0000000000013
 30
-15.0
 70
   192
  0
VERTEX
  5
1665
  8
0
 10
221.9999999999993
 20
195.0000000000015
 30
-15.0
 70
   192
  0
VERTEX
  5
1666
  8
0
 10
221.9999999999993
 20
195.0000000000015
 30
-2.0
 70
   192
  0
VERTEX
  5
1667
  8
0
 10
0.0
 20
0.0
 30
0.0
 70
   128
 71
     1
 72
     4
 73
    -3
  0
VERTEX
  5
1668
  8
0
 10
0.0
 20
0.0
 30
0.0
 70
   128
 71
    -1
 72
     3
 73
     2
  0
SEQEND
  5
19EB
  8
0
  0
POLYLINE
  5
1669
  8
0
 66
     1
 10
0.0
 20
0.0
 30
0.0
 70
    64
 71
     6
 72
     4
  0
VERTEX
  5
166A
  8
0
 10
221.9999999999993
 20
195.0000000000015
 30
-2.0
 70
   192
  0
VERTEX
  5
166B
  8
0
 10
221.9999999999993
 20
195.0000000000015
 30
-15.0
 70
   192
  0
VERTEX
  5
166C
  8
0
 10
221.9999999999994
 20
170.0
 30
-15.0
 70
   192
  0
VERTEX
  5
166D
  8
0
 10
221.9999999999994
 20
170.0000000000001
 30
-5.0
 70
   192
  0
VERTEX
  5
166E
  8
0
 10
221.9999999999995
 20
135.0000000000015
 30
-5.0
 70
   192
  0
VERTEX
  5
166F
  8
0
 10
221.9999999999995
 20
135.0000000000015
 30
-2.0
 70
   192
  0
VERTEX
  5
1670
  8
0
 10
0.0
 20
0.0
 30
0.0
 70
   128
 71
     4
 72
     3
 73
    -2
  0
VERTEX
  5
1671
  8
0
 10
0.0
 20
0.0
 30
0.0
 70
   128
 71
    -4
 72
     2
 73
    -1
  0
VERTEX
  5
1672
  8
0
 10
0.0
 20
0.0
 30
0.0
 70
   128
 71
     1
 72
     6
 73
    -5
  0
VERTEX
  5
1673
  8
0
 10
0.0
 20
0.0
 30
0.0
 70
   128
 71
    -1
 72
     5
 73
    -4
  0
SEQEND
  5
19EC
  8
0
  0
POLYLINE
  5
1674
  8
0
 66
     1
 10
0.0
 20
0.0
 30
0.0
 70
    64
 71
     4
 72
     2
  0
VERTEX
  5
1675
  8
0
 10
221.9999999999995
 20
135.0000000000015
 30
-2.0
 70
   192
  0
VERTEX
  5
1676
  8
0
 10
141.9999999999995
 20
135.0000000000012
 30
-2.0
 70
   192
  0
VERTEX
  5
1677
  8
0
 10
141.9999999999995
 20
135.0000000000012
 30
-5.0
 70
   192
  0
VERTEX
  5
1678
  8
0
 10
221.9999999999995
 20
135.0000000000015
 30
-5.0
 70
   192
  0
VERTEX
  5
1679
  8
0
 10
0.0
 20
0.0
 30
0.0
 70
   128
 71
     3
 72
     4
 73
    -1
  0
VERTEX
  5
167A
  8
0
 10
0.0
 20
0.0
 30
0.0
 70
   128
 71
     2
 72
    -3
 73
     1
  0
SEQEND
  5
19ED
  8
0
  0
POLYLINE
  5
167B
  8
0
 66
     1
 10
0.0
 20
0.0
 30
0.0
 70
    64
 71
     4
 72
     2
  0
VERTEX
  5
167C
  8
0
 10
141.9999999999993
 20
195.0000000000012
 30
-2.0
 70
   192
  0
VERTEX
  5
167D
  8
0
 10
141.9999999999995
 20
135.0000000000012
 30
-2.0
 70
   192
  0
VERTEX
  5
167E
  8
0
 10
221.9999999999995
 20
135.0000000000015
 30
-2.0
 70
   192
  0
VERTEX
  5
167F
  8
0
 10
221.9999999999993
 20
195.0000000000015
 30
-2.0
 70
   192
  0
VERTEX
  5
1680
  8
0
 10
0.0
 20
0.0
 30
0.0
 70
   128
 71
     3
 72
     4
 73
    -1
  0
VERTEX
  5
1681
  8
0
 10
0.0
 20
0.0
 30
0.0
 70
   128
 71
     2
 72
    -3
 73
     1
  0
SEQEND
  5
19EE
  8
0
  0
POLYLINE
  5
1682
  8
0
 66
     1
 10
0.0
 20
0.0
 30
0.0
 70
    64
 71
     4
 72
     2
  0
VERTEX
  5
1683
  8
0
 10
179.0000000000007
 20
189.9999999999999
 30
-15.0
 70
   192
  0
VERTEX
  5
1684
  8
0
 10
179.0000000000006
 20
170.0000000000003
 30
-15.0
 70
   192
  0
VERTEX
  5
1685
  8
0
 10
179.0000000000006
 20
170.0000000000003
 30
-12.0
 70
   192
  0
VERTEX
  5
1686
  8
0
 10
179.0000000000007
 20
189.9999999999999
 30
-12.0
 70
   192
  0
VERTEX
  5
1687
  8
0
 10
0.0
 20
0.0
 30
0.0
 70
   128
 71
     1
 72
     4
 73
    -3
  0
VERTEX
  5
1688
  8
0
 10
0.0
 20
0.0
 30
0.0
 70
   128
 71
    -1
 72
     3
 73
     2
  0
SEQEND
  5
19EF
  8
0
  0
POLYLINE
  5
1689
  8
0
 66
     1
 10
0.0
 20
0.0
 30
0.0
 70
    64
 71
     6
 72
     4
  0
VERTEX
  5
168A
  8
0
 10
179.0000000000006
 20
170.0000000000003
 30
-12.0
 70
   192
  0
VERTEX
  5
168B
  8
0
 10
179.0000000000006
 20
170.0000000000003
 30
-15.0
 70
   192
  0
VERTEX
  5
168C
  8
0
 10
141.9999999999993
 20
170.0000000000003
 30
-15.0
 70
   192
  0
VERTEX
  5
168D
  8
0
 10
141.9999999999993
 20
170.0000000000003
 30
-5.0
 70
   192
  0
VERTEX
  5
168E
  8
0
 10
144.9999999999993
 20
170.0000000000003
 30
-5.0
 70
   192
  0
VERTEX
  5
168F
  8
0
 10
144.9999999999993
 20
170.0000000000003
 30
-12.0
 70
   192
  0
VERTEX
  5
1690
  8
0
 10
0.0
 20
0.0
 30
0.0
 70
   128
 71
     6
 72
     5
 73
    -4
  0
VERTEX
  5
1691
  8
0
 10
0.0
 20
0.0
 30
0.0
 70
   128
 71
    -6
 72
     4
 73
    -3
  0
VERTEX
  5
1692
  8
0
 10
0.0
 20
0.0
 30
0.0
 70
   128
 71
     3
 72
     2
 73
    -1
  0
VERTEX
  5
1693
  8
0
 10
0.0
 20
0.0
 30
0.0
 70
   128
 71
    -3
 72
     1
 73
    -6
  0
SEQEND
  5
19F0
  8
0
  0
POLYLINE
  5
1694
  8
0
 66
     1
 10
0.0
 20
0.0
 30
0.0
 70
    64
 71
     6
 72
     4
  0
VERTEX
  5
1695
  8
0
 10
218.9999999999994
 20
170.0
 30
-5.0
 70
   192
  0
VERTEX
  5
1696
  8
0
 10
221.9999999999994
 20
170.0
 30
-5.0
 70
   192
  0
VERTEX
  5
1697
  8
0
 10
221.9999999999994
 20
170.0
 30
-15.0
 70
   192
  0
VERTEX
  5
1698
  8
0
 10
185.0000000000006
 20
170.0000000000002
 30
-15.0
 70
   192
  0
VERTEX
  5
1699
  8
0
 10
185.0000000000006
 20
170.0000000000002
 30
-12.0
 70
   192
  0
VERTEX
  5
169A
  8
0
 10
218.9999999999994
 20
170.0
 30
-12.0
 70
   192
  0
VERTEX
  5
169B
  8
0
 10
0.0
 20
0.0
 30
0.0
 70
   128
 71
     6
 72
     5
 73
    -4
  0
VERTEX
  5
169C
  8
0
 10
0.0
 20
0.0
 30
0.0
 70
   128
 71
    -6
 72
     4
 73
    -3
  0
VERTEX
  5
169D
  8
0
 10
0.0
 20
0.0
 30
0.0
 70
   128
 71
     3
 72
     2
 73
    -1
  0
VERTEX
  5
169E
  8
0
 10
0.0
 20
0.0
 30
0.0
 70
   128
 71
    -3
 72
     1
 73
    -6
  0
SEQEND
  5
19F1
  8
0
  0
POLYLINE
  5
169F
  8
0
 66
     1
 10
0.0
 20
0.0
 30
0.0
 70
    64
 71
     4
 72
     2
  0
VERTEX
  5
16A0
  8
0
 10
185.0000000000006
 20
170.0000000000002
 30
-15.0
 70
   192
  0
VERTEX
  5
16A1
  8
0
 10
185.0000000000006
 20
190.0
 30
-15.0
 70
   192
  0
VERTEX
  5
16A2
  8
0
 10
185.0000000000006
 20
190.0
 30
-12.0
 70
   192
  0
VERTEX
  5
16A3
  8
0
 10
185.0000000000006
 20
170.0000000000002
 30
-12.0
 70
   192
  0
VERTEX
  5
16A4
  8
0
 10
0.0
 20
0.0
 30
0.0
 70
   128
 71
     1
 72
     4
 73
    -3
  0
VERTEX
  5
16A5
  8
0
 10
0.0
 20
0.0
 30
0.0
 70
   128
 71
    -1
 72
     3
 73
     2
  0
SEQEND
  5
19F2
  8
0
  0
POLYLINE
  5
16A6
  8
0
 66
     1
 10
0.0
 20
0.0
 30
0.0
 70
    64
 71
     4
 72
     2
  0
VERTEX
  5
16A7
  8
0
 10
185.0000000000006
 20
190.0
 30
-15.0
 70
   192
  0
VERTEX
  5
16A8
  8
0
 10
179.0000000000007
 20
189.9999999999999
 30
-15.0
 70
   192
  0
VERTEX
  5
16A9
  8
0
 10
179.0000000000007
 20
189.9999999999999
 30
-12.0
 70
   192
  0
VERTEX
  5
16AA
  8
0
 10
185.0000000000006
 20
190.0
 30
-12.0
 70
   192
  0
VERTEX
  5
16AB
  8
0
 10
0.0
 20
0.0
 30
0.0
 70
   128
 71
     1
 72
     4
 73
    -3
  0
VERTEX
  5
16AC
  8
0
 10
0.0
 20
0.0
 30
0.0
 70
   128
 71
    -1
 72
     3
 73
     2
  0
SEQEND
  5
19F3
  8
0
  0
POLYLINE
  5
16AD
  8
0
 66
     1
 10
0.0
 20
0.0
 30
0.0
 70
    64
 71
     8
 72
     6
  0
VERTEX
  5
16AE
  8
0
 10
179.0000000000007
 20
189.9999999999999
 30
-15.0
 70
   192
  0
VERTEX
  5
16AF
  8
0
 10
179.0000000000006
 20
170.0000000000003
 30
-15.0
 70
   192
  0
VERTEX
  5
16B0
  8
0
 10
141.9999999999993
 20
170.0000000000003
 30
-15.0
 70
   192
  0
VERTEX
  5
16B1
  8
0
 10
141.9999999999993
 20
195.0000000000012
 30
-15.0
 70
   192
  0
VERTEX
  5
16B2
  8
0
 10
221.9999999999993
 20
195.0000000000015
 30
-15.0
 70
   192
  0
VERTEX
  5
16B3
  8
0
 10
221.9999999999994
 20
170.0
 30
-15.0
 70
   192
  0
VERTEX
  5
16B4
  8
0
 10
185.0000000000006
 20
170.0000000000002
 30
-15.0
 70
   192
  0
VERTEX
  5
16B5
  8
0
 10
185.0000000000006
 20
190.0
 30
-15.0
 70
   192
  0
VERTEX
  5
16B6
  8
0
 10
0.0
 20
0.0
 30
0.0
 70
   128
 71
     6
 72
     7
 73
    -8
  0
VERTEX
  5
16B7
  8
0
 10
0.0
 20
0.0
 30
0.0
 70
   128
 71
     5
 72
    -6
 73
    -8
  0
VERTEX
  5
16B8
  8
0
 10
0.0
 20
0.0
 30
0.0
 70
   128
 71
    -1
 72
     4
 73
    -5
  0
VERTEX
  5
16B9
  8
0
 10
0.0
 20
0.0
 30
0.0
 70
   128
 71
     8
 72
    -1
 73
    -5
  0
VERTEX
  5
16BA
  8
0
 10
0.0
 20
0.0
 30
0.0
 70
   128
 71
     2
 72
     3
 73
    -4
  0
VERTEX
  5
16BB
  8
0
 10
0.0
 20
0.0
 30
0.0
 70
   128
 71
     1
 72
    -2
 73
    -4
  0
SEQEND
  5
19F4
  8
0
  0
POLYLINE
  5
16BC
  8
0
 66
     1
 10
0.0
 20
0.0
 30
0.0
 70
    64
 71
     4
 72
     2
  0
VERTEX
  5
16BD
  8
0
 10
144.9999999999994
 20
170.0000000000003
 30
-5.0
 70
   192
  0
VERTEX
  5
16BE
  8
0
 10
144.9999999999993
 20
192.0000000000012
 30
-5.0
 70
   192
  0
VERTEX
  5
16BF
  8
0
 10
144.9999999999993
 20
192.0000000000012
 30
-12.0
 70
   192
  0
VERTEX
  5
16C0
  8
0
 10
144.9999999999993
 20
170.0000000000003
 30
-12.0
 70
   192
  0
VERTEX
  5
16C1
  8
0
 10
0.0
 20
0.0
 30
0.0
 70
   128
 71
     1
 72
     4
 73
    -3
  0
VERTEX
  5
16C2
  8
0
 10
0.0
 20
0.0
 30
0.0
 70
   128
 71
    -1
 72
     3
 73
     2
  0
SEQEND
  5
19F5
  8
0
  0
POLYLINE
  5
16C3
  8
0
 66
     1
 10
0.0
 20
0.0
 30
0.0
 70
    64
 71
     4
 72
     2
  0
VERTEX
  5
16C4
  8
0
 10
218.9999999999993
 20
192.0000000000014
 30
-5.0
 70
   192
  0
VERTEX
  5
16C5
  8
0
 10
144.9999999999993
 20
192.0000000000012
 30
-5.0
 70
   192
  0
VERTEX
  5
16C6
  8
0
 10
144.9999999999993
 20
192.0000000000012
 30
-12.0
 70
   192
  0
VERTEX
  5
16C7
  8
0
 10
218.9999999999993
 20
192.0000000000014
 30
-12.0
 70
   192
  0
VERTEX
  5
16C8
  8
0
 10
0.0
 20
0.0
 30
0.0
 70
   128
 71
     3
 72
     4
 73
    -1
  0
VERTEX
  5
16C9
  8
0
 10
0.0
 20
0.0
 30
0.0
 70
   128
 71
     2
 72
    -3
 73
     1
  0
SEQEND
  5
19F6
  8
0
  0
POLYLINE
  5
16CA
  8
0
 66
     1
 10
0.0
 20
0.0
 30
0.0
 70
    64
 71
     4
 72
     2
  0
VERTEX
  5
16CB
  8
0
 10
218.9999999999994
 20
170.0
 30
-5.0
 70
   192
  0
VERTEX
  5
16CC
  8
0
 10
218.9999999999993
 20
192.0000000000015
 30
-5.0
 70
   192
  0
VERTEX
  5
16CD
  8
0
 10
218.9999999999993
 20
192.0000000000015
 30
-12.0
 70
   192
  0
VERTEX
  5
16CE
  8
0
 10
218.9999999999994
 20
170.0
 30
-12.0
 70
   192
  0
VERTEX
  5
16CF
  8
0
 10
0.0
 20
0.0
 30
0.0
 70
   128
 71
     3
 72
     4
 73
    -1
  0
VERTEX
  5
16D0
  8
0
 10
0.0
 20
0.0
 30
0.0
 70
   128
 71
     2
 72
    -3
 73
     1
  0
SEQEND
  5
19F7
  8
0
  0
POLYLINE
  5
16D1
  8
0
 66
     1
 10
0.0
 20
0.0
 30
0.0
 70
    64
 71
     8
 72
     6
  0
VERTEX
  5
16D2
  8
0
 10
179.0000000000006
 20
170.0000000000003
 30
-12.0
 70
   192
  0
VERTEX
  5
16D3
  8
0
 10
144.9999999999993
 20
170.0000000000003
 30
-12.0
 70
   192
  0
VERTEX
  5
16D4
  8
0
 10
144.9999999999993
 20
192.0000000000012
 30
-12.0
 70
   192
  0
VERTEX
  5
16D5
  8
0
 10
218.9999999999993
 20
192.0000000000015
 30
-12.0
 70
   192
  0
VERTEX
  5
16D6
  8
0
 10
218.9999999999994
 20
170.0
 30
-12.0
 70
   192
  0
VERTEX
  5
16D7
  8
0
 10
185.0000000000006
 20
170.0000000000002
 30
-12.0
 70
   192
  0
VERTEX
  5
16D8
  8
0
 10
185.0000000000006
 20
190.0
 30
-12.0
 70
   192
  0
VERTEX
  5
16D9
  8
0
 10
179.0000000000007
 20
189.9999999999999
 30
-12.0
 70
   192
  0
VERTEX
  5
16DA
  8
0
 10
0.0
 20
0.0
 30
0.0
 70
   128
 71
     7
 72
     6
 73
    -5
  0
VERTEX
  5
16DB
  8
0
 10
0.0
 20
0.0
 30
0.0
 70
   128
 71
    -7
 72
     5
 73
    -4
  0
VERTEX
  5
16DC
  8
0
 10
0.0
 20
0.0
 30
0.0
 70
   128
 71
    -4
 72
     8
 73
    -7
  0
VERTEX
  5
16DD
  8
0
 10
0.0
 20
0.0
 30
0.0
 70
   128
 71
     4
 72
    -3
 73
    -8
  0
VERTEX
  5
16DE
  8
0
 10
0.0
 20
0.0
 30
0.0
 70
   128
 71
     3
 72
     2
 73
    -1
  0
VERTEX
  5
16DF
  8
0
 10
0.0
 20
0.0
 30
0.0
 70
   128
 71
    -3
 72
     1
 73
    -8
  0
SEQEND
  5
19F8
  8
0
  0
ENDBLK
  5
19E8
  8
0
  0
BLOCK
  8
0
  2
*X4
 70
     1
 10
0.0
 20
0.0
 30
0.0
  3
*X4
  1

  0
POLYLINE
  5
16E1
  8
0
 66
     1
 10
0.0
 20
0.0
 30
0.0
 70
    64
 71
    10
 72
     8
  0
VERTEX
  5
16E2
  8
0
 10
304.9999999999999
 20
-73.49999999999997
 30
-7.0
 70
   192
  0
VERTEX
  5
16E3
  8
0
 10
304.9999999999999
 20
-66.5
 30
-7.0
 70
   192
  0
VERTEX
  5
16E4
  8
0
 10
299.9999999999999
 20
-66.49999999999999
 30
-7.0
 70
   192
  0
VERTEX
  5
16E5
  8
0
 10
299.9999999999999
 20
-73.49999999999997
 30
-7.0
 70
   192
  0
VERTEX
  5
16E6
  8
0
 10
299.9999999999999
 20
-69.99999999999999
 30
-3.50000000000001
 70
   192
  0
VERTEX
  5
16E7
  8
0
 10
304.9999999999999
 20
-69.99999999999999
 30
-3.50000000000001
 70
   192
  0
VERTEX
  5
16E8
  8
0
 10
299.9999999999999
 20
-72.4748737341529
 30
-4.525126265847091
 70
   192
  0
VERTEX
  5
16E9
  8
0
 10
304.9999999999999
 20
-72.4748737341529
 30
-4.525126265847091
 70
   192
  0
VERTEX
  5
16EA
  8
0
 10
299.9999999999999
 20
-67.52512626584708
 30
-4.52512626584709
 70
   192
  0
VERTEX
  5
16EB
  8
0
 10
304.9999999999999
 20
-67.52512626584708
 30
-4.52512626584709
 70
   192
  0
VERTEX
  5
16EC
  8
0
 10
0.0
 20
0.0
 30
0.0
 70
   128
 71
     7
 72
     4
 73
    -1
  0
VERTEX
  5
16ED
  8
0
 10
0.0
 20
0.0
 30
0.0
 70
   128
 71
    -7
 72
     1
 73
     8
  0
VERTEX
  5
16EE
  8
0
 10
0.0
 20
0.0
 30
0.0
 70
   128
 71
     6
 72
     5
 73
    -7
  0
VERTEX
  5
16EF
  8
0
 10
0.0
 20
0.0
 30
0.0
 70
   128
 71
    -6
 72
     7
 73
     8
  0
VERTEX
  5
16F0
  8
0
 10
0.0
 20
0.0
 30
0.0
 70
   128
 71
    10
 72
     9
 73
    -5
  0
VERTEX
  5
16F1
  8
0
 10
0.0
 20
0.0
 30
0.0
 70
   128
 71
   -10
 72
     5
 73
     6
  0
VERTEX
  5
16F2
  8
0
 10
0.0
 20
0.0
 30
0.0
 70
   128
 71
     2
 72
     3
 73
    -9
  0
VERTEX
  5
16F3
  8
0
 10
0.0
 20
0.0
 30
0.0
 70
   128
 71
    -2
 72
     9
 73
    10
  0
SEQEND
  5
19FB
  8
0
  0
POLYLINE
  5
16F4
  8
0
 66
     1
 10
0.0
 20
0.0
 30
0.0
 70
    64
 71
     8
 72
     6
  0
VERTEX
  5
16F5
  8
0
 10
295.0
 20
-198.6602540378444
 30
-2.0
 70
   192
  0
VERTEX
  5
16F6
  8
0
 10
295.0
 20
-198.6602540378444
 30
-12.0
 70
   192
  0
VERTEX
  5
16F7
  8
0
 10
298.6602540378444
 20
-195.0
 30
-12.0
 70
   192
  0
VERTEX
  5
16F8
  8
0
 10
298.6602540378444
 20
-195.0
 30
-2.0
 70
   192
  0
VERTEX
  5
16F9
  8
0
 10
290.0
 20
-200.0
 30
-2.0
 70
   192
  0
VERTEX
  5
16FA
  8
0
 10
290.0
 20
-199.9999999999999
 30
-12.0
 70
   192
  0
VERTEX
  5
16FB
  8
0
 10
300.0000000000001
 20
-189.9999999999999
 30
-12.0
 70
   192
  0
VERTEX
  5
16FC
  8
0
 10
300.0000000000001
 20
-189.9999999999999
 30
-2.0
 70
   192
  0
VERTEX
  5
16FD
  8
0
 10
0.0
 20
0.0
 30
0.0
 70
   128
 71
     1
 72
     2
 73
    -3
  0
VERTEX
  5
16FE
  8
0
 10
0.0
 20
0.0
 30
0.0
 70
   128
 71
    -1
 72
     3
 73
     4
  0
VERTEX
  5
16FF
  8
0
 10
0.0
 20
0.0
 30
0.0
 70
   128
 71
     5
 72
     6
 73
    -2
  0
VERTEX
  5
1700
  8
0
 10
0.0
 20
0.0
 30
0.0
 70
   128
 71
    -5
 72
     2
 73
     1
  0
VERTEX
  5
1701
  8
0
 10
0.0
 20
0.0
 30
0.0
 70
   128
 71
     4
 72
     3
 73
    -7
  0
VERTEX
  5
1702
  8
0
 10
0.0
 20
0.0
 30
0.0
 70
   128
 71
    -4
 72
     7
 73
     8
  0
SEQEND
  5
19FC
  8
0
  0
POLYLINE
  5
1703
  8
0
 66
     1
 10
0.0
 20
0.0
 30
0.0
 70
    64
 71
     4
 72
     2
  0
VERTEX
  5
1704
  8
0
 10
290.0
 20
-199.9999999999999
 30
-2.0
 70
   192
  0
VERTEX
  5
1705
  8
0
 10
290.0
 20
-199.9999999999999
 30
-12.0
 70
   192
  0
VERTEX
  5
1706
  8
0
 10
110.0
 20
-199.9999999999999
 30
-12.0
 70
   192
  0
VERTEX
  5
1707
  8
0
 10
110.0
 20
-199.9999999999999
 30
-2.0
 70
   192
  0
VERTEX
  5
1708
  8
0
 10
0.0
 20
0.0
 30
0.0
 70
   128
 71
     1
 72
     4
 73
    -3
  0
VERTEX
  5
1709
  8
0
 10
0.0
 20
0.0
 30
0.0
 70
   128
 71
    -1
 72
     3
 73
     2
  0
SEQEND
  5
19FD
  8
0
  0
POLYLINE
  5
170A
  8
0
 66
     1
 10
0.0
 20
0.0
 30
0.0
 70
    64
 71
     8
 72
     6
  0
VERTEX
  5
170B
  8
0
 10
101.3397459621556
 20
-194.9999999999999
 30
-2.0
 70
   192
  0
VERTEX
  5
170C
  8
0
 10
101.3397459621556
 20
-194.9999999999999
 30
-12.0
 70
   192
  0
VERTEX
  5
170D
  8
0
 10
105.0
 20
-198.6602540378443
 30
-12.0
 70
   192
  0
VERTEX
  5
170E
  8
0
 10
105.0
 20
-198.6602540378443
 30
-2.0
 70
   192
  0
VERTEX
  5
170F
  8
0
 10
100.0
 20
-189.9999999999999
 30
-2.0
 70
   192
  0
VERTEX
  5
1710
  8
0
 10
100.0
 20
-189.9999999999999
 30
-12.0
 70
   192
  0
VERTEX
  5
1711
  8
0
 10
110.0
 20
-199.9999999999999
 30
-12.0
 70
   192
  0
VERTEX
  5
1712
  8
0
 10
110.0
 20
-199.9999999999999
 30
-2.0
 70
   192
  0
VERTEX
  5
1713
  8
0
 10
0.0
 20
0.0
 30
0.0
 70
   128
 71
     1
 72
     2
 73
    -3
  0
VERTEX
  5
1714
  8
0
 10
0.0
 20
0.0
 30
0.0
 70
   128
 71
    -1
 72
     3
 73
     4
  0
VERTEX
  5
1715
  8
0
 10
0.0
 20
0.0
 30
0.0
 70
   128
 71
     5
 72
     6
 73
    -2
  0
VERTEX
  5
1716
  8
0
 10
0.0
 20
0.0
 30
0.0
 70
   128
 71
    -5
 72
     2
 73
     1
  0
VERTEX
  5
1717
  8
0
 10
0.0
 20
0.0
 30
0.0
 70
   128
 71
     4
 72
     3
 73
    -7
  0
VERTEX
  5
1718
  8
0
 10
0.0
 20
0.0
 30
0.0
 70
   128
 71
    -4
 72
     7
 73
     8
  0
SEQEND
  5
19FE
  8
0
  0
POLYLINE
  5
1719
  8
0
 66
     1
 10
0.0
 20
0.0
 30
0.0
 70
    64
 71
     4
 72
     2
  0
VERTEX
  5
171A
  8
0
 10
100.0
 20
-189.9999999999999
 30
-2.0
 70
   192
  0
VERTEX
  5
171B
  8
0
 10
100.0
 20
-189.9999999999999
 30
-12.0
 70
   192
  0
VERTEX
  5
171C
  8
0
 10
100.0
 20
-29.99999999999996
 30
-12.0
 70
   192
  0
VERTEX
  5
171D
  8
0
 10
100.0
 20
-29.99999999999996
 30
-2.0
 70
   192
  0
VERTEX
  5
171E
  8
0
 10
0.0
 20
0.0
 30
0.0
 70
   128
 71
     1
 72
     4
 73
    -3
  0
VERTEX
  5
171F
  8
0
 10
0.0
 20
0.0
 30
0.0
 70
   128
 71
    -1
 72
     3
 73
     2
  0
SEQEND
  5
19FF
  8
0
  0
POLYLINE
  5
1720
  8
0
 66
     1
 10
0.0
 20
0.0
 30
0.0
 70
    64
 71
     8
 72
     6
  0
VERTEX
  5
1721
  8
0
 10
105.0
 20
-21.33974596215559
 30
-2.0
 70
   192
  0
VERTEX
  5
1722
  8
0
 10
105.0
 20
-21.33974596215559
 30
-12.0
 70
   192
  0
VERTEX
  5
1723
  8
0
 10
101.3397459621556
 20
-24.99999999999997
 30
-12.0
 70
   192
  0
VERTEX
  5
1724
  8
0
 10
101.3397459621556
 20
-24.99999999999997
 30
-2.0
 70
   192
  0
VERTEX
  5
1725
  8
0
 10
110.0
 20
-19.99999999999997
 30
-2.0
 70
   192
  0
VERTEX
  5
1726
  8
0
 10
110.0
 20
-19.99999999999996
 30
-12.0
 70
   192
  0
VERTEX
  5
1727
  8
0
 10
100.0
 20
-29.99999999999996
 30
-12.0
 70
   192
  0
VERTEX
  5
1728
  8
0
 10
100.0
 20
-29.99999999999996
 30
-2.0
 70
   192
  0
VERTEX
  5
1729
  8
0
 10
0.0
 20
0.0
 30
0.0
 70
   128
 71
     1
 72
     2
 73
    -3
  0
VERTEX
  5
172A
  8
0
 10
0.0
 20
0.0
 30
0.0
 70
   128
 71
    -1
 72
     3
 73
     4
  0
VERTEX
  5
172B
  8
0
 10
0.0
 20
0.0
 30
0.0
 70
   128
 71
     5
 72
     6
 73
    -2
  0
VERTEX
  5
172C
  8
0
 10
0.0
 20
0.0
 30
0.0
 70
   128
 71
    -5
 72
     2
 73
     1
  0
VERTEX
  5
172D
  8
0
 10
0.0
 20
0.0
 30
0.0
 70
   128
 71
     4
 72
     3
 73
    -7
  0
VERTEX
  5
172E
  8
0
 10
0.0
 20
0.0
 30
0.0
 70
   128
 71
    -4
 72
     7
 73
     8
  0
SEQEND
  5
1A00
  8
0
  0
POLYLINE
  5
172F
  8
0
 66
     1
 10
0.0
 20
0.0
 30
0.0
 70
    64
 71
     4
 72
     2
  0
VERTEX
  5
1730
  8
0
 10
110.0
 20
-19.99999999999996
 30
-2.0
 70
   192
  0
VERTEX
  5
1731
  8
0
 10
110.0
 20
-19.99999999999996
 30
-12.0
 70
   192
  0
VERTEX
  5
1732
  8
0
 10
290.0000000000001
 20
-19.99999999999996
 30
-12.0
 70
   192
  0
VERTEX
  5
1733
  8
0
 10
290.0000000000001
 20
-19.99999999999997
 30
-2.0
 70
   192
  0
VERTEX
  5
1734
  8
0
 10
0.0
 20
0.0
 30
0.0
 70
   128
 71
     1
 72
     4
 73
    -3
  0
VERTEX
  5
1735
  8
0
 10
0.0
 20
0.0
 30
0.0
 70
   128
 71
    -1
 72
     3
 73
     2
  0
SEQEND
  5
1A01
  8
0
  0
POLYLINE
  5
1736
  8
0
 66
     1
 10
0.0
 20
0.0
 30
0.0
 70
    64
 71
     8
 72
     6
  0
VERTEX
  5
1737
  8
0
 10
298.6602540378444
 20
-24.99999999999996
 30
-2.0
 70
   192
  0
VERTEX
  5
1738
  8
0
 10
298.6602540378444
 20
-24.99999999999996
 30
-12.0
 70
   192
  0
VERTEX
  5
1739
  8
0
 10
295.0000000000001
 20
-21.33974596215557
 30
-12.0
 70
   192
  0
VERTEX
  5
173A
  8
0
 10
295.0000000000001
 20
-21.33974596215557
 30
-2.0
 70
   192
  0
VERTEX
  5
173B
  8
0
 10
300.0000000000001
 20
-29.99999999999997
 30
-2.0
 70
   192
  0
VERTEX
  5
173C
  8
0
 10
300.0000000000001
 20
-29.99999999999997
 30
-12.0
 70
   192
  0
VERTEX
  5
173D
  8
0
 10
290.0000000000001
 20
-19.99999999999996
 30
-12.0
 70
   192
  0
VERTEX
  5
173E
  8
0
 10
290.0000000000001
 20
-19.99999999999996
 30
-2.0
 70
   192
  0
VERTEX
  5
173F
  8
0
 10
0.0
 20
0.0
 30
0.0
 70
   128
 71
     1
 72
     2
 73
    -3
  0
VERTEX
  5
1740
  8
0
 10
0.0
 20
0.0
 30
0.0
 70
   128
 71
    -1
 72
     3
 73
     4
  0
VERTEX
  5
1741
  8
0
 10
0.0
 20
0.0
 30
0.0
 70
   128
 71
     5
 72
     6
 73
    -2
  0
VERTEX
  5
1742
  8
0
 10
0.0
 20
0.0
 30
0.0
 70
   128
 71
    -5
 72
     2
 73
     1
  0
VERTEX
  5
1743
  8
0
 10
0.0
 20
0.0
 30
0.0
 70
   128
 71
     4
 72
     3
 73
    -7
  0
VERTEX
  5
1744
  8
0
 10
0.0
 20
0.0
 30
0.0
 70
   128
 71
    -4
 72
     7
 73
     8
  0
SEQEND
  5
1A02
  8
0
  0
POLYLINE
  5
1745
  8
0
 66
     1
 10
0.0
 20
0.0
 30
0.0
 70
    64
 71
    12
 72
    12
  0
VERTEX
  5
1746
  8
0
 10
300.0000000000001
 20
-29.99999999999997
 30
-2.0
 70
   192
  0
VERTEX
  5
1747
  8
0
 10
300.0000000000001
 20
-29.99999999999997
 30
-12.0
 70
   192
  0
VERTEX
  5
1748
  8
0
 10
300.0000000000001
 20
-189.9999999999999
 30
-12.0
 70
   192
  0
VERTEX
  5
1749
  8
0
 10
300.0000000000001
 20
-189.9999999999999
 30
-2.0
 70
   192
  0
VERTEX
  5
174A
  8
0
 10
299.9999999999999
 20
-73.49999999999997
 30
-7.0
 70
   192
  0
VERTEX
  5
174B
  8
0
 10
299.9999999999999
 20
-72.4748737341529
 30
-9.47487373415291
 70
   192
  0
VERTEX
  5
174C
  8
0
 10
299.9999999999999
 20
-69.99999999999999
 30
-10.49999999999999
 70
   192
  0
VERTEX
  5
174D
  8
0
 10
299.9999999999999
 20
-67.52512626584708
 30
-9.474873734152908
 70
   192
  0
VERTEX
  5
174E
  8
0
 10
299.9999999999999
 20
-66.5
 30
-7.0
 70
   192
  0
VERTEX
  5
174F
  8
0
 10
299.9999999999999
 20
-67.52512626584708
 30
-4.52512626584709
 70
   192
  0
VERTEX
  5
1750
  8
0
 10
299.9999999999999
 20
-69.99999999999999
 30
-3.50000000000001
 70
   192
  0
VERTEX
  5
1751
  8
0
 10
299.9999999999999
 20
-72.4748737341529
 30
-4.525126265847091
 70
   192
  0
VERTEX
  5
1752
  8
0
 10
0.0
 20
0.0
 30
0.0
 70
   128
 71
     6
 72
    -5
 73
    -3
  0
VERTEX
  5
1753
  8
0
 10
0.0
 20
0.0
 30
0.0
 70
   128
 71
    -3
 72
     7
 73
    -6
  0
VERTEX
  5
1754
  8
0
 10
0.0
 20
0.0
 30
0.0
 70
   128
 71
     3
 72
    -2
 73
    -7
  0
VERTEX
  5
1755
  8
0
 10
0.0
 20
0.0
 30
0.0
 70
   128
 71
    -2
 72
     8
 73
    -7
  0
VERTEX
  5
1756
  8
0
 10
0.0
 20
0.0
 30
0.0
 70
   128
 71
     2
 72
    -1
 73
    -9
  0
VERTEX
  5
1757
  8
0
 10
0.0
 20
0.0
 30
0.0
 70
   128
 71
    -2
 72
     9
 73
    -8
  0
VERTEX
  5
1758
  8
0
 10
0.0
 20
0.0
 30
0.0
 70
   128
 71
    -1
 72
    10
 73
    -9
  0
VERTEX
  5
1759
  8
0
 10
0.0
 20
0.0
 30
0.0
 70
   128
 71
    -1
 72
    11
 73
   -10
  0
VERTEX
  5
175A
  8
0
 10
0.0
 20
0.0
 30
0.0
 70
   128
 71
   -11
 72
     1
 73
    -4
  0
VERTEX
  5
175B
  8
0
 10
0.0
 20
0.0
 30
0.0
 70
   128
 71
    -4
 72
    12
 73
   -11
  0
VERTEX
  5
175C
  8
0
 10
0.0
 20
0.0
 30
0.0
 70
   128
 71
     4
 72
    -3
 73
    -5
  0
VERTEX
  5
175D
  8
0
 10
0.0
 20
0.0
 30
0.0
 70
   128
 71
    -4
 72
     5
 73
   -12
  0
SEQEND
  5
1A03
  8
0
  0
POLYLINE
  5
175E
  8
0
 66
     1
 10
0.0
 20
0.0
 30
0.0
 70
    64
 71
    16
 72
    14
  0
VERTEX
  5
175F
  8
0
 10
300.0000000000001
 20
-189.9999999999999
 30
-12.0
 70
   192
  0
VERTEX
  5
1760
  8
0
 10
298.6602540378444
 20
-195.0
 30
-12.0
 70
   192
  0
VERTEX
  5
1761
  8
0
 10
295.0
 20
-198.6602540378444
 30
-12.0
 70
   192
  0
VERTEX
  5
1762
  8
0
 10
290.0
 20
-200.0
 30
-12.0
 70
   192
  0
VERTEX
  5
1763
  8
0
 10
110.0
 20
-199.9999999999999
 30
-12.0
 70
   192
  0
VERTEX
  5
1764
  8
0
 10
105.0
 20
-198.6602540378443
 30
-12.0
 70
   192
  0
VERTEX
  5
1765
  8
0
 10
101.3397459621556
 20
-194.9999999999999
 30
-12.0
 70
   192
  0
VERTEX
  5
1766
  8
0
 10
100.0
 20
-189.9999999999999
 30
-12.0
 70
   192
  0
VERTEX
  5
1767
  8
0
 10
100.0
 20
-29.99999999999996
 30
-12.0
 70
   192
  0
VERTEX
  5
1768
  8
0
 10
101.3397459621556
 20
-24.99999999999997
 30
-12.0
 70
   192
  0
VERTEX
  5
1769
  8
0
 10
105.0
 20
-21.33974596215559
 30
-12.0
 70
   192
  0
VERTEX
  5
176A
  8
0
 10
110.0
 20
-19.99999999999997
 30
-12.0
 70
   192
  0
VERTEX
  5
176B
  8
0
 10
290.0000000000001
 20
-19.99999999999997
 30
-12.0
 70
   192
  0
VERTEX
  5
176C
  8
0
 10
295.0000000000001
 20
-21.33974596215557
 30
-12.0
 70
   192
  0
VERTEX
  5
176D
  8
0
 10
298.6602540378444
 20
-24.99999999999996
 30
-12.0
 70
   192
  0
VERTEX
  5
176E
  8
0
 10
300.0000000000001
 20
-29.99999999999997
 30
-12.0
 70
   192
  0
VERTEX
  5
176F
  8
0
 10
0.0
 20
0.0
 30
0.0
 70
   128
 71
    15
 72
    16
 73
    -1
  0
VERTEX
  5
1770
  8
0
 10
0.0
 20
0.0
 30
0.0
 70
   128
 71
    14
 72
   -15
 73
    -1
  0
VERTEX
  5
1771
  8
0
 10
0.0
 20
0.0
 30
0.0
 70
   128
 71
    13
 72
   -14
 73
    -1
  0
VERTEX
  5
1772
  8
0
 10
0.0
 20
0.0
 30
0.0
 70
   128
 71
    12
 72
   -13
 73
    -1
  0
VERTEX
  5
1773
  8
0
 10
0.0
 20
0.0
 30
0.0
 70
   128
 71
    11
 72
   -12
 73
    -1
  0
VERTEX
  5
1774
  8
0
 10
0.0
 20
0.0
 30
0.0
 70
   128
 71
    10
 72
   -11
 73
    -1
  0
VERTEX
  5
1775
  8
0
 10
0.0
 20
0.0
 30
0.0
 70
   128
 71
     9
 72
   -10
 73
    -1
  0
VERTEX
  5
1776
  8
0
 10
0.0
 20
0.0
 30
0.0
 70
   128
 71
     8
 72
    -9
 73
    -1
  0
VERTEX
  5
1777
  8
0
 10
0.0
 20
0.0
 30
0.0
 70
   128
 71
     7
 72
    -8
 73
    -1
  0
VERTEX
  5
1778
  8
0
 10
0.0
 20
0.0
 30
0.0
 70
   128
 71
     6
 72
    -7
 73
    -1
  0
VERTEX
  5
1779
  8
0
 10
0.0
 20
0.0
 30
0.0
 70
   128
 71
     5
 72
    -6
 73
    -1
  0
VERTEX
  5
177A
  8
0
 10
0.0
 20
0.0
 30
0.0
 70
   128
 71
     4
 72
    -5
 73
    -1
  0
VERTEX
  5
177B
  8
0
 10
0.0
 20
0.0
 30
0.0
 70
   128
 71
     3
 72
    -4
 73
    -1
  0
VERTEX
  5
177C
  8
0
 10
0.0
 20
0.0
 30
0.0
 70
   128
 71
     2
 72
    -3
 73
     1
  0
SEQEND
  5
1A04
  8
0
  0
POLYLINE
  5
177D
  8
0
 66
     1
 10
0.0
 20
0.0
 30
0.0
 70
    64
 71
    16
 72
    14
  0
VERTEX
  5
177E
  8
0
 10
290.0
 20
-199.9999999999999
 30
-2.0
 70
   192
  0
VERTEX
  5
177F
  8
0
 10
110.0
 20
-199.9999999999999
 30
-2.0
 70
   192
  0
VERTEX
  5
1780
  8
0
 10
105.0
 20
-198.6602540378443
 30
-2.0
 70
   192
  0
VERTEX
  5
1781
  8
0
 10
101.3397459621556
 20
-194.9999999999999
 30
-2.0
 70
   192
  0
VERTEX
  5
1782
  8
0
 10
100.0
 20
-189.9999999999999
 30
-2.0
 70
   192
  0
VERTEX
  5
1783
  8
0
 10
100.0
 20
-29.99999999999996
 30
-2.0
 70
   192
  0
VERTEX
  5
1784
  8
0
 10
101.3397459621556
 20
-24.99999999999997
 30
-2.0
 70
   192
  0
VERTEX
  5
1785
  8
0
 10
105.0
 20
-21.33974596215559
 30
-2.0
 70
   192
  0
VERTEX
  5
1786
  8
0
 10
110.0
 20
-19.99999999999996
 30
-2.0
 70
   192
  0
VERTEX
  5
1787
  8
0
 10
290.0000000000001
 20
-19.99999999999996
 30
-2.0
 70
   192
  0
VERTEX
  5
1788
  8
0
 10
295.0000000000001
 20
-21.33974596215557
 30
-2.0
 70
   192
  0
VERTEX
  5
1789
  8
0
 10
298.6602540378444
 20
-24.99999999999996
 30
-2.0
 70
   192
  0
VERTEX
  5
178A
  8
0
 10
300.0000000000001
 20
-29.99999999999997
 30
-2.0
 70
   192
  0
VERTEX
  5
178B
  8
0
 10
300.0000000000001
 20
-189.9999999999999
 30
-2.0
 70
   192
  0
VERTEX
  5
178C
  8
0
 10
298.6602540378444
 20
-195.0
 30
-2.0
 70
   192
  0
VERTEX
  5
178D
  8
0
 10
295.0
 20
-198.6602540378444
 30
-2.0
 70
   192
  0
VERTEX
  5
178E
  8
0
 10
0.0
 20
0.0
 30
0.0
 70
   128
 71
     1
 72
    16
 73
   -15
  0
VERTEX
  5
178F
  8
0
 10
0.0
 20
0.0
 30
0.0
 70
   128
 71
    -1
 72
    15
 73
   -14
  0
VERTEX
  5
1790
  8
0
 10
0.0
 20
0.0
 30
0.0
 70
   128
 71
    -1
 72
    14
 73
   -13
  0
VERTEX
  5
1791
  8
0
 10
0.0
 20
0.0
 30
0.0
 70
   128
 71
    -1
 72
    13
 73
   -12
  0
VERTEX
  5
1792
  8
0
 10
0.0
 20
0.0
 30
0.0
 70
   128
 71
    -1
 72
    12
 73
   -11
  0
VERTEX
  5
1793
  8
0
 10
0.0
 20
0.0
 30
0.0
 70
   128
 71
    -1
 72
    11
 73
   -10
  0
VERTEX
  5
1794
  8
0
 10
0.0
 20
0.0
 30
0.0
 70
   128
 71
    -1
 72
    10
 73
    -9
  0
VERTEX
  5
1795
  8
0
 10
0.0
 20
0.0
 30
0.0
 70
   128
 71
    -1
 72
     9
 73
    -8
  0
VERTEX
  5
1796
  8
0
 10
0.0
 20
0.0
 30
0.0
 70
   128
 71
    -1
 72
     8
 73
    -7
  0
VERTEX
  5
1797
  8
0
 10
0.0
 20
0.0
 30
0.0
 70
   128
 71
    -1
 72
     7
 73
    -6
  0
VERTEX
  5
1798
  8
0
 10
0.0
 20
0.0
 30
0.0
 70
   128
 71
    -1
 72
     6
 73
    -5
  0
VERTEX
  5
1799
  8
0
 10
0.0
 20
0.0
 30
0.0
 70
   128
 71
    -1
 72
     5
 73
    -4
  0
VERTEX
  5
179A
  8
0
 10
0.0
 20
0.0
 30
0.0
 70
   128
 71
    -1
 72
     4
 73
    -3
  0
VERTEX
  5
179B
  8
0
 10
0.0
 20
0.0
 30
0.0
 70
   128
 71
    -1
 72
     3
 73
     2
  0
SEQEND
  5
1A05
  8
0
  0
POLYLINE
  5
179C
  8
0
 66
     1
 10
0.0
 20
0.0
 30
0.0
 70
    64
 71
    10
 72
     8
  0
VERTEX
  5
179D
  8
0
 10
304.9999999999999
 20
-66.49999999999999
 30
-7.0
 70
   192
  0
VERTEX
  5
179E
  8
0
 10
304.9999999999999
 20
-73.49999999999997
 30
-7.0
 70
   192
  0
VERTEX
  5
179F
  8
0
 10
299.9999999999999
 20
-73.49999999999997
 30
-7.0
 70
   192
  0
VERTEX
  5
17A0
  8
0
 10
299.9999999999999
 20
-66.5
 30
-7.0
 70
   192
  0
VERTEX
  5
17A1
  8
0
 10
299.9999999999999
 20
-69.99999999999999
 30
-10.49999999999999
 70
   192
  0
VERTEX
  5
17A2
  8
0
 10
304.9999999999999
 20
-69.99999999999999
 30
-10.49999999999999
 70
   192
  0
VERTEX
  5
17A3
  8
0
 10
299.9999999999999
 20
-67.52512626584708
 30
-9.474873734152908
 70
   192
  0
VERTEX
  5
17A4
  8
0
 10
304.9999999999999
 20
-67.52512626584708
 30
-9.474873734152908
 70
   192
  0
VERTEX
  5
17A5
  8
0
 10
299.9999999999999
 20
-72.4748737341529
 30
-9.47487373415291
 70
   192
  0
VERTEX
  5
17A6
  8
0
 10
304.9999999999999
 20
-72.4748737341529
 30
-9.47487373415291
 70
   192
  0
VERTEX
  5
17A7
  8
0
 10
0.0
 20
0.0
 30
0.0
 70
   128
 71
     8
 72
     7
 73
    -4
  0
VERTEX
  5
17A8
  8
0
 10
0.0
 20
0.0
 30
0.0
 70
   128
 71
    -8
 72
     4
 73
     1
  0
VERTEX
  5
17A9
  8
0
 10
0.0
 20
0.0
 30
0.0
 70
   128
 71
     6
 72
     5
 73
    -7
  0
VERTEX
  5
17AA
  8
0
 10
0.0
 20
0.0
 30
0.0
 70
   128
 71
    -6
 72
     7
 73
     8
  0
VERTEX
  5
17AB
  8
0
 10
0.0
 20
0.0
 30
0.0
 70
   128
 71
    10
 72
     9
 73
    -5
  0
VERTEX
  5
17AC
  8
0
 10
0.0
 20
0.0
 30
0.0
 70
   128
 71
   -10
 72
     5
 73
     6
  0
VERTEX
  5
17AD
  8
0
 10
0.0
 20
0.0
 30
0.0
 70
   128
 71
     2
 72
     3
 73
    -9
  0
VERTEX
  5
17AE
  8
0
 10
0.0
 20
0.0
 30
0.0
 70
   128
 71
    -2
 72
     9
 73
    10
  0
SEQEND
  5
1A06
  8
0
  0
POLYLINE
  5
17AF
  8
0
 66
     1
 10
0.0
 20
0.0
 30
0.0
 70
    64
 71
     8
 72
     6
  0
VERTEX
  5
17B0
  8
0
 10
304.9999999999999
 20
-66.5
 30
-7.0
 70
   192
  0
VERTEX
  5
17B1
  8
0
 10
304.9999999999999
 20
-67.52512626584708
 30
-9.474873734152908
 70
   192
  0
VERTEX
  5
17B2
  8
0
 10
304.9999999999999
 20
-69.99999999999999
 30
-10.49999999999999
 70
   192
  0
VERTEX
  5
17B3
  8
0
 10
304.9999999999999
 20
-72.4748737341529
 30
-9.47487373415291
 70
   192
  0
VERTEX
  5
17B4
  8
0
 10
304.9999999999999
 20
-73.49999999999997
 30
-7.0
 70
   192
  0
VERTEX
  5
17B5
  8
0
 10
304.9999999999999
 20
-72.4748737341529
 30
-4.525126265847091
 70
   192
  0
VERTEX
  5
17B6
  8
0
 10
304.9999999999999
 20
-69.99999999999999
 30
-3.50000000000001
 70
   192
  0
VERTEX
  5
17B7
  8
0
 10
304.9999999999999
 20
-67.52512626584708
 30
-4.52512626584709
 70
   192
  0
VERTEX
  5
17B8
  8
0
 10
0.0
 20
0.0
 30
0.0
 70
   128
 71
     1
 72
     8
 73
    -7
  0
VERTEX
  5
17B9
  8
0
 10
0.0
 20
0.0
 30
0.0
 70
   128
 71
    -1
 72
     7
 73
    -6
  0
VERTEX
  5
17BA
  8
0
 10
0.0
 20
0.0
 30
0.0
 70
   128
 71
    -1
 72
     6
 73
    -5
  0
VERTEX
  5
17BB
  8
0
 10
0.0
 20
0.0
 30
0.0
 70
   128
 71
    -1
 72
     5
 73
    -4
  0
VERTEX
  5
17BC
  8
0
 10
0.0
 20
0.0
 30
0.0
 70
   128
 71
    -1
 72
     4
 73
    -3
  0
VERTEX
  5
17BD
  8
0
 10
0.0
 20
0.0
 30
0.0
 70
   128
 71
    -1
 72
     3
 73
     2
  0
SEQEND
  5
1A07
  8
0
  0
ENDBLK
  5
19FA
  8
0
  0
BLOCK
  8
0
  2
*X5
 70
     1
 10
0.0
 20
0.0
 30
0.0
  3
*X5
  1

  0
POLYLINE
  5
17BF
  8
0
 66
     1
 10
0.0
 20
0.0
 30
0.0
 70
    64
 71
     4
 72
     2
  0
VERTEX
  5
17C0
  8
0
 10
-395.0
 20
-250.0000000000001
 30
-2.0
 70
   192
  0
VERTEX
  5
17C1
  8
0
 10
-395.0000000000001
 20
-250.0000000000001
 30
-20.0
 70
   192
  0
VERTEX
  5
17C2
  8
0
 10
-395.0000000000001
 20
250.0
 30
-20.0
 70
   192
  0
VERTEX
  5
17C3
  8
0
 10
-395.0000000000001
 20
250.0
 30
-2.0
 70
   192
  0
VERTEX
  5
17C4
  8
0
 10
0.0
 20
0.0
 30
0.0
 70
   128
 71
     1
 72
     4
 73
    -3
  0
VERTEX
  5
17C5
  8
0
 10
0.0
 20
0.0
 30
0.0
 70
   128
 71
    -1
 72
     3
 73
     2
  0
SEQEND
  5
1A0A
  8
0
  0
POLYLINE
  5
17C6
  8
0
 66
     1
 10
0.0
 20
0.0
 30
0.0
 70
    64
 71
     8
 72
     6
  0
VERTEX
  5
17C7
  8
0
 10
-372.5000000000001
 20
288.9711431702997
 30
-2.0
 70
   192
  0
VERTEX
  5
17C8
  8
0
 10
-372.5000000000001
 20
288.9711431702997
 30
-20.0
 70
   192
  0
VERTEX
  5
17C9
  8
0
 10
-388.9711431702998
 20
272.5
 30
-20.0
 70
   192
  0
VERTEX
  5
17CA
  8
0
 10
-388.9711431702998
 20
272.5
 30
-2.0
 70
   192
  0
VERTEX
  5
17CB
  8
0
 10
-350.0000000000001
 20
295.0
 30
-2.0
 70
   192
  0
VERTEX
  5
17CC
  8
0
 10
-350.0000000000001
 20
295.0000000000001
 30
-20.0
 70
   192
  0
VERTEX
  5
17CD
  8
0
 10
-395.0000000000001
 20
250.0
 30
-20.0
 70
   192
  0
VERTEX
  5
17CE
  8
0
 10
-395.0000000000001
 20
250.0
 30
-2.0
 70
   192
  0
VERTEX
  5
17CF
  8
0
 10
0.0
 20
0.0
 30
0.0
 70
   128
 71
     1
 72
     2
 73
    -3
  0
VERTEX
  5
17D0
  8
0
 10
0.0
 20
0.0
 30
0.0
 70
   128
 71
    -1
 72
     3
 73
     4
  0
VERTEX
  5
17D1
  8
0
 10
0.0
 20
0.0
 30
0.0
 70
   128
 71
     5
 72
     6
 73
    -2
  0
VERTEX
  5
17D2
  8
0
 10
0.0
 20
0.0
 30
0.0
 70
   128
 71
    -5
 72
     2
 73
     1
  0
VERTEX
  5
17D3
  8
0
 10
0.0
 20
0.0
 30
0.0
 70
   128
 71
     4
 72
     3
 73
    -7
  0
VERTEX
  5
17D4
  8
0
 10
0.0
 20
0.0
 30
0.0
 70
   128
 71
    -4
 72
     7
 73
     8
  0
SEQEND
  5
1A0B
  8
0
  0
POLYLINE
  5
17D5
  8
0
 66
     1
 10
0.0
 20
0.0
 30
0.0
 70
    64
 71
     4
 72
     2
  0
VERTEX
  5
17D6
  8
0
 10
-350.0000000000001
 20
295.0000000000001
 30
-2.0
 70
   192
  0
VERTEX
  5
17D7
  8
0
 10
-350.0000000000001
 20
295.0000000000001
 30
-20.0
 70
   192
  0
VERTEX
  5
17D8
  8
0
 10
350.0000000000001
 20
295.0000000000001
 30
-20.0
 70
   192
  0
VERTEX
  5
17D9
  8
0
 10
350.0000000000001
 20
295.0000000000001
 30
-2.0
 70
   192
  0
VERTEX
  5
17DA
  8
0
 10
0.0
 20
0.0
 30
0.0
 70
   128
 71
     1
 72
     4
 73
    -3
  0
VERTEX
  5
17DB
  8
0
 10
0.0
 20
0.0
 30
0.0
 70
   128
 71
    -1
 72
     3
 73
     2
  0
SEQEND
  5
1A0C
  8
0
  0
POLYLINE
  5
17DC
  8
0
 66
     1
 10
0.0
 20
0.0
 30
0.0
 70
    64
 71
     8
 72
     6
  0
VERTEX
  5
17DD
  8
0
 10
388.9711431702998
 20
272.5000000000001
 30
-2.0
 70
   192
  0
VERTEX
  5
17DE
  8
0
 10
388.9711431702998
 20
272.5000000000001
 30
-20.0
 70
   192
  0
VERTEX
  5
17DF
  8
0
 10
372.5000000000001
 20
288.9711431702998
 30
-20.0
 70
   192
  0
VERTEX
  5
17E0
  8
0
 10
372.5000000000001
 20
288.9711431702998
 30
-2.0
 70
   192
  0
VERTEX
  5
17E1
  8
0
 10
395.0000000000001
 20
250.0000000000001
 30
-2.0
 70
   192
  0
VERTEX
  5
17E2
  8
0
 10
395.0
 20
250.0000000000001
 30
-20.0
 70
   192
  0
VERTEX
  5
17E3
  8
0
 10
350.0000000000001
 20
295.0000000000001
 30
-20.0
 70
   192
  0
VERTEX
  5
17E4
  8
0
 10
350.0000000000001
 20
295.0000000000001
 30
-2.0
 70
   192
  0
VERTEX
  5
17E5
  8
0
 10
0.0
 20
0.0
 30
0.0
 70
   128
 71
     1
 72
     2
 73
    -3
  0
VERTEX
  5
17E6
  8
0
 10
0.0
 20
0.0
 30
0.0
 70
   128
 71
    -1
 72
     3
 73
     4
  0
VERTEX
  5
17E7
  8
0
 10
0.0
 20
0.0
 30
0.0
 70
   128
 71
     5
 72
     6
 73
    -2
  0
VERTEX
  5
17E8
  8
0
 10
0.0
 20
0.0
 30
0.0
 70
   128
 71
    -5
 72
     2
 73
     1
  0
VERTEX
  5
17E9
  8
0
 10
0.0
 20
0.0
 30
0.0
 70
   128
 71
     4
 72
     3
 73
    -7
  0
VERTEX
  5
17EA
  8
0
 10
0.0
 20
0.0
 30
0.0
 70
   128
 71
    -4
 72
     7
 73
     8
  0
SEQEND
  5
1A0D
  8
0
  0
POLYLINE
  5
17EB
  8
0
 66
     1
 10
0.0
 20
0.0
 30
0.0
 70
    64
 71
     4
 72
     2
  0
VERTEX
  5
17EC
  8
0
 10
395.0
 20
250.0000000000001
 30
-2.0
 70
   192
  0
VERTEX
  5
17ED
  8
0
 10
395.0
 20
250.0000000000001
 30
-20.0
 70
   192
  0
VERTEX
  5
17EE
  8
0
 10
395.0
 20
-249.9999999999999
 30
-20.0
 70
   192
  0
VERTEX
  5
17EF
  8
0
 10
395.0
 20
-249.9999999999999
 30
-2.0
 70
   192
  0
VERTEX
  5
17F0
  8
0
 10
0.0
 20
0.0
 30
0.0
 70
   128
 71
     1
 72
     4
 73
    -3
  0
VERTEX
  5
17F1
  8
0
 10
0.0
 20
0.0
 30
0.0
 70
   128
 71
    -1
 72
     3
 73
     2
  0
SEQEND
  5
1A0E
  8
0
  0
POLYLINE
  5
17F2
  8
0
 66
     1
 10
0.0
 20
0.0
 30
0.0
 70
    64
 71
     8
 72
     6
  0
VERTEX
  5
17F3
  8
0
 10
372.5000000000001
 20
-288.9711431702997
 30
-2.0
 70
   192
  0
VERTEX
  5
17F4
  8
0
 10
372.5000000000001
 20
-288.9711431702997
 30
-20.0
 70
   192
  0
VERTEX
  5
17F5
  8
0
 10
388.9711431702998
 20
-272.4999999999999
 30
-20.0
 70
   192
  0
VERTEX
  5
17F6
  8
0
 10
388.9711431702998
 20
-272.4999999999999
 30
-2.0
 70
   192
  0
VERTEX
  5
17F7
  8
0
 10
350.0000000000001
 20
-294.9999999999999
 30
-2.0
 70
   192
  0
VERTEX
  5
17F8
  8
0
 10
350.0000000000001
 20
-294.9999999999999
 30
-20.0
 70
   192
  0
VERTEX
  5
17F9
  8
0
 10
395.0000000000001
 20
-249.9999999999999
 30
-20.0
 70
   192
  0
VERTEX
  5
17FA
  8
0
 10
395.0
 20
-249.9999999999999
 30
-2.0
 70
   192
  0
VERTEX
  5
17FB
  8
0
 10
0.0
 20
0.0
 30
0.0
 70
   128
 71
     1
 72
     2
 73
    -3
  0
VERTEX
  5
17FC
  8
0
 10
0.0
 20
0.0
 30
0.0
 70
   128
 71
    -1
 72
     3
 73
     4
  0
VERTEX
  5
17FD
  8
0
 10
0.0
 20
0.0
 30
0.0
 70
   128
 71
     5
 72
     6
 73
    -2
  0
VERTEX
  5
17FE
  8
0
 10
0.0
 20
0.0
 30
0.0
 70
   128
 71
    -5
 72
     2
 73
     1
  0
VERTEX
  5
17FF
  8
0
 10
0.0
 20
0.0
 30
0.0
 70
   128
 71
     4
 72
     3
 73
    -7
  0
VERTEX
  5
1800
  8
0
 10
0.0
 20
0.0
 30
0.0
 70
   128
 71
    -4
 72
     7
 73
     8
  0
SEQEND
  5
1A0F
  8
0
  0
POLYLINE
  5
1801
  8
0
 66
     1
 10
0.0
 20
0.0
 30
0.0
 70
    64
 71
     4
 72
     2
  0
VERTEX
  5
1802
  8
0
 10
350.0000000000001
 20
-294.9999999999999
 30
-2.0
 70
   192
  0
VERTEX
  5
1803
  8
0
 10
350.0000000000001
 20
-294.9999999999999
 30
-20.0
 70
   192
  0
VERTEX
  5
1804
  8
0
 10
-350.0000000000001
 20
-295.0000000000001
 30
-20.0
 70
   192
  0
VERTEX
  5
1805
  8
0
 10
-350.0000000000001
 20
-295.0000000000001
 30
-2.0
 70
   192
  0
VERTEX
  5
1806
  8
0
 10
0.0
 20
0.0
 30
0.0
 70
   128
 71
     1
 72
     4
 73
    -3
  0
VERTEX
  5
1807
  8
0
 10
0.0
 20
0.0
 30
0.0
 70
   128
 71
    -1
 72
     3
 73
     2
  0
SEQEND
  5
1A10
  8
0
  0
POLYLINE
  5
1808
  8
0
 66
     1
 10
0.0
 20
0.0
 30
0.0
 70
    64
 71
     4
 72
     2
  0
VERTEX
  5
1809
  8
0
 10
330.0
 20
230.0
 30
-2.0
 70
   192
  0
VERTEX
  5
180A
  8
0
 10
-330.0000000000001
 20
230.0
 30
-2.0
 70
   192
  0
VERTEX
  5
180B
  8
0
 10
-330.0000000000001
 20
230.0
 30
-20.0
 70
   192
  0
VERTEX
  5
180C
  8
0
 10
330.0
 20
230.0
 30
-20.0
 70
   192
  0
VERTEX
  5
180D
  8
0
 10
0.0
 20
0.0
 30
0.0
 70
   128
 71
     3
 72
     4
 73
    -1
  0
VERTEX
  5
180E
  8
0
 10
0.0
 20
0.0
 30
0.0
 70
   128
 71
     2
 72
    -3
 73
     1
  0
SEQEND
  5
1A11
  8
0
  0
POLYLINE
  5
180F
  8
0
 66
     1
 10
0.0
 20
0.0
 30
0.0
 70
    64
 71
     4
 72
     2
  0
VERTEX
  5
1810
  8
0
 10
-330.0000000000001
 20
230.0
 30
-2.0
 70
   192
  0
VERTEX
  5
1811
  8
0
 10
-330.0000000000001
 20
-230.0
 30
-2.0
 70
   192
  0
VERTEX
  5
1812
  8
0
 10
-330.0
 20
-230.0
 30
-20.0
 70
   192
  0
VERTEX
  5
1813
  8
0
 10
-330.0000000000001
 20
230.0
 30
-20.0
 70
   192
  0
VERTEX
  5
1814
  8
0
 10
0.0
 20
0.0
 30
0.0
 70
   128
 71
     3
 72
     4
 73
    -1
  0
VERTEX
  5
1815
  8
0
 10
0.0
 20
0.0
 30
0.0
 70
   128
 71
     2
 72
    -3
 73
     1
  0
SEQEND
  5
1A12
  8
0
  0
POLYLINE
  5
1816
  8
0
 66
     1
 10
0.0
 20
0.0
 30
0.0
 70
    64
 71
     4
 72
     2
  0
VERTEX
  5
1817
  8
0
 10
-330.0
 20
-230.0
 30
-2.0
 70
   192
  0
VERTEX
  5
1818
  8
0
 10
330.0
 20
-229.9999999999999
 30
-2.0
 70
   192
  0
VERTEX
  5
1819
  8
0
 10
330.0
 20
-229.9999999999999
 30
-20.0
 70
   192
  0
VERTEX
  5
181A
  8
0
 10
-330.0
 20
-230.0
 30
-20.0
 70
   192
  0
VERTEX
  5
181B
  8
0
 10
0.0
 20
0.0
 30
0.0
 70
   128
 71
     3
 72
     4
 73
    -1
  0
VERTEX
  5
181C
  8
0
 10
0.0
 20
0.0
 30
0.0
 70
   128
 71
     2
 72
    -3
 73
     1
  0
SEQEND
  5
1A13
  8
0
  0
POLYLINE
  5
181D
  8
0
 66
     1
 10
0.0
 20
0.0
 30
0.0
 70
    64
 71
     4
 72
     2
  0
VERTEX
  5
181E
  8
0
 10
330.0
 20
-229.9999999999999
 30
-2.0
 70
   192
  0
VERTEX
  5
181F
  8
0
 10
330.0
 20
230.0
 30
-2.0
 70
   192
  0
VERTEX
  5
1820
  8
0
 10
330.0
 20
230.0
 30
-20.0
 70
   192
  0
VERTEX
  5
1821
  8
0
 10
330.0
 20
-229.9999999999999
 30
-20.0
 70
   192
  0
VERTEX
  5
1822
  8
0
 10
0.0
 20
0.0
 30
0.0
 70
   128
 71
     3
 72
     4
 73
    -1
  0
VERTEX
  5
1823
  8
0
 10
0.0
 20
0.0
 30
0.0
 70
   128
 71
     2
 72
    -3
 73
     1
  0
SEQEND
  5
1A14
  8
0
  0
POLYLINE
  5
1824
  8
0
 66
     1
 10
0.0
 20
0.0
 30
0.0
 70
    64
 71
     8
 72
     6
  0
VERTEX
  5
1825
  8
0
 10
-388.9711431702998
 20
-272.5000000000001
 30
-2.0
 70
   192
  0
VERTEX
  5
1826
  8
0
 10
-388.9711431702998
 20
-272.5000000000001
 30
-20.0
 70
   192
  0
VERTEX
  5
1827
  8
0
 10
-372.5000000000001
 20
-288.9711431702999
 30
-20.0
 70
   192
  0
VERTEX
  5
1828
  8
0
 10
-372.5000000000001
 20
-288.9711431702999
 30
-2.0
 70
   192
  0
VERTEX
  5
1829
  8
0
 10
-395.0000000000001
 20
-250.0000000000001
 30
-2.0
 70
   192
  0
VERTEX
  5
182A
  8
0
 10
-395.0
 20
-250.0000000000001
 30
-20.0
 70
   192
  0
VERTEX
  5
182B
  8
0
 10
-350.0000000000001
 20
-295.0000000000001
 30
-20.0
 70
   192
  0
VERTEX
  5
182C
  8
0
 10
-350.0000000000001
 20
-295.0000000000001
 30
-2.0
 70
   192
  0
VERTEX
  5
182D
  8
0
 10
0.0
 20
0.0
 30
0.0
 70
   128
 71
     1
 72
     2
 73
    -3
  0
VERTEX
  5
182E
  8
0
 10
0.0
 20
0.0
 30
0.0
 70
   128
 71
    -1
 72
     3
 73
     4
  0
VERTEX
  5
182F
  8
0
 10
0.0
 20
0.0
 30
0.0
 70
   128
 71
     5
 72
     6
 73
    -2
  0
VERTEX
  5
1830
  8
0
 10
0.0
 20
0.0
 30
0.0
 70
   128
 71
    -5
 72
     2
 73
     1
  0
VERTEX
  5
1831
  8
0
 10
0.0
 20
0.0
 30
0.0
 70
   128
 71
     4
 72
     3
 73
    -7
  0
VERTEX
  5
1832
  8
0
 10
0.0
 20
0.0
 30
0.0
 70
   128
 71
    -4
 72
     7
 73
     8
  0
SEQEND
  5
1A15
  8
0
  0
POLYLINE
  5
1833
  8
0
 66
     1
 10
0.0
 20
0.0
 30
0.0
 70
    64
 71
    20
 72
    20
  0
VERTEX
  5
1834
  8
0
 10
-395.0000000000001
 20
-250.0000000000001
 30
-20.0
 70
   192
  0
VERTEX
  5
1835
  8
0
 10
-395.0000000000001
 20
250.0
 30
-20.0
 70
   192
  0
VERTEX
  5
1836
  8
0
 10
-388.9711431702998
 20
272.5
 30
-20.0
 70
   192
  0
VERTEX
  5
1837
  8
0
 10
-372.5000000000001
 20
288.9711431702997
 30
-20.0
 70
   192
  0
VERTEX
  5
1838
  8
0
 10
-350.0000000000001
 20
295.0
 30
-20.0
 70
   192
  0
VERTEX
  5
1839
  8
0
 10
350.0000000000001
 20
295.0000000000001
 30
-20.0
 70
   192
  0
VERTEX
  5
183A
  8
0
 10
372.5000000000001
 20
288.9711431702998
 30
-20.0
 70
   192
  0
VERTEX
  5
183B
  8
0
 10
388.9711431702998
 20
272.5000000000001
 30
-20.0
 70
   192
  0
VERTEX
  5
183C
  8
0
 10
395.0000000000001
 20
250.0000000000001
 30
-20.0
 70
   192
  0
VERTEX
  5
183D
  8
0
 10
395.0
 20
-249.9999999999999
 30
-20.0
 70
   192
  0
VERTEX
  5
183E
  8
0
 10
388.9711431702998
 20
-272.4999999999999
 30
-20.0
 70
   192
  0
VERTEX
  5
183F
  8
0
 10
372.5000000000001
 20
-288.9711431702997
 30
-20.0
 70
   192
  0
VERTEX
  5
1840
  8
0
 10
350.0000000000001
 20
-294.9999999999999
 30
-20.0
 70
   192
  0
VERTEX
  5
1841
  8
0
 10
-350.0000000000001
 20
-295.0000000000001
 30
-20.0
 70
   192
  0
VERTEX
  5
1842
  8
0
 10
-372.5000000000001
 20
-288.9711431702999
 30
-20.0
 70
   192
  0
VERTEX
  5
1843
  8
0
 10
-388.9711431702998
 20
-272.5000000000001
 30
-20.0
 70
   192
  0
VERTEX
  5
1844
  8
0
 10
330.0
 20
230.0
 30
-20.0
 70
   192
  0
VERTEX
  5
1845
  8
0
 10
-330.0000000000001
 20
230.0
 30
-20.0
 70
   192
  0
VERTEX
  5
1846
  8
0
 10
-330.0000000000001
 20
-230.0
 30
-20.0
 70
   192
  0
VERTEX
  5
1847
  8
0
 10
330.0
 20
-229.9999999999999
 30
-20.0
 70
   192
  0
VERTEX
  5
1848
  8
0
 10
0.0
 20
0.0
 30
0.0
 70
   128
 71
    -9
 72
    17
 73
   -18
  0
VERTEX
  5
1849
  8
0
 10
0.0
 20
0.0
 30
0.0
 70
   128
 71
     8
 72
    -9
 73
   -18
  0
VERTEX
  5
184A
  8
0
 10
0.0
 20
0.0
 30
0.0
 70
   128
 71
     7
 72
    -8
 73
   -18
  0
VERTEX
  5
184B
  8
0
 10
0.0
 20
0.0
 30
0.0
 70
   128
 71
     6
 72
    -7
 73
   -18
  0
VERTEX
  5
184C
  8
0
 10
0.0
 20
0.0
 30
0.0
 70
   128
 71
     5
 72
    -6
 73
   -18
  0
VERTEX
  5
184D
  8
0
 10
0.0
 20
0.0
 30
0.0
 70
   128
 71
     4
 72
    -5
 73
   -18
  0
VERTEX
  5
184E
  8
0
 10
0.0
 20
0.0
 30
0.0
 70
   128
 71
     3
 72
    -4
 73
   -18
  0
VERTEX
  5
184F
  8
0
 10
0.0
 20
0.0
 30
0.0
 70
   128
 71
     2
 72
    -3
 73
   -18
  0
VERTEX
  5
1850
  8
0
 10
0.0
 20
0.0
 30
0.0
 70
   128
 71
   -19
 72
     1
 73
    -2
  0
VERTEX
  5
1851
  8
0
 10
0.0
 20
0.0
 30
0.0
 70
   128
 71
    18
 72
   -19
 73
    -2
  0
VERTEX
  5
1852
  8
0
 10
0.0
 20
0.0
 30
0.0
 70
   128
 71
    15
 72
    16
 73
    -1
  0
VERTEX
  5
1853
  8
0
 10
0.0
 20
0.0
 30
0.0
 70
   128
 71
    14
 72
   -15
 73
    -1
  0
VERTEX
  5
1854
  8
0
 10
0.0
 20
0.0
 30
0.0
 70
   128
 71
    13
 72
   -14
 73
    -1
  0
VERTEX
  5
1855
  8
0
 10
0.0
 20
0.0
 30
0.0
 70
   128
 71
    12
 72
   -13
 73
    -1
  0
VERTEX
  5
1856
  8
0
 10
0.0
 20
0.0
 30
0.0
 70
   128
 71
    11
 72
   -12
 73
    -1
  0
VERTEX
  5
1857
  8
0
 10
0.0
 20
0.0
 30
0.0
 70
   128
 71
    10
 72
   -11
 73
    -1
  0
VERTEX
  5
1858
  8
0
 10
0.0
 20
0.0
 30
0.0
 70
   128
 71
   -20
 72
   -10
 73
    -1
  0
VERTEX
  5
1859
  8
0
 10
0.0
 20
0.0
 30
0.0
 70
   128
 71
    19
 72
   -20
 73
    -1
  0
VERTEX
  5
185A
  8
0
 10
0.0
 20
0.0
 30
0.0
 70
   128
 71
   -17
 72
     9
 73
   -10
  0
VERTEX
  5
185B
  8
0
 10
0.0
 20
0.0
 30
0.0
 70
   128
 71
    20
 72
   -17
 73
   -10
  0
SEQEND
  5
1A16
  8
0
  0
POLYLINE
  5
185C
  8
0
 66
     1
 10
0.0
 20
0.0
 30
0.0
 70
    64
 71
    20
 72
    20
  0
VERTEX
  5
185D
  8
0
 10
-395.0000000000001
 20
250.0
 30
-2.0
 70
   192
  0
VERTEX
  5
185E
  8
0
 10
-388.9711431702998
 20
272.5
 30
-2.0
 70
   192
  0
VERTEX
  5
185F
  8
0
 10
-372.5000000000001
 20
288.9711431702997
 30
-2.0
 70
   192
  0
VERTEX
  5
1860
  8
0
 10
-350.0000000000001
 20
295.0000000000001
 30
-2.0
 70
   192
  0
VERTEX
  5
1861
  8
0
 10
350.0000000000001
 20
295.0000000000001
 30
-2.0
 70
   192
  0
VERTEX
  5
1862
  8
0
 10
372.5000000000001
 20
288.9711431702998
 30
-2.0
 70
   192
  0
VERTEX
  5
1863
  8
0
 10
388.9711431702998
 20
272.5000000000001
 30
-2.0
 70
   192
  0
VERTEX
  5
1864
  8
0
 10
395.0
 20
250.0000000000001
 30
-2.0
 70
   192
  0
VERTEX
  5
1865
  8
0
 10
395.0000000000001
 20
-249.9999999999999
 30
-2.0
 70
   192
  0
VERTEX
  5
1866
  8
0
 10
388.9711431702998
 20
-272.4999999999999
 30
-2.0
 70
   192
  0
VERTEX
  5
1867
  8
0
 10
372.5000000000001
 20
-288.9711431702997
 30
-2.0
 70
   192
  0
VERTEX
  5
1868
  8
0
 10
350.0000000000001
 20
-294.9999999999999
 30
-2.0
 70
   192
  0
VERTEX
  5
1869
  8
0
 10
-350.0000000000001
 20
-295.0000000000001
 30
-2.0
 70
   192
  0
VERTEX
  5
186A
  8
0
 10
-372.5000000000001
 20
-288.9711431702999
 30
-2.0
 70
   192
  0
VERTEX
  5
186B
  8
0
 10
-388.9711431702998
 20
-272.5000000000001
 30
-2.0
 70
   192
  0
VERTEX
  5
186C
  8
0
 10
-395.0000000000001
 20
-250.0000000000001
 30
-2.0
 70
   192
  0
VERTEX
  5
186D
  8
0
 10
-330.0000000000001
 20
230.0
 30
-2.0
 70
   192
  0
VERTEX
  5
186E
  8
0
 10
-330.0
 20
-230.0
 30
-2.0
 70
   192
  0
VERTEX
  5
186F
  8
0
 10
330.0
 20
-229.9999999999999
 30
-2.0
 70
   192
  0
VERTEX
  5
1870
  8
0
 10
330.0
 20
230.0
 30
-2.0
 70
   192
  0
VERTEX
  5
1871
  8
0
 10
0.0
 20
0.0
 30
0.0
 70
   128
 71
    18
 72
   -17
 73
    -1
  0
VERTEX
  5
1872
  8
0
 10
0.0
 20
0.0
 30
0.0
 70
   128
 71
   -18
 72
     1
 73
   -16
  0
VERTEX
  5
1873
  8
0
 10
0.0
 20
0.0
 30
0.0
 70
   128
 71
    16
 72
    15
 73
   -14
  0
VERTEX
  5
1874
  8
0
 10
0.0
 20
0.0
 30
0.0
 70
   128
 71
   -16
 72
    14
 73
   -13
  0
VERTEX
  5
1875
  8
0
 10
0.0
 20
0.0
 30
0.0
 70
   128
 71
   -16
 72
    13
 73
   -12
  0
VERTEX
  5
1876
  8
0
 10
0.0
 20
0.0
 30
0.0
 70
   128
 71
   -16
 72
    12
 73
   -11
  0
VERTEX
  5
1877
  8
0
 10
0.0
 20
0.0
 30
0.0
 70
   128
 71
   -16
 72
    11
 73
   -10
  0
VERTEX
  5
1878
  8
0
 10
0.0
 20
0.0
 30
0.0
 70
   128
 71
   -16
 72
    10
 73
    -9
  0
VERTEX
  5
1879
  8
0
 10
0.0
 20
0.0
 30
0.0
 70
   128
 71
   -16
 72
    -9
 73
   -19
  0
VERTEX
  5
187A
  8
0
 10
0.0
 20
0.0
 30
0.0
 70
   128
 71
   -16
 72
    19
 73
   -18
  0
VERTEX
  5
187B
  8
0
 10
0.0
 20
0.0
 30
0.0
 70
   128
 71
     9
 72
    -8
 73
   -20
  0
VERTEX
  5
187C
  8
0
 10
0.0
 20
0.0
 30
0.0
 70
   128
 71
    -9
 72
    20
 73
   -19
  0
VERTEX
  5
187D
  8
0
 10
0.0
 20
0.0
 30
0.0
 70
   128
 71
     8
 72
     7
 73
    -6
  0
VERTEX
  5
187E
  8
0
 10
0.0
 20
0.0
 30
0.0
 70
   128
 71
    -8
 72
     6
 73
    -5
  0
VERTEX
  5
187F
  8
0
 10
0.0
 20
0.0
 30
0.0
 70
   128
 71
    -8
 72
     5
 73
    -4
  0
VERTEX
  5
1880
  8
0
 10
0.0
 20
0.0
 30
0.0
 70
   128
 71
    -8
 72
     4
 73
    -3
  0
VERTEX
  5
1881
  8
0
 10
0.0
 20
0.0
 30
0.0
 70
   128
 71
    -8
 72
     3
 73
    -2
  0
VERTEX
  5
1882
  8
0
 10
0.0
 20
0.0
 30
0.0
 70
   128
 71
    -8
 72
     2
 73
    -1
  0
VERTEX
  5
1883
  8
0
 10
0.0
 20
0.0
 30
0.0
 70
   128
 71
    -8
 72
    -1
 73
   -17
  0
VERTEX
  5
1884
  8
0
 10
0.0
 20
0.0
 30
0.0
 70
   128
 71
    -8
 72
    17
 73
   -20
  0
SEQEND
  5
1A17
  8
0
  0
ENDBLK
  5
1A09
  8
0
  0
BLOCK
  8
0
  2
*X6
 70
     1
 10
0.0
 20
0.0
 30
0.0
  3
*X6
  1

  0
POLYLINE
  5
1886
  8
0
 66
     1
 10
0.0
 20
0.0
 30
0.0
 70
    64
 71
     6
 72
     4
  0
VERTEX
  5
1887
  8
0
 10
-257.0200000000007
 20
151.9999999999998
 30
-12.0
 70
   192
  0
VERTEX
  5
1888
  8
0
 10
-257.0200000000004
 20
117.9999999999998
 30
-12.0
 70
   192
  0
VERTEX
  5
1889
  8
0
 10
-257.0200000000005
 20
117.9999999999998
 30
-5.0
 70
   192
  0
VERTEX
  5
188A
  8
0
 10
-257.0200000000004
 20
114.9999999999998
 30
-5.0
 70
   192
  0
VERTEX
  5
188B
  8
0
 10
-257.0200000000004
 20
114.9999999999998
 30
-15.0
 70
   192
  0
VERTEX
  5
188C
  8
0
 10
-257.0200000000007
 20
151.9999999999998
 30
-15.0
 70
   192
  0
VERTEX
  5
188D
  8
0
 10
0.0
 20
0.0
 30
0.0
 70
   128
 71
     6
 72
     1
 73
    -2
  0
VERTEX
  5
188E
  8
0
 10
0.0
 20
0.0
 30
0.0
 70
   128
 71
     5
 72
    -6
 73
    -2
  0
VERTEX
  5
188F
  8
0
 10
0.0
 20
0.0
 30
0.0
 70
   128
 71
     3
 72
     4
 73
    -5
  0
VERTEX
  5
1890
  8
0
 10
0.0
 20
0.0
 30
0.0
 70
   128
 71
     2
 72
    -3
 73
    -5
  0
SEQEND
  5
1A1A
  8
0
  0
POLYLINE
  5
1891
  8
0
 66
     1
 10
0.0
 20
0.0
 30
0.0
 70
    64
 71
     8
 72
     6
  0
VERTEX
  5
1892
  8
0
 10
-257.0200000000004
 20
114.9999999999998
 30
-5.0
 70
   192
  0
VERTEX
  5
1893
  8
0
 10
-257.0200000000004
 20
117.9999999999998
 30
-5.0
 70
   192
  0
VERTEX
  5
1894
  8
0
 10
-279.0200000000004
 20
117.9999999999997
 30
-5.0
 70
   192
  0
VERTEX
  5
1895
  8
0
 10
-279.0200000000007
 20
191.9999999999997
 30
-5.0
 70
   192
  0
VERTEX
  5
1896
  8
0
 10
-257.0200000000007
 20
191.9999999999998
 30
-5.0
 70
   192
  0
VERTEX
  5
1897
  8
0
 10
-257.0200000000007
 20
194.9999999999997
 30
-5.0
 70
   192
  0
VERTEX
  5
1898
  8
0
 10
-222.0200000000007
 20
195.0
 30
-5.0
 70
   192
  0
VERTEX
  5
1899
  8
0
 10
-222.0200000000004
 20
114.9999999999999
 30
-5.0
 70
   192
  0
VERTEX
  5
189A
  8
0
 10
0.0
 20
0.0
 30
0.0
 70
   128
 71
     8
 72
     1
 73
    -2
  0
VERTEX
  5
189B
  8
0
 10
0.0
 20
0.0
 30
0.0
 70
   128
 71
    -5
 72
    -8
 73
    -2
  0
VERTEX
  5
189C
  8
0
 10
0.0
 20
0.0
 30
0.0
 70
   128
 71
     3
 72
     4
 73
    -5
  0
VERTEX
  5
189D
  8
0
 10
0.0
 20
0.0
 30
0.0
 70
   128
 71
     2
 72
    -3
 73
    -5
  0
VERTEX
  5
189E
  8
0
 10
0.0
 20
0.0
 30
0.0
 70
   128
 71
    -5
 72
     7
 73
    -8
  0
VERTEX
  5
189F
  8
0
 10
0.0
 20
0.0
 30
0.0
 70
   128
 71
     5
 72
     6
 73
    -7
  0
SEQEND
  5
1A1B
  8
0
  0
POLYLINE
  5
18A0
  8
0
 66
     1
 10
0.0
 20
0.0
 30
0.0
 70
    64
 71
     4
 72
     2
  0
VERTEX
  5
18A1
  8
0
 10
-282.0200000000004
 20
114.9999999999997
 30
-2.0
 70
   192
  0
VERTEX
  5
18A2
  8
0
 10
-282.0200000000004
 20
114.9999999999997
 30
-15.0
 70
   192
  0
VERTEX
  5
18A3
  8
0
 10
-282.0200000000007
 20
194.9999999999997
 30
-15.0
 70
   192
  0
VERTEX
  5
18A4
  8
0
 10
-282.0200000000007
 20
194.9999999999997
 30
-2.0
 70
   192
  0
VERTEX
  5
18A5
  8
0
 10
0.0
 20
0.0
 30
0.0
 70
   128
 71
     1
 72
     4
 73
    -3
  0
VERTEX
  5
18A6
  8
0
 10
0.0
 20
0.0
 30
0.0
 70
   128
 71
    -1
 72
     3
 73
     2
  0
SEQEND
  5
1A1C
  8
0
  0
POLYLINE
  5
18A7
  8
0
 66
     1
 10
0.0
 20
0.0
 30
0.0
 70
    64
 71
     6
 72
     4
  0
VERTEX
  5
18A8
  8
0
 10
-282.0200000000007
 20
194.9999999999997
 30
-2.0
 70
   192
  0
VERTEX
  5
18A9
  8
0
 10
-282.0200000000007
 20
194.9999999999997
 30
-15.0
 70
   192
  0
VERTEX
  5
18AA
  8
0
 10
-257.0200000000007
 20
194.9999999999998
 30
-15.0
 70
   192
  0
VERTEX
  5
18AB
  8
0
 10
-257.0200000000007
 20
194.9999999999998
 30
-5.0
 70
   192
  0
VERTEX
  5
18AC
  8
0
 10
-222.0200000000007
 20
194.9999999999999
 30
-5.0
 70
   192
  0
VERTEX
  5
18AD
  8
0
 10
-222.0200000000007
 20
195.0
 30
-2.0
 70
   192
  0
VERTEX
  5
18AE
  8
0
 10
0.0
 20
0.0
 30
0.0
 70
   128
 71
     4
 72
     3
 73
    -2
  0
VERTEX
  5
18AF
  8
0
 10
0.0
 20
0.0
 30
0.0
 70
   128
 71
    -4
 72
     2
 73
    -1
  0
VERTEX
  5
18B0
  8
0
 10
0.0
 20
0.0
 30
0.0
 70
   128
 71
     1
 72
     6
 73
    -5
  0
VERTEX
  5
18B1
  8
0
 10
0.0
 20
0.0
 30
0.0
 70
   128
 71
    -1
 72
     5
 73
    -4
  0
SEQEND
  5
1A1D
  8
0
  0
POLYLINE
  5
18B2
  8
0
 66
     1
 10
0.0
 20
0.0
 30
0.0
 70
    64
 71
     4
 72
     2
  0
VERTEX
  5
18B3
  8
0
 10
-222.0200000000007
 20
194.9999999999999
 30
-2.0
 70
   192
  0
VERTEX
  5
18B4
  8
0
 10
-222.0200000000004
 20
114.9999999999999
 30
-2.0
 70
   192
  0
VERTEX
  5
18B5
  8
0
 10
-222.0200000000004
 20
114.9999999999999
 30
-5.0
 70
   192
  0
VERTEX
  5
18B6
  8
0
 10
-222.0200000000007
 20
194.9999999999999
 30
-5.0
 70
   192
  0
VERTEX
  5
18B7
  8
0
 10
0.0
 20
0.0
 30
0.0
 70
   128
 71
     3
 72
     4
 73
    -1
  0
VERTEX
  5
18B8
  8
0
 10
0.0
 20
0.0
 30
0.0
 70
   128
 71
     2
 72
    -3
 73
     1
  0
SEQEND
  5
1A1E
  8
0
  0
POLYLINE
  5
18B9
  8
0
 66
     1
 10
0.0
 20
0.0
 30
0.0
 70
    64
 71
     6
 72
     4
  0
VERTEX
  5
18BA
  8
0
 10
-222.0200000000004
 20
114.9999999999999
 30
-2.0
 70
   192
  0
VERTEX
  5
18BB
  8
0
 10
-282.0200000000004
 20
114.9999999999997
 30
-2.0
 70
   192
  0
VERTEX
  5
18BC
  8
0
 10
-282.0200000000004
 20
114.9999999999997
 30
-15.0
 70
   192
  0
VERTEX
  5
18BD
  8
0
 10
-257.0200000000004
 20
114.9999999999998
 30
-15.0
 70
   192
  0
VERTEX
  5
18BE
  8
0
 10
-257.0200000000004
 20
114.9999999999998
 30
-5.0
 70
   192
  0
VERTEX
  5
18BF
  8
0
 10
-222.0200000000004
 20
114.9999999999999
 30
-5.0
 70
   192
  0
VERTEX
  5
18C0
  8
0
 10
0.0
 20
0.0
 30
0.0
 70
   128
 71
     3
 72
     4
 73
    -5
  0
VERTEX
  5
18C1
  8
0
 10
0.0
 20
0.0
 30
0.0
 70
   128
 71
     2
 72
    -3
 73
    -5
  0
VERTEX
  5
18C2
  8
0
 10
0.0
 20
0.0
 30
0.0
 70
   128
 71
     6
 72
     1
 73
    -2
  0
VERTEX
  5
18C3
  8
0
 10
0.0
 20
0.0
 30
0.0
 70
   128
 71
     5
 72
    -6
 73
    -2
  0
SEQEND
  5
1A1F
  8
0
  0
POLYLINE
  5
18C4
  8
0
 66
     1
 10
0.0
 20
0.0
 30
0.0
 70
    64
 71
     4
 72
     2
  0
VERTEX
  5
18C5
  8
0
 10
-282.0200000000007
 20
194.9999999999997
 30
-2.0
 70
   192
  0
VERTEX
  5
18C6
  8
0
 10
-222.0200000000007
 20
194.9999999999999
 30
-2.0
 70
   192
  0
VERTEX
  5
18C7
  8
0
 10
-222.0200000000004
 20
114.9999999999999
 30
-2.0
 70
   192
  0
VERTEX
  5
18C8
  8
0
 10
-282.0200000000004
 20
114.9999999999997
 30
-2.0
 70
   192
  0
VERTEX
  5
18C9
  8
0
 10
0.0
 20
0.0
 30
0.0
 70
   128
 71
     1
 72
     4
 73
    -3
  0
VERTEX
  5
18CA
  8
0
 10
0.0
 20
0.0
 30
0.0
 70
   128
 71
    -1
 72
     3
 73
     2
  0
SEQEND
  5
1A20
  8
0
  0
POLYLINE
  5
18CB
  8
0
 66
     1
 10
0.0
 20
0.0
 30
0.0
 70
    64
 71
     4
 72
     2
  0
VERTEX
  5
18CC
  8
0
 10
-277.0200000000004
 20
157.9999999999997
 30
-12.0
 70
   192
  0
VERTEX
  5
18CD
  8
0
 10
-277.0200000000004
 20
151.9999999999998
 30
-12.0
 70
   192
  0
VERTEX
  5
18CE
  8
0
 10
-277.0200000000004
 20
151.9999999999998
 30
-15.0
 70
   192
  0
VERTEX
  5
18CF
  8
0
 10
-277.0200000000004
 20
157.9999999999997
 30
-15.0
 70
   192
  0
VERTEX
  5
18D0
  8
0
 10
0.0
 20
0.0
 30
0.0
 70
   128
 71
     3
 72
     4
 73
    -1
  0
VERTEX
  5
18D1
  8
0
 10
0.0
 20
0.0
 30
0.0
 70
   128
 71
     2
 72
    -3
 73
     1
  0
SEQEND
  5
1A21
  8
0
  0
POLYLINE
  5
18D2
  8
0
 66
     1
 10
0.0
 20
0.0
 30
0.0
 70
    64
 71
     4
 72
     2
  0
VERTEX
  5
18D3
  8
0
 10
-277.0200000000004
 20
151.9999999999998
 30
-12.0
 70
   192
  0
VERTEX
  5
18D4
  8
0
 10
-257.0200000000007
 20
151.9999999999998
 30
-12.0
 70
   192
  0
VERTEX
  5
18D5
  8
0
 10
-257.0200000000007
 20
151.9999999999998
 30
-15.0
 70
   192
  0
VERTEX
  5
18D6
  8
0
 10
-277.0200000000004
 20
151.9999999999998
 30
-15.0
 70
   192
  0
VERTEX
  5
18D7
  8
0
 10
0.0
 20
0.0
 30
0.0
 70
   128
 71
     3
 72
     4
 73
    -1
  0
VERTEX
  5
18D8
  8
0
 10
0.0
 20
0.0
 30
0.0
 70
   128
 71
     2
 72
    -3
 73
     1
  0
SEQEND
  5
1A22
  8
0
  0
POLYLINE
  5
18D9
  8
0
 66
     1
 10
0.0
 20
0.0
 30
0.0
 70
    64
 71
     6
 72
     4
  0
VERTEX
  5
18DA
  8
0
 10
-257.0200000000007
 20
191.9999999999997
 30
-12.0
 70
   192
  0
VERTEX
  5
18DB
  8
0
 10
-257.0200000000007
 20
157.9999999999998
 30
-12.0
 70
   192
  0
VERTEX
  5
18DC
  8
0
 10
-257.0200000000007
 20
157.9999999999998
 30
-15.0
 70
   192
  0
VERTEX
  5
18DD
  8
0
 10
-257.0200000000007
 20
194.9999999999997
 30
-15.0
 70
   192
  0
VERTEX
  5
18DE
  8
0
 10
-257.0200000000007
 20
194.9999999999998
 30
-5.0
 70
   192
  0
VERTEX
  5
18DF
  8
0
 10
-257.0200000000007
 20
191.9999999999997
 30
-5.0
 70
   192
  0
VERTEX
  5
18E0
  8
0
 10
0.0
 20
0.0
 30
0.0
 70
   128
 71
     5
 72
     6
 73
    -1
  0
VERTEX
  5
18E1
  8
0
 10
0.0
 20
0.0
 30
0.0
 70
   128
 71
     4
 72
    -5
 73
    -1
  0
VERTEX
  5
18E2
  8
0
 10
0.0
 20
0.0
 30
0.0
 70
   128
 71
     2
 72
     3
 73
    -4
  0
VERTEX
  5
18E3
  8
0
 10
0.0
 20
0.0
 30
0.0
 70
   128
 71
     1
 72
    -2
 73
    -4
  0
SEQEND
  5
1A23
  8
0
  0
POLYLINE
  5
18E4
  8
0
 66
     1
 10
0.0
 20
0.0
 30
0.0
 70
    64
 71
     4
 72
     2
  0
VERTEX
  5
18E5
  8
0
 10
-257.0200000000007
 20
157.9999999999998
 30
-12.0
 70
   192
  0
VERTEX
  5
18E6
  8
0
 10
-277.0200000000004
 20
157.9999999999997
 30
-12.0
 70
   192
  0
VERTEX
  5
18E7
  8
0
 10
-277.0200000000004
 20
157.9999999999997
 30
-15.0
 70
   192
  0
VERTEX
  5
18E8
  8
0
 10
-257.0200000000007
 20
157.9999999999998
 30
-15.0
 70
   192
  0
VERTEX
  5
18E9
  8
0
 10
0.0
 20
0.0
 30
0.0
 70
   128
 71
     3
 72
     4
 73
    -1
  0
VERTEX
  5
18EA
  8
0
 10
0.0
 20
0.0
 30
0.0
 70
   128
 71
     2
 72
    -3
 73
     1
  0
SEQEND
  5
1A24
  8
0
  0
POLYLINE
  5
18EB
  8
0
 66
     1
 10
0.0
 20
0.0
 30
0.0
 70
    64
 71
     8
 72
     6
  0
VERTEX
  5
18EC
  8
0
 10
-277.0200000000004
 20
157.9999999999997
 30
-15.0
 70
   192
  0
VERTEX
  5
18ED
  8
0
 10
-277.0200000000004
 20
151.9999999999998
 30
-15.0
 70
   192
  0
VERTEX
  5
18EE
  8
0
 10
-257.0200000000007
 20
151.9999999999998
 30
-15.0
 70
   192
  0
VERTEX
  5
18EF
  8
0
 10
-257.0200000000004
 20
114.9999999999998
 30
-15.0
 70
   192
  0
VERTEX
  5
18F0
  8
0
 10
-282.0200000000004
 20
114.9999999999997
 30
-15.0
 70
   192
  0
VERTEX
  5
18F1
  8
0
 10
-282.0200000000007
 20
194.9999999999997
 30
-15.0
 70
   192
  0
VERTEX
  5
18F2
  8
0
 10
-257.0200000000007
 20
194.9999999999998
 30
-15.0
 70
   192
  0
VERTEX
  5
18F3
  8
0
 10
-257.0200000000007
 20
157.9999999999998
 30
-15.0
 70
   192
  0
VERTEX
  5
18F4
  8
0
 10
0.0
 20
0.0
 30
0.0
 70
   128
 71
     7
 72
     8
 73
    -1
  0
VERTEX
  5
18F5
  8
0
 10
0.0
 20
0.0
 30
0.0
 70
   128
 71
     6
 72
    -7
 73
    -1
  0
VERTEX
  5
18F6
  8
0
 10
0.0
 20
0.0
 30
0.0
 70
   128
 71
    -6
 72
     1
 73
    -2
  0
VERTEX
  5
18F7
  8
0
 10
0.0
 20
0.0
 30
0.0
 70
   128
 71
     5
 72
    -6
 73
    -2
  0
VERTEX
  5
18F8
  8
0
 10
0.0
 20
0.0
 30
0.0
 70
   128
 71
     3
 72
     4
 73
    -5
  0
VERTEX
  5
18F9
  8
0
 10
0.0
 20
0.0
 30
0.0
 70
   128
 71
     2
 72
    -3
 73
    -5
  0
SEQEND
  5
1A25
  8
0
  0
POLYLINE
  5
18FA
  8
0
 66
     1
 10
0.0
 20
0.0
 30
0.0
 70
    64
 71
     4
 72
     2
  0
VERTEX
  5
18FB
  8
0
 10
-279.0200000000007
 20
191.9999999999997
 30
-5.0
 70
   192
  0
VERTEX
  5
18FC
  8
0
 10
-279.0200000000004
 20
117.9999999999997
 30
-5.0
 70
   192
  0
VERTEX
  5
18FD
  8
0
 10
-279.0200000000004
 20
117.9999999999997
 30
-12.0
 70
   192
  0
VERTEX
  5
18FE
  8
0
 10
-279.0200000000007
 20
191.9999999999997
 30
-12.0
 70
   192
  0
VERTEX
  5
18FF
  8
0
 10
0.0
 20
0.0
 30
0.0
 70
   128
 71
     3
 72
     4
 73
    -1
  0
VERTEX
  5
1900
  8
0
 10
0.0
 20
0.0
 30
0.0
 70
   128
 71
     2
 72
    -3
 73
     1
  0
SEQEND
  5
1A26
  8
0
  0
POLYLINE
  5
1901
  8
0
 66
     1
 10
0.0
 20
0.0
 30
0.0
 70
    64
 71
     4
 72
     2
  0
VERTEX
  5
1902
  8
0
 10
-257.0200000000007
 20
191.9999999999998
 30
-5.0
 70
   192
  0
VERTEX
  5
1903
  8
0
 10
-279.0200000000007
 20
191.9999999999997
 30
-5.0
 70
   192
  0
VERTEX
  5
1904
  8
0
 10
-279.0200000000007
 20
191.9999999999997
 30
-12.0
 70
   192
  0
VERTEX
  5
1905
  8
0
 10
-257.0200000000007
 20
191.9999999999998
 30
-12.0
 70
   192
  0
VERTEX
  5
1906
  8
0
 10
0.0
 20
0.0
 30
0.0
 70
   128
 71
     3
 72
     4
 73
    -1
  0
VERTEX
  5
1907
  8
0
 10
0.0
 20
0.0
 30
0.0
 70
   128
 71
     2
 72
    -3
 73
     1
  0
SEQEND
  5
1A27
  8
0
  0
POLYLINE
  5
1908
  8
0
 66
     1
 10
0.0
 20
0.0
 30
0.0
 70
    64
 71
     4
 72
     2
  0
VERTEX
  5
1909
  8
0
 10
-257.0200000000005
 20
117.9999999999998
 30
-5.0
 70
   192
  0
VERTEX
  5
190A
  8
0
 10
-279.0200000000004
 20
117.9999999999997
 30
-5.0
 70
   192
  0
VERTEX
  5
190B
  8
0
 10
-279.0200000000004
 20
117.9999999999997
 30
-12.0
 70
   192
  0
VERTEX
  5
190C
  8
0
 10
-257.0200000000005
 20
117.9999999999998
 30
-12.0
 70
   192
  0
VERTEX
  5
190D
  8
0
 10
0.0
 20
0.0
 30
0.0
 70
   128
 71
     1
 72
     4
 73
    -3
  0
VERTEX
  5
190E
  8
0
 10
0.0
 20
0.0
 30
0.0
 70
   128
 71
    -1
 72
     3
 73
     2
  0
SEQEND
  5
1A28
  8
0
  0
POLYLINE
  5
190F
  8
0
 66
     1
 10
0.0
 20
0.0
 30
0.0
 70
    64
 71
     8
 72
     6
  0
VERTEX
  5
1910
  8
0
 10
-277.0200000000004
 20
151.9999999999998
 30
-12.0
 70
   192
  0
VERTEX
  5
1911
  8
0
 10
-257.0200000000007
 20
151.9999999999998
 30
-12.0
 70
   192
  0
VERTEX
  5
1912
  8
0
 10
-257.0200000000005
 20
117.9999999999998
 30
-12.0
 70
   192
  0
VERTEX
  5
1913
  8
0
 10
-279.0200000000004
 20
117.9999999999997
 30
-12.0
 70
   192
  0
VERTEX
  5
1914
  8
0
 10
-279.0200000000007
 20
191.9999999999997
 30
-12.0
 70
   192
  0
VERTEX
  5
1915
  8
0
 10
-257.0200000000007
 20
191.9999999999997
 30
-12.0
 70
   192
  0
VERTEX
  5
1916
  8
0
 10
-257.0200000000007
 20
157.9999999999998
 30
-12.0
 70
   192
  0
VERTEX
  5
1917
  8
0
 10
-277.0200000000004
 20
157.9999999999997
 30
-12.0
 70
   192
  0
VERTEX
  5
1918
  8
0
 10
0.0
 20
0.0
 30
0.0
 70
   128
 71
     8
 72
     7
 73
    -6
  0
VERTEX
  5
1919
  8
0
 10
0.0
 20
0.0
 30
0.0
 70
   128
 71
    -8
 72
     6
 73
    -5
  0
VERTEX
  5
191A
  8
0
 10
0.0
 20
0.0
 30
0.0
 70
   128
 71
    -5
 72
     1
 73
    -8
  0
VERTEX
  5
191B
  8
0
 10
0.0
 20
0.0
 30
0.0
 70
   128
 71
     5
 72
    -4
 73
    -1
  0
VERTEX
  5
191C
  8
0
 10
0.0
 20
0.0
 30
0.0
 70
   128
 71
     4
 72
     3
 73
    -2
  0
VERTEX
  5
191D
  8
0
 10
0.0
 20
0.0
 30
0.0
 70
   128
 71
    -4
 72
     2
 73
    -1
  0
SEQEND
  5
1A29
  8
0
  0
ENDBLK
  5
1A19
  8
0
  0
BLOCK
  8
0
  2
*X7
 70
     1
 10
0.0
 20
0.0
 30
0.0
  3
*X7
  1

  0
POLYLINE
  5
191F
  8
0
 66
     1
 10
0.0
 20
0.0
 30
0.0
 70
    64
 71
     6
 72
     4
  0
VERTEX
  5
1920
  8
0
 10
-257.0199999999991
 20
-171.9999999999991
 30
-12.0
 70
   192
  0
VERTEX
  5
1921
  8
0
 10
-257.019999999999
 20
-205.9999999999992
 30
-12.0
 70
   192
  0
VERTEX
  5
1922
  8
0
 10
-257.019999999999
 20
-205.9999999999992
 30
-5.0
 70
   192
  0
VERTEX
  5
1923
  8
0
 10
-257.019999999999
 20
-208.9999999999992
 30
-5.0
 70
   192
  0
VERTEX
  5
1924
  8
0
 10
-257.019999999999
 20
-208.9999999999992
 30
-15.0
 70
   192
  0
VERTEX
  5
1925
  8
0
 10
-257.0199999999991
 20
-171.9999999999991
 30
-15.0
 70
   192
  0
VERTEX
  5
1926
  8
0
 10
0.0
 20
0.0
 30
0.0
 70
   128
 71
     6
 72
     1
 73
    -2
  0
VERTEX
  5
1927
  8
0
 10
0.0
 20
0.0
 30
0.0
 70
   128
 71
     5
 72
    -6
 73
    -2
  0
VERTEX
  5
1928
  8
0
 10
0.0
 20
0.0
 30
0.0
 70
   128
 71
     3
 72
     4
 73
    -5
  0
VERTEX
  5
1929
  8
0
 10
0.0
 20
0.0
 30
0.0
 70
   128
 71
     2
 72
    -3
 73
    -5
  0
SEQEND
  5
1A2C
  8
0
  0
POLYLINE
  5
192A
  8
0
 66
     1
 10
0.0
 20
0.0
 30
0.0
 70
    64
 71
     8
 72
     6
  0
VERTEX
  5
192B
  8
0
 10
-279.0199999999994
 20
-131.9999999999993
 30
-5.0
 70
   192
  0
VERTEX
  5
192C
  8
0
 10
-257.0199999999994
 20
-131.9999999999993
 30
-5.0
 70
   192
  0
VERTEX
  5
192D
  8
0
 10
-257.0199999999994
 20
-128.9999999999993
 30
-5.0
 70
   192
  0
VERTEX
  5
192E
  8
0
 10
-222.0199999999993
 20
-128.9999999999992
 30
-5.0
 70
   192
  0
VERTEX
  5
192F
  8
0
 10
-222.019999999999
 20
-208.999999999999
 30
-5.0
 70
   192
  0
VERTEX
  5
1930
  8
0
 10
-257.019999999999
 20
-208.9999999999992
 30
-5.0
 70
   192
  0
VERTEX
  5
1931
  8
0
 10
-257.019999999999
 20
-205.9999999999992
 30
-5.0
 70
   192
  0
VERTEX
  5
1932
  8
0
 10
-279.0199999999991
 20
-205.9999999999993
 30
-5.0
 70
   192
  0
VERTEX
  5
1933
  8
0
 10
0.0
 20
0.0
 30
0.0
 70
   128
 71
     5
 72
     6
 73
    -7
  0
VERTEX
  5
1934
  8
0
 10
0.0
 20
0.0
 30
0.0
 70
   128
 71
     8
 72
     1
 73
    -2
  0
VERTEX
  5
1935
  8
0
 10
0.0
 20
0.0
 30
0.0
 70
   128
 71
     7
 72
    -8
 73
    -2
  0
VERTEX
  5
1936
  8
0
 10
0.0
 20
0.0
 30
0.0
 70
   128
 71
     4
 72
    -5
 73
    -7
  0
VERTEX
  5
1937
  8
0
 10
0.0
 20
0.0
 30
0.0
 70
   128
 71
    -2
 72
    -4
 73
    -7
  0
VERTEX
  5
1938
  8
0
 10
0.0
 20
0.0
 30
0.0
 70
   128
 71
     2
 72
     3
 73
    -4
  0
SEQEND
  5
1A2D
  8
0
  0
POLYLINE
  5
1939
  8
0
 66
     1
 10
0.0
 20
0.0
 30
0.0
 70
    64
 71
     4
 72
     2
  0
VERTEX
  5
193A
  8
0
 10
-282.0199999999991
 20
-208.9999999999993
 30
-2.0
 70
   192
  0
VERTEX
  5
193B
  8
0
 10
-282.0199999999991
 20
-208.9999999999993
 30
-15.0
 70
   192
  0
VERTEX
  5
193C
  8
0
 10
-282.0199999999994
 20
-128.9999999999993
 30
-15.0
 70
   192
  0
VERTEX
  5
193D
  8
0
 10
-282.0199999999994
 20
-128.9999999999993
 30
-2.0
 70
   192
  0
VERTEX
  5
193E
  8
0
 10
0.0
 20
0.0
 30
0.0
 70
   128
 71
     1
 72
     4
 73
    -3
  0
VERTEX
  5
193F
  8
0
 10
0.0
 20
0.0
 30
0.0
 70
   128
 71
    -1
 72
     3
 73
     2
  0
SEQEND
  5
1A2E
  8
0
  0
POLYLINE
  5
1940
  8
0
 66
     1
 10
0.0
 20
0.0
 30
0.0
 70
    64
 71
     6
 72
     4
  0
VERTEX
  5
1941
  8
0
 10
-282.0199999999994
 20
-128.9999999999993
 30
-2.0
 70
   192
  0
VERTEX
  5
1942
  8
0
 10
-282.0199999999994
 20
-128.9999999999993
 30
-15.0
 70
   192
  0
VERTEX
  5
1943
  8
0
 10
-257.0199999999994
 20
-128.9999999999993
 30
-15.0
 70
   192
  0
VERTEX
  5
1944
  8
0
 10
-257.0199999999994
 20
-128.9999999999993
 30
-5.0
 70
   192
  0
VERTEX
  5
1945
  8
0
 10
-222.0199999999993
 20
-128.9999999999992
 30
-5.0
 70
   192
  0
VERTEX
  5
1946
  8
0
 10
-222.0199999999993
 20
-128.9999999999992
 30
-2.0
 70
   192
  0
VERTEX
  5
1947
  8
0
 10
0.0
 20
0.0
 30
0.0
 70
   128
 71
     4
 72
     3
 73
    -2
  0
VERTEX
  5
1948
  8
0
 10
0.0
 20
0.0
 30
0.0
 70
   128
 71
    -4
 72
     2
 73
    -1
  0
VERTEX
  5
1949
  8
0
 10
0.0
 20
0.0
 30
0.0
 70
   128
 71
     1
 72
     6
 73
    -5
  0
VERTEX
  5
194A
  8
0
 10
0.0
 20
0.0
 30
0.0
 70
   128
 71
    -1
 72
     5
 73
    -4
  0
SEQEND
  5
1A2F
  8
0
  0
POLYLINE
  5
194B
  8
0
 66
     1
 10
0.0
 20
0.0
 30
0.0
 70
    64
 71
     4
 72
     2
  0
VERTEX
  5
194C
  8
0
 10
-222.0199999999993
 20
-128.9999999999993
 30
-2.0
 70
   192
  0
VERTEX
  5
194D
  8
0
 10
-222.019999999999
 20
-208.999999999999
 30
-2.0
 70
   192
  0
VERTEX
  5
194E
  8
0
 10
-222.019999999999
 20
-208.999999999999
 30
-5.0
 70
   192
  0
VERTEX
  5
194F
  8
0
 10
-222.0199999999993
 20
-128.9999999999993
 30
-5.0
 70
   192
  0
VERTEX
  5
1950
  8
0
 10
0.0
 20
0.0
 30
0.0
 70
   128
 71
     3
 72
     4
 73
    -1
  0
VERTEX
  5
1951
  8
0
 10
0.0
 20
0.0
 30
0.0
 70
   128
 71
     2
 72
    -3
 73
     1
  0
SEQEND
  5
1A30
  8
0
  0
POLYLINE
  5
1952
  8
0
 66
     1
 10
0.0
 20
0.0
 30
0.0
 70
    64
 71
     6
 72
     4
  0
VERTEX
  5
1953
  8
0
 10
-222.019999999999
 20
-208.999999999999
 30
-2.0
 70
   192
  0
VERTEX
  5
1954
  8
0
 10
-282.0199999999991
 20
-208.9999999999993
 30
-2.0
 70
   192
  0
VERTEX
  5
1955
  8
0
 10
-282.0199999999991
 20
-208.9999999999993
 30
-15.0
 70
   192
  0
VERTEX
  5
1956
  8
0
 10
-257.019999999999
 20
-208.9999999999992
 30
-15.0
 70
   192
  0
VERTEX
  5
1957
  8
0
 10
-257.019999999999
 20
-208.9999999999992
 30
-5.0
 70
   192
  0
VERTEX
  5
1958
  8
0
 10
-222.019999999999
 20
-208.999999999999
 30
-5.0
 70
   192
  0
VERTEX
  5
1959
  8
0
 10
0.0
 20
0.0
 30
0.0
 70
   128
 71
     3
 72
     4
 73
    -5
  0
VERTEX
  5
195A
  8
0
 10
0.0
 20
0.0
 30
0.0
 70
   128
 71
     2
 72
    -3
 73
    -5
  0
VERTEX
  5
195B
  8
0
 10
0.0
 20
0.0
 30
0.0
 70
   128
 71
     6
 72
     1
 73
    -2
  0
VERTEX
  5
195C
  8
0
 10
0.0
 20
0.0
 30
0.0
 70
   128
 71
     5
 72
    -6
 73
    -2
  0
SEQEND
  5
1A31
  8
0
  0
POLYLINE
  5
195D
  8
0
 66
     1
 10
0.0
 20
0.0
 30
0.0
 70
    64
 71
     4
 72
     2
  0
VERTEX
  5
195E
  8
0
 10
-282.0199999999994
 20
-128.9999999999993
 30
-2.0
 70
   192
  0
VERTEX
  5
195F
  8
0
 10
-222.0199999999993
 20
-128.9999999999993
 30
-2.0
 70
   192
  0
VERTEX
  5
1960
  8
0
 10
-222.019999999999
 20
-208.999999999999
 30
-2.0
 70
   192
  0
VERTEX
  5
1961
  8
0
 10
-282.0199999999991
 20
-208.9999999999993
 30
-2.0
 70
   192
  0
VERTEX
  5
1962
  8
0
 10
0.0
 20
0.0
 30
0.0
 70
   128
 71
     1
 72
     4
 73
    -3
  0
VERTEX
  5
1963
  8
0
 10
0.0
 20
0.0
 30
0.0
 70
   128
 71
    -1
 72
     3
 73
     2
  0
SEQEND
  5
1A32
  8
0
  0
POLYLINE
  5
1964
  8
0
 66
     1
 10
0.0
 20
0.0
 30
0.0
 70
    64
 71
     4
 72
     2
  0
VERTEX
  5
1965
  8
0
 10
-277.0199999999989
 20
-165.9999999999992
 30
-12.0
 70
   192
  0
VERTEX
  5
1966
  8
0
 10
-277.0199999999988
 20
-171.9999999999994
 30
-12.0
 70
   192
  0
VERTEX
  5
1967
  8
0
 10
-277.0199999999988
 20
-171.9999999999994
 30
-15.0
 70
   192
  0
VERTEX
  5
1968
  8
0
 10
-277.0199999999989
 20
-165.9999999999992
 30
-15.0
 70
   192
  0
VERTEX
  5
1969
  8
0
 10
0.0
 20
0.0
 30
0.0
 70
   128
 71
     3
 72
     4
 73
    -1
  0
VERTEX
  5
196A
  8
0
 10
0.0
 20
0.0
 30
0.0
 70
   128
 71
     2
 72
    -3
 73
     1
  0
SEQEND
  5
1A33
  8
0
  0
POLYLINE
  5
196B
  8
0
 66
     1
 10
0.0
 20
0.0
 30
0.0
 70
    64
 71
     4
 72
     2
  0
VERTEX
  5
196C
  8
0
 10
-277.0199999999988
 20
-171.9999999999995
 30
-12.0
 70
   192
  0
VERTEX
  5
196D
  8
0
 10
-257.0199999999991
 20
-171.9999999999991
 30
-12.0
 70
   192
  0
VERTEX
  5
196E
  8
0
 10
-257.0199999999991
 20
-171.9999999999991
 30
-15.0
 70
   192
  0
VERTEX
  5
196F
  8
0
 10
-277.0199999999988
 20
-171.9999999999995
 30
-15.0
 70
   192
  0
VERTEX
  5
1970
  8
0
 10
0.0
 20
0.0
 30
0.0
 70
   128
 71
     3
 72
     4
 73
    -1
  0
VERTEX
  5
1971
  8
0
 10
0.0
 20
0.0
 30
0.0
 70
   128
 71
     2
 72
    -3
 73
     1
  0
SEQEND
  5
1A34
  8
0
  0
POLYLINE
  5
1972
  8
0
 66
     1
 10
0.0
 20
0.0
 30
0.0
 70
    64
 71
     6
 72
     4
  0
VERTEX
  5
1973
  8
0
 10
-257.0199999999994
 20
-131.9999999999993
 30
-12.0
 70
   192
  0
VERTEX
  5
1974
  8
0
 10
-257.0199999999991
 20
-165.9999999999994
 30
-12.0
 70
   192
  0
VERTEX
  5
1975
  8
0
 10
-257.0199999999991
 20
-165.9999999999994
 30
-15.0
 70
   192
  0
VERTEX
  5
1976
  8
0
 10
-257.0199999999994
 20
-128.9999999999993
 30
-15.0
 70
   192
  0
VERTEX
  5
1977
  8
0
 10
-257.0199999999994
 20
-128.9999999999993
 30
-5.0
 70
   192
  0
VERTEX
  5
1978
  8
0
 10
-257.0199999999994
 20
-131.9999999999993
 30
-5.0
 70
   192
  0
VERTEX
  5
1979
  8
0
 10
0.0
 20
0.0
 30
0.0
 70
   128
 71
     5
 72
     6
 73
    -1
  0
VERTEX
  5
197A
  8
0
 10
0.0
 20
0.0
 30
0.0
 70
   128
 71
     4
 72
    -5
 73
    -1
  0
VERTEX
  5
197B
  8
0
 10
0.0
 20
0.0
 30
0.0
 70
   128
 71
     2
 72
     3
 73
    -4
  0
VERTEX
  5
197C
  8
0
 10
0.0
 20
0.0
 30
0.0
 70
   128
 71
     1
 72
    -2
 73
    -4
  0
SEQEND
  5
1A35
  8
0
  0
POLYLINE
  5
197D
  8
0
 66
     1
 10
0.0
 20
0.0
 30
0.0
 70
    64
 71
     4
 72
     2
  0
VERTEX
  5
197E
  8
0
 10
-257.0199999999991
 20
-165.9999999999994
 30
-12.0
 70
   192
  0
VERTEX
  5
197F
  8
0
 10
-277.019999999999
 20
-165.9999999999992
 30
-12.0
 70
   192
  0
VERTEX
  5
1980
  8
0
 10
-277.019999999999
 20
-165.9999999999992
 30
-15.0
 70
   192
  0
VERTEX
  5
1981
  8
0
 10
-257.0199999999991
 20
-165.9999999999994
 30
-15.0
 70
   192
  0
VERTEX
  5
1982
  8
0
 10
0.0
 20
0.0
 30
0.0
 70
   128
 71
     3
 72
     4
 73
    -1
  0
VERTEX
  5
1983
  8
0
 10
0.0
 20
0.0
 30
0.0
 70
   128
 71
     2
 72
    -3
 73
     1
  0
SEQEND
  5
1A36
  8
0
  0
POLYLINE
  5
1984
  8
0
 66
     1
 10
0.0
 20
0.0
 30
0.0
 70
    64
 71
     8
 72
     6
  0
VERTEX
  5
1985
  8
0
 10
-277.0199999999989
 20
-165.9999999999992
 30
-15.0
 70
   192
  0
VERTEX
  5
1986
  8
0
 10
-277.0199999999988
 20
-171.9999999999994
 30
-15.0
 70
   192
  0
VERTEX
  5
1987
  8
0
 10
-257.0199999999991
 20
-171.9999999999991
 30
-15.0
 70
   192
  0
VERTEX
  5
1988
  8
0
 10
-257.019999999999
 20
-208.9999999999992
 30
-15.0
 70
   192
  0
VERTEX
  5
1989
  8
0
 10
-282.0199999999991
 20
-208.9999999999993
 30
-15.0
 70
   192
  0
VERTEX
  5
198A
  8
0
 10
-282.0199999999994
 20
-128.9999999999993
 30
-15.0
 70
   192
  0
VERTEX
  5
198B
  8
0
 10
-257.0199999999994
 20
-128.9999999999993
 30
-15.0
 70
   192
  0
VERTEX
  5
198C
  8
0
 10
-257.0199999999991
 20
-165.9999999999994
 30
-15.0
 70
   192
  0
VERTEX
  5
198D
  8
0
 10
0.0
 20
0.0
 30
0.0
 70
   128
 71
     7
 72
     8
 73
    -1
  0
VERTEX
  5
198E
  8
0
 10
0.0
 20
0.0
 30
0.0
 70
   128
 71
     6
 72
    -7
 73
    -1
  0
VERTEX
  5
198F
  8
0
 10
0.0
 20
0.0
 30
0.0
 70
   128
 71
    -6
 72
     1
 73
    -2
  0
VERTEX
  5
1990
  8
0
 10
0.0
 20
0.0
 30
0.0
 70
   128
 71
     5
 72
    -6
 73
    -2
  0
VERTEX
  5
1991
  8
0
 10
0.0
 20
0.0
 30
0.0
 70
   128
 71
     3
 72
     4
 73
    -5
  0
VERTEX
  5
1992
  8
0
 10
0.0
 20
0.0
 30
0.0
 70
   128
 71
     2
 72
    -3
 73
    -5
  0
SEQEND
  5
1A37
  8
0
  0
POLYLINE
  5
1993
  8
0
 66
     1
 10
0.0
 20
0.0
 30
0.0
 70
    64
 71
     4
 72
     2
  0
VERTEX
  5
1994
  8
0
 10
-279.0199999999994
 20
-131.9999999999993
 30
-5.0
 70
   192
  0
VERTEX
  5
1995
  8
0
 10
-279.0199999999991
 20
-205.9999999999993
 30
-5.0
 70
   192
  0
VERTEX
  5
1996
  8
0
 10
-279.0199999999991
 20
-205.9999999999993
 30
-12.0
 70
   192
  0
VERTEX
  5
1997
  8
0
 10
-279.0199999999994
 20
-131.9999999999993
 30
-12.0
 70
   192
  0
VERTEX
  5
1998
  8
0
 10
0.0
 20
0.0
 30
0.0
 70
   128
 71
     3
 72
     4
 73
    -1
  0
VERTEX
  5
1999
  8
0
 10
0.0
 20
0.0
 30
0.0
 70
   128
 71
     2
 72
    -3
 73
     1
  0
SEQEND
  5
1A38
  8
0
  0
POLYLINE
  5
199A
  8
0
 66
     1
 10
0.0
 20
0.0
 30
0.0
 70
    64
 71
     4
 72
     2
  0
VERTEX
  5
199B
  8
0
 10
-257.0199999999994
 20
-131.9999999999993
 30
-5.0
 70
   192
  0
VERTEX
  5
199C
  8
0
 10
-279.0199999999994
 20
-131.9999999999993
 30
-5.0
 70
   192
  0
VERTEX
  5
199D
  8
0
 10
-279.0199999999994
 20
-131.9999999999993
 30
-12.0
 70
   192
  0
VERTEX
  5
199E
  8
0
 10
-257.0199999999994
 20
-131.9999999999993
 30
-12.0
 70
   192
  0
VERTEX
  5
199F
  8
0
 10
0.0
 20
0.0
 30
0.0
 70
   128
 71
     3
 72
     4
 73
    -1
  0
VERTEX
  5
19A0
  8
0
 10
0.0
 20
0.0
 30
0.0
 70
   128
 71
     2
 72
    -3
 73
     1
  0
SEQEND
  5
1A39
  8
0
  0
POLYLINE
  5
19A1
  8
0
 66
     1
 10
0.0
 20
0.0
 30
0.0
 70
    64
 71
     4
 72
     2
  0
VERTEX
  5
19A2
  8
0
 10
-257.019999999999
 20
-205.9999999999992
 30
-5.0
 70
   192
  0
VERTEX
  5
19A3
  8
0
 10
-279.0199999999991
 20
-205.9999999999993
 30
-5.0
 70
   192
  0
VERTEX
  5
19A4
  8
0
 10
-279.0199999999991
 20
-205.9999999999993
 30
-12.0
 70
   192
  0
VERTEX
  5
19A5
  8
0
 10
-257.019999999999
 20
-205.9999999999992
 30
-12.0
 70
   192
  0
VERTEX
  5
19A6
  8
0
 10
0.0
 20
0.0
 30
0.0
 70
   128
 71
     1
 72
     4
 73
    -3
  0
VERTEX
  5
19A7
  8
0
 10
0.0
 20
0.0
 30
0.0
 70
   128
 71
    -1
 72
     3
 73
     2
  0
SEQEND
  5
1A3A
  8
0
  0
POLYLINE
  5
19A8
  8
0
 66
     1
 10
0.0
 20
0.0
 30
0.0
 70
    64
 71
     8
 72
     6
  0
VERTEX
  5
19A9
  8
0
 10
-277.0199999999988
 20
-171.9999999999995
 30
-12.0
 70
   192
  0
VERTEX
  5
19AA
  8
0
 10
-257.0199999999991
 20
-171.9999999999991
 30
-12.0
 70
   192
  0
VERTEX
  5
19AB
  8
0
 10
-257.019999999999
 20
-205.9999999999992
 30
-12.0
 70
   192
  0
VERTEX
  5
19AC
  8
0
 10
-279.0199999999991
 20
-205.9999999999993
 30
-12.0
 70
   192
  0
VERTEX
  5
19AD
  8
0
 10
-279.0199999999994
 20
-131.9999999999993
 30
-12.0
 70
   192
  0
VERTEX
  5
19AE
  8
0
 10
-257.0199999999994
 20
-131.9999999999993
 30
-12.0
 70
   192
  0
VERTEX
  5
19AF
  8
0
 10
-257.0199999999991
 20
-165.9999999999994
 30
-12.0
 70
   192
  0
VERTEX
  5
19B0
  8
0
 10
-277.0199999999989
 20
-165.9999999999992
 30
-12.0
 70
   192
  0
VERTEX
  5
19B1
  8
0
 10
0.0
 20
0.0
 30
0.0
 70
   128
 71
     8
 72
     7
 73
    -6
  0
VERTEX
  5
19B2
  8
0
 10
0.0
 20
0.0
 30
0.0
 70
   128
 71
    -8
 72
     6
 73
    -5
  0
VERTEX
  5
19B3
  8
0
 10
0.0
 20
0.0
 30
0.0
 70
   128
 71
    -5
 72
     1
 73
    -8
  0
VERTEX
  5
19B4
  8
0
 10
0.0
 20
0.0
 30
0.0
 70
   128
 71
     5
 72
    -4
 73
    -1
  0
VERTEX
  5
19B5
  8
0
 10
0.0
 20
0.0
 30
0.0
 70
   128
 71
     4
 72
     3
 73
    -2
  0
VERTEX
  5
19B6
  8
0
 10
0.0
 20
0.0
 30
0.0
 70
   128
 71
    -4
 72
     2
 73
    -1
  0
SEQEND
  5
1A3B
  8
0
  0
ENDBLK
  5
1A2B
  8
0
  0
ENDSEC
  0
SECTION
  2
ENTITIES
  0
INSERT
  5
D80
  8
0
  2
*X1
 10
0.0
 20
0.0
 30
0.0
  0
INSERT
  5
D81
  8
0
  2
*X2
 10
0.0
 20
0.0
 30
0.0
  0
INSERT
  5
D82
  8
0
  2
*X3
 10
0.0
 20
0.0
 30
0.0
  0
INSERT
  5
D83
  8
0
  2
*X4
 10
0.0
 20
0.0
 30
0.0
  0
INSERT
  5
D84
  8
0
  2
*X5
 10
0.0
 20
0.0
 30
0.0
  0
INSERT
  5
D85
  8
0
  2
*X6
 10
0.0
 20
0.0
 30
0.0
  0
INSERT
  5
D86
  8
0
  2
*X7
 10
0.0
 20
0.0
 30
0.0
  0
ENDSEC
  0
EOF
