  0
SECTION
  2
HEADER
  9
$ACADVER
  1
AC1009
  9
$DWGCODEPAGE
  3
ansi_1250
  9
$INSBASE
 10
0.0
 20
0.0
 30
0.0
  9
$EXTMIN
 10
-449.9999999999998
 20
-250.0
 30
-20.00000000000004
  9
$EXTMAX
 10
450.0000000000001
 20
250.0000000000001
 30
0.0000000000000995
  9
$LIMMIN
 10
0.0
 20
0.0
  9
$LIMMAX
 10
420.0
 20
297.0
  9
$ORTHOMODE
 70
     0
  9
$REGENMODE
 70
     1
  9
$FILLMODE
 70
     1
  9
$QTEXTMODE
 70
     0
  9
$MIRRTEXT
 70
     0
  9
$DRAGMODE
 70
     2
  9
$LTSCALE
 40
1.0
  9
$OSMODE
 70
   511
  9
$ATTMODE
 70
     1
  9
$TEXTSIZE
 40
2.5
  9
$TRACEWID
 40
1.0
  9
$TEXTSTYLE
  7
STANDARD
  9
$CLAYER
  8
0
  9
$CELTYPE
  6
BYLAYER
  9
$CECOLOR
 62
   256
  9
$DIMSCALE
 40
1.0
  9
$DIMASZ
 40
2.5
  9
$DIMEXO
 40
0.625
  9
$DIMDLI
 40
3.75
  9
$DIMRND
 40
0.0
  9
$DIMDLE
 40
0.0
  9
$DIMEXE
 40
1.25
  9
$DIMTP
 40
0.0
  9
$DIMTM
 40
0.0
  9
$DIMTXT
 40
2.5
  9
$DIMCEN
 40
-2.5
  9
$DIMTSZ
 40
0.0
  9
$DIMTOL
 70
     0
  9
$DIMLIM
 70
     0
  9
$DIMTIH
 70
     0
  9
$DIMTOH
 70
     0
  9
$DIMSE1
 70
     0
  9
$DIMSE2
 70
     0
  9
$DIMTAD
 70
     1
  9
$DIMZIN
 70
     8
  9
$DIMBLK
  1

  9
$DIMASO
 70
     1
  9
$DIMSHO
 70
     1
  9
$DIMPOST
  1

  9
$DIMAPOST
  1

  9
$DIMALT
 70
     0
  9
$DIMALTD
 70
     3
  9
$DIMALTF
 40
0.03937007874016
  9
$DIMLFAC
 40
1.0
  9
$DIMTOFL
 70
     1
  9
$DIMTVP
 40
0.0
  9
$DIMTIX
 70
     0
  9
$DIMSOXD
 70
     0
  9
$DIMSAH
 70
     0
  9
$DIMBLK1
  1

  9
$DIMBLK2
  1

  9
$DIMSTYLE
  2
ISO-25
  9
$DIMCLRD
 70
     0
  9
$DIMCLRE
 70
     0
  9
$DIMCLRT
 70
     0
  9
$DIMTFAC
 40
1.0
  9
$DIMGAP
 40
0.625
  9
$LUNITS
 70
     2
  9
$LUPREC
 70
     3
  9
$SKETCHINC
 40
1.0
  9
$FILLETRAD
 40
10.0
  9
$AUNITS
 70
     0
  9
$AUPREC
 70
     0
  9
$MENU
  1
.
  9
$ELEVATION
 40
0.0
  9
$PELEVATION
 40
0.0
  9
$THICKNESS
 40
0.0
  9
$LIMCHECK
 70
     0
  9
$CHAMFERA
 40
10.0
  9
$CHAMFERB
 40
10.0
  9
$SKPOLY
 70
     0
  9
$TDCREATE
 40
2455022.720692848
  9
$TDUPDATE
 40
2460535.569510799
  9
$TDINDWG
 40
0.0014248032
  9
$TDUSRTIMER
 40
0.0014248032
  9
$USRTIMER
 70
     1
  9
$ANGBASE
 50
0.0
  9
$ANGDIR
 70
     0
  9
$PDMODE
 70
     0
  9
$PDSIZE
 40
0.0
  9
$PLINEWID
 40
0.0
  9
$COORDS
 70
     1
  9
$SPLFRAME
 70
     0
  9
$SPLINETYPE
 70
     6
  9
$SPLINESEGS
 70
     8
  9
$ATTDIA
 70
     0
  9
$ATTREQ
 70
     1
  9
$HANDLING
 70
     1
  9
$HANDSEED
  5
3106
  9
$SURFTAB1
 70
     6
  9
$SURFTAB2
 70
     6
  9
$SURFTYPE
 70
     6
  9
$SURFU
 70
     6
  9
$SURFV
 70
     6
  9
$UCSNAME
  2

  9
$UCSORG
 10
0.0
 20
0.0
 30
0.0
  9
$UCSXDIR
 10
1.0
 20
0.0
 30
0.0
  9
$UCSYDIR
 10
0.0
 20
1.0
 30
0.0
  9
$PUCSNAME
  2

  9
$PUCSORG
 10
0.0
 20
0.0
 30
0.0
  9
$PUCSXDIR
 10
1.0
 20
0.0
 30
0.0
  9
$PUCSYDIR
 10
0.0
 20
1.0
 30
0.0
  9
$USERI1
 70
     0
  9
$USERI2
 70
     0
  9
$USERI3
 70
     0
  9
$USERI4
 70
     0
  9
$USERI5
 70
     0
  9
$USERR1
 40
0.0
  9
$USERR2
 40
0.0
  9
$USERR3
 40
0.0
  9
$USERR4
 40
0.0
  9
$USERR5
 40
0.0
  9
$WORLDVIEW
 70
     1
  9
$SHADEDGE
 70
     3
  9
$SHADEDIF
 70
    70
  9
$TILEMODE
 70
     1
  9
$MAXACTVP
 70
    64
  9
$PLIMCHECK
 70
     0
  9
$PEXTMIN
 10
1.000000000000000E+20
 20
1.000000000000000E+20
 30
1.000000000000000E+20
  9
$PEXTMAX
 10
-1.000000000000000E+20
 20
-1.000000000000000E+20
 30
-1.000000000000000E+20
  9
$PLIMMIN
 10
0.0
 20
0.0
  9
$PLIMMAX
 10
0.0
 20
0.0
  9
$UNITMODE
 70
     0
  9
$VISRETAIN
 70
     1
  9
$PLINEGEN
 70
     0
  9
$PSLTSCALE
 70
     1
  0
ENDSEC
  0
SECTION
  2
TABLES
  0
TABLE
  2
VPORT
 70
     1
  0
VPORT
  2
*ACTIVE
 70
     0
 10
0.0
 20
0.0
 11
1.0
 21
1.0
 12
-94.88447817080794
 22
-62.94654482311037
 13
0.0
 23
0.0
 14
10.0
 24
10.0
 15
10.0
 25
10.0
 16
0.5773502691896226
 26
0.5773502691896226
 36
0.5773502691896226
 17
-134.1869158878504
 27
-0.0000000000000284
 37
0.0
 40
516.352437778694
 41
1.961089494163424
 42
50.0
 43
0.0
 44
0.0
 50
0.0
 51
0.0
 71
    16
 72
  1000
 73
     1
 74
     3
 75
     0
 76
     0
 77
     0
 78
     0
  0
ENDTAB
  0
TABLE
  2
LTYPE
 70
     1
  0
LTYPE
  2
CONTINUOUS
 70
     0
  3
Solid line
 72
    65
 73
     0
 40
0.0
  0
ENDTAB
  0
TABLE
  2
LAYER
 70
     1
  0
LAYER
  2
0
 70
     0
 62
     7
  6
CONTINUOUS
  0
ENDTAB
  0
TABLE
  2
STYLE
 70
     2
  0
STYLE
  2
STANDARD
 70
     0
 40
0.0
 41
1.0
 50
0.0
 71
     0
 42
2.5
  3
arial.ttf
  4

  0
STYLE
  2
ANNOTATIVE
 70
     0
 40
0.0
 41
1.0
 50
0.0
 71
     0
 42
2.5
  3
arial.ttf
  4

  0
ENDTAB
  0
TABLE
  2
VIEW
 70
     0
  0
ENDTAB
  0
TABLE
  2
UCS
 70
     0
  0
ENDTAB
  0
TABLE
  2
APPID
 70
     2
  0
APPID
  2
ACAD
 70
     0
  0
APPID
  2
ACADANNOTATIVE
 70
     0
  0
ENDTAB
  0
TABLE
  2
DIMSTYLE
 70
     2
  0
DIMSTYLE
  2
ISO-25
 70
     0
  3

  4

  5

  6

  7

 40
1.0
 41
2.5
 42
0.625
 43
3.75
 44
1.25
 45
0.0
 46
0.0
 47
0.0
 48
0.0
140
2.5
141
-2.5
142
0.0
143
0.03937007874016
144
1.0
145
0.0
146
1.0
147
0.625
 71
     0
 72
     0
 73
     0
 74
     0
 75
     0
 76
     0
 77
     1
 78
     8
170
     0
171
     3
172
     1
173
     0
174
     0
175
     0
176
     0
177
     0
178
     0
  0
DIMSTYLE
  2
ANNOTATIVE
 70
     0
  3

  4

  5

  6

  7

 40
0.0
 41
2.5
 42
0.625
 43
3.75
 44
1.25
 45
0.0
 46
0.0
 47
0.0
 48
0.0
140
2.5
141
-2.5
142
0.0
143
0.03937007874016
144
1.0
145
0.0
146
1.0
147
0.625
 71
     0
 72
     0
 73
     0
 74
     0
 75
     0
 76
     0
 77
     1
 78
     8
170
     0
171
     3
172
     1
173
     0
174
     0
175
     0
176
     0
177
     0
178
     0
  0
ENDTAB
  0
ENDSEC
  0
SECTION
  2
BLOCKS
  0
BLOCK
  8
0
  2
$MODEL_SPACE
 70
     0
 10
0.0
 20
0.0
 30
0.0
  3
$MODEL_SPACE
  1

  0
ENDBLK
  5
21
  8
0
  0
BLOCK
 67
     1
  8
0
  2
$PAPER_SPACE
 70
     0
 10
0.0
 20
0.0
 30
0.0
  3
$PAPER_SPACE
  1

  0
ENDBLK
  5
1D
 67
     1
  8
0
  0
BLOCK
  8
0
  2
*X1
 70
     1
 10
0.0
 20
0.0
 30
0.0
  3
*X1
  1

  0
POLYLINE
  5
2AB0
  8
0
 66
     1
 10
0.0
 20
0.0
 30
0.0
 70
    64
 71
     8
 72
     6
  0
VERTEX
  5
2AB1
  8
0
 10
443.3012701892221
 20
225.0
 30
0.0
 70
   192
  0
VERTEX
  5
2AB2
  8
0
 10
443.3012701892221
 20
225.0
 30
-2.0
 70
   192
  0
VERTEX
  5
2AB3
  8
0
 10
425.0000000000002
 20
243.301270189222
 30
-2.0
 70
   192
  0
VERTEX
  5
2AB4
  8
0
 10
425.0000000000002
 20
243.301270189222
 30
0.0
 70
   192
  0
VERTEX
  5
2AB5
  8
0
 10
450.0000000000002
 20
200.0000000000001
 30
0.0
 70
   192
  0
VERTEX
  5
2AB6
  8
0
 10
450.0000000000001
 20
200.0000000000001
 30
-2.0
 70
   192
  0
VERTEX
  5
2AB7
  8
0
 10
400.0000000000002
 20
250.0
 30
-2.0
 70
   192
  0
VERTEX
  5
2AB8
  8
0
 10
400.0000000000002
 20
250.0000000000001
 30
0.0
 70
   192
  0
VERTEX
  5
2AB9
  8
0
 10
0.0
 20
0.0
 30
0.0
 70
   128
 71
     1
 72
     2
 73
    -3
  0
VERTEX
  5
2ABA
  8
0
 10
0.0
 20
0.0
 30
0.0
 70
   128
 71
    -1
 72
     3
 73
     4
  0
VERTEX
  5
2ABB
  8
0
 10
0.0
 20
0.0
 30
0.0
 70
   128
 71
     5
 72
     6
 73
    -2
  0
VERTEX
  5
2ABC
  8
0
 10
0.0
 20
0.0
 30
0.0
 70
   128
 71
    -5
 72
     2
 73
     1
  0
VERTEX
  5
2ABD
  8
0
 10
0.0
 20
0.0
 30
0.0
 70
   128
 71
     4
 72
     3
 73
    -7
  0
VERTEX
  5
2ABE
  8
0
 10
0.0
 20
0.0
 30
0.0
 70
   128
 71
    -4
 72
     7
 73
     8
  0
SEQEND
  5
3083
  8
0
  0
POLYLINE
  5
2ABF
  8
0
 66
     1
 10
0.0
 20
0.0
 30
0.0
 70
    64
 71
     4
 72
     2
  0
VERTEX
  5
2AC0
  8
0
 10
450.0000000000001
 20
200.0000000000001
 30
0.0
 70
   192
  0
VERTEX
  5
2AC1
  8
0
 10
450.0000000000002
 20
-199.9999999999999
 30
0.0
 70
   192
  0
VERTEX
  5
2AC2
  8
0
 10
450.0000000000002
 20
-199.9999999999999
 30
-2.0
 70
   192
  0
VERTEX
  5
2AC3
  8
0
 10
450.0000000000001
 20
200.0000000000001
 30
-2.0
 70
   192
  0
VERTEX
  5
2AC4
  8
0
 10
0.0
 20
0.0
 30
0.0
 70
   128
 71
     3
 72
     4
 73
    -1
  0
VERTEX
  5
2AC5
  8
0
 10
0.0
 20
0.0
 30
0.0
 70
   128
 71
     2
 72
    -3
 73
     1
  0
SEQEND
  5
3084
  8
0
  0
POLYLINE
  5
2AC6
  8
0
 66
     1
 10
0.0
 20
0.0
 30
0.0
 70
    64
 71
     8
 72
     6
  0
VERTEX
  5
2AC7
  8
0
 10
425.0000000000001
 20
-243.3012701892219
 30
0.0
 70
   192
  0
VERTEX
  5
2AC8
  8
0
 10
425.0000000000001
 20
-243.3012701892219
 30
-2.0
 70
   192
  0
VERTEX
  5
2AC9
  8
0
 10
443.3012701892221
 20
-225.0
 30
-2.0
 70
   192
  0
VERTEX
  5
2ACA
  8
0
 10
443.3012701892221
 20
-225.0
 30
0.0
 70
   192
  0
VERTEX
  5
2ACB
  8
0
 10
400.0000000000001
 20
-250.0
 30
0.0
 70
   192
  0
VERTEX
  5
2ACC
  8
0
 10
400.0000000000001
 20
-249.9999999999999
 30
-2.0
 70
   192
  0
VERTEX
  5
2ACD
  8
0
 10
450.0000000000002
 20
-199.9999999999999
 30
-2.0
 70
   192
  0
VERTEX
  5
2ACE
  8
0
 10
450.0000000000002
 20
-199.9999999999999
 30
0.0
 70
   192
  0
VERTEX
  5
2ACF
  8
0
 10
0.0
 20
0.0
 30
0.0
 70
   128
 71
     1
 72
     2
 73
    -3
  0
VERTEX
  5
2AD0
  8
0
 10
0.0
 20
0.0
 30
0.0
 70
   128
 71
    -1
 72
     3
 73
     4
  0
VERTEX
  5
2AD1
  8
0
 10
0.0
 20
0.0
 30
0.0
 70
   128
 71
     5
 72
     6
 73
    -2
  0
VERTEX
  5
2AD2
  8
0
 10
0.0
 20
0.0
 30
0.0
 70
   128
 71
    -5
 72
     2
 73
     1
  0
VERTEX
  5
2AD3
  8
0
 10
0.0
 20
0.0
 30
0.0
 70
   128
 71
     4
 72
     3
 73
    -7
  0
VERTEX
  5
2AD4
  8
0
 10
0.0
 20
0.0
 30
0.0
 70
   128
 71
    -4
 72
     7
 73
     8
  0
SEQEND
  5
3085
  8
0
  0
POLYLINE
  5
2AD5
  8
0
 66
     1
 10
0.0
 20
0.0
 30
0.0
 70
    64
 71
     4
 72
     2
  0
VERTEX
  5
2AD6
  8
0
 10
400.0000000000001
 20
-249.9999999999999
 30
0.0
 70
   192
  0
VERTEX
  5
2AD7
  8
0
 10
400.0000000000001
 20
-249.9999999999999
 30
-2.0
 70
   192
  0
VERTEX
  5
2AD8
  8
0
 10
-399.9999999999998
 20
-250.0
 30
-2.0
 70
   192
  0
VERTEX
  5
2AD9
  8
0
 10
-399.9999999999999
 20
-250.0
 30
0.0
 70
   192
  0
VERTEX
  5
2ADA
  8
0
 10
0.0
 20
0.0
 30
0.0
 70
   128
 71
     1
 72
     4
 73
    -3
  0
VERTEX
  5
2ADB
  8
0
 10
0.0
 20
0.0
 30
0.0
 70
   128
 71
    -1
 72
     3
 73
     2
  0
SEQEND
  5
3086
  8
0
  0
POLYLINE
  5
2ADC
  8
0
 66
     1
 10
0.0
 20
0.0
 30
0.0
 70
    64
 71
     8
 72
     6
  0
VERTEX
  5
2ADD
  8
0
 10
-443.3012701892217
 20
-225.0000000000001
 30
0.0
 70
   192
  0
VERTEX
  5
2ADE
  8
0
 10
-443.3012701892217
 20
-225.0000000000001
 30
-2.0
 70
   192
  0
VERTEX
  5
2ADF
  8
0
 10
-424.9999999999998
 20
-243.3012701892219
 30
-2.0
 70
   192
  0
VERTEX
  5
2AE0
  8
0
 10
-424.9999999999998
 20
-243.3012701892219
 30
0.0
 70
   192
  0
VERTEX
  5
2AE1
  8
0
 10
-449.9999999999998
 20
-200.0000000000001
 30
0.0
 70
   192
  0
VERTEX
  5
2AE2
  8
0
 10
-449.9999999999998
 20
-200.0000000000001
 30
-2.0
 70
   192
  0
VERTEX
  5
2AE3
  8
0
 10
-399.9999999999998
 20
-250.0
 30
-2.0
 70
   192
  0
VERTEX
  5
2AE4
  8
0
 10
-399.9999999999998
 20
-250.0
 30
0.0
 70
   192
  0
VERTEX
  5
2AE5
  8
0
 10
0.0
 20
0.0
 30
0.0
 70
   128
 71
     1
 72
     2
 73
    -3
  0
VERTEX
  5
2AE6
  8
0
 10
0.0
 20
0.0
 30
0.0
 70
   128
 71
    -1
 72
     3
 73
     4
  0
VERTEX
  5
2AE7
  8
0
 10
0.0
 20
0.0
 30
0.0
 70
   128
 71
     5
 72
     6
 73
    -2
  0
VERTEX
  5
2AE8
  8
0
 10
0.0
 20
0.0
 30
0.0
 70
   128
 71
    -5
 72
     2
 73
     1
  0
VERTEX
  5
2AE9
  8
0
 10
0.0
 20
0.0
 30
0.0
 70
   128
 71
     4
 72
     3
 73
    -7
  0
VERTEX
  5
2AEA
  8
0
 10
0.0
 20
0.0
 30
0.0
 70
   128
 71
    -4
 72
     7
 73
     8
  0
SEQEND
  5
3087
  8
0
  0
POLYLINE
  5
2AEB
  8
0
 66
     1
 10
0.0
 20
0.0
 30
0.0
 70
    64
 71
     4
 72
     2
  0
VERTEX
  5
2AEC
  8
0
 10
-449.9999999999998
 20
-200.0000000000001
 30
0.0
 70
   192
  0
VERTEX
  5
2AED
  8
0
 10
-449.9999999999998
 20
-200.0000000000001
 30
-2.0
 70
   192
  0
VERTEX
  5
2AEE
  8
0
 10
-449.9999999999998
 20
200.0
 30
-2.0
 70
   192
  0
VERTEX
  5
2AEF
  8
0
 10
-449.9999999999998
 20
199.9999999999999
 30
0.0
 70
   192
  0
VERTEX
  5
2AF0
  8
0
 10
0.0
 20
0.0
 30
0.0
 70
   128
 71
     1
 72
     4
 73
    -3
  0
VERTEX
  5
2AF1
  8
0
 10
0.0
 20
0.0
 30
0.0
 70
   128
 71
    -1
 72
     3
 73
     2
  0
SEQEND
  5
3088
  8
0
  0
POLYLINE
  5
2AF2
  8
0
 66
     1
 10
0.0
 20
0.0
 30
0.0
 70
    64
 71
     8
 72
     6
  0
VERTEX
  5
2AF3
  8
0
 10
-424.9999999999998
 20
243.3012701892218
 30
0.0
 70
   192
  0
VERTEX
  5
2AF4
  8
0
 10
-424.9999999999998
 20
243.3012701892218
 30
-2.0
 70
   192
  0
VERTEX
  5
2AF5
  8
0
 10
-443.3012701892218
 20
224.9999999999999
 30
-2.0
 70
   192
  0
VERTEX
  5
2AF6
  8
0
 10
-443.3012701892218
 20
224.9999999999999
 30
0.0
 70
   192
  0
VERTEX
  5
2AF7
  8
0
 10
-399.9999999999999
 20
249.9999999999999
 30
0.0
 70
   192
  0
VERTEX
  5
2AF8
  8
0
 10
-399.9999999999999
 20
249.9999999999999
 30
-2.0
 70
   192
  0
VERTEX
  5
2AF9
  8
0
 10
-449.9999999999998
 20
200.0
 30
-2.0
 70
   192
  0
VERTEX
  5
2AFA
  8
0
 10
-449.9999999999998
 20
200.0
 30
0.0
 70
   192
  0
VERTEX
  5
2AFB
  8
0
 10
0.0
 20
0.0
 30
0.0
 70
   128
 71
     1
 72
     2
 73
    -3
  0
VERTEX
  5
2AFC
  8
0
 10
0.0
 20
0.0
 30
0.0
 70
   128
 71
    -1
 72
     3
 73
     4
  0
VERTEX
  5
2AFD
  8
0
 10
0.0
 20
0.0
 30
0.0
 70
   128
 71
     5
 72
     6
 73
    -2
  0
VERTEX
  5
2AFE
  8
0
 10
0.0
 20
0.0
 30
0.0
 70
   128
 71
    -5
 72
     2
 73
     1
  0
VERTEX
  5
2AFF
  8
0
 10
0.0
 20
0.0
 30
0.0
 70
   128
 71
     4
 72
     3
 73
    -7
  0
VERTEX
  5
2B00
  8
0
 10
0.0
 20
0.0
 30
0.0
 70
   128
 71
    -4
 72
     7
 73
     8
  0
SEQEND
  5
3089
  8
0
  0
POLYLINE
  5
2B01
  8
0
 66
     1
 10
0.0
 20
0.0
 30
0.0
 70
    64
 71
     4
 72
     2
  0
VERTEX
  5
2B02
  8
0
 10
-399.9999999999999
 20
249.9999999999999
 30
0.0
 70
   192
  0
VERTEX
  5
2B03
  8
0
 10
400.0000000000002
 20
250.0000000000001
 30
0.0
 70
   192
  0
VERTEX
  5
2B04
  8
0
 10
400.0000000000002
 20
250.0000000000001
 30
-2.0
 70
   192
  0
VERTEX
  5
2B05
  8
0
 10
-399.9999999999999
 20
249.9999999999999
 30
-2.0
 70
   192
  0
VERTEX
  5
2B06
  8
0
 10
0.0
 20
0.0
 30
0.0
 70
   128
 71
     3
 72
     4
 73
    -1
  0
VERTEX
  5
2B07
  8
0
 10
0.0
 20
0.0
 30
0.0
 70
   128
 71
     2
 72
    -3
 73
     1
  0
SEQEND
  5
308A
  8
0
  0
POLYLINE
  5
2B08
  8
0
 66
     1
 10
0.0
 20
0.0
 30
0.0
 70
    64
 71
    16
 72
    14
  0
VERTEX
  5
2B09
  8
0
 10
400.0000000000002
 20
250.0000000000001
 30
-2.0
 70
   192
  0
VERTEX
  5
2B0A
  8
0
 10
-399.9999999999999
 20
249.9999999999999
 30
-2.0
 70
   192
  0
VERTEX
  5
2B0B
  8
0
 10
-424.9999999999998
 20
243.3012701892218
 30
-2.0
 70
   192
  0
VERTEX
  5
2B0C
  8
0
 10
-443.3012701892218
 20
224.9999999999999
 30
-2.0
 70
   192
  0
VERTEX
  5
2B0D
  8
0
 10
-449.9999999999998
 20
199.9999999999999
 30
-2.0
 70
   192
  0
VERTEX
  5
2B0E
  8
0
 10
-449.9999999999998
 20
-200.0000000000001
 30
-2.0
 70
   192
  0
VERTEX
  5
2B0F
  8
0
 10
-443.3012701892217
 20
-225.0000000000001
 30
-2.0
 70
   192
  0
VERTEX
  5
2B10
  8
0
 10
-424.9999999999998
 20
-243.3012701892219
 30
-2.0
 70
   192
  0
VERTEX
  5
2B11
  8
0
 10
-399.9999999999999
 20
-250.0
 30
-2.0
 70
   192
  0
VERTEX
  5
2B12
  8
0
 10
400.0000000000001
 20
-250.0
 30
-2.0
 70
   192
  0
VERTEX
  5
2B13
  8
0
 10
425.0000000000001
 20
-243.3012701892219
 30
-2.0
 70
   192
  0
VERTEX
  5
2B14
  8
0
 10
443.3012701892221
 20
-225.0
 30
-2.0
 70
   192
  0
VERTEX
  5
2B15
  8
0
 10
450.0000000000002
 20
-199.9999999999999
 30
-2.0
 70
   192
  0
VERTEX
  5
2B16
  8
0
 10
450.0000000000002
 20
200.0000000000001
 30
-2.0
 70
   192
  0
VERTEX
  5
2B17
  8
0
 10
443.3012701892221
 20
225.0
 30
-2.0
 70
   192
  0
VERTEX
  5
2B18
  8
0
 10
425.0000000000002
 20
243.301270189222
 30
-2.0
 70
   192
  0
VERTEX
  5
2B19
  8
0
 10
0.0
 20
0.0
 30
0.0
 70
   128
 71
     1
 72
    16
 73
   -15
  0
VERTEX
  5
2B1A
  8
0
 10
0.0
 20
0.0
 30
0.0
 70
   128
 71
    -1
 72
    15
 73
   -14
  0
VERTEX
  5
2B1B
  8
0
 10
0.0
 20
0.0
 30
0.0
 70
   128
 71
    -1
 72
    14
 73
   -13
  0
VERTEX
  5
2B1C
  8
0
 10
0.0
 20
0.0
 30
0.0
 70
   128
 71
    -1
 72
    13
 73
   -12
  0
VERTEX
  5
2B1D
  8
0
 10
0.0
 20
0.0
 30
0.0
 70
   128
 71
    -1
 72
    12
 73
   -11
  0
VERTEX
  5
2B1E
  8
0
 10
0.0
 20
0.0
 30
0.0
 70
   128
 71
    -1
 72
    11
 73
   -10
  0
VERTEX
  5
2B1F
  8
0
 10
0.0
 20
0.0
 30
0.0
 70
   128
 71
    -1
 72
    10
 73
    -9
  0
VERTEX
  5
2B20
  8
0
 10
0.0
 20
0.0
 30
0.0
 70
   128
 71
    -1
 72
     9
 73
    -8
  0
VERTEX
  5
2B21
  8
0
 10
0.0
 20
0.0
 30
0.0
 70
   128
 71
    -1
 72
     8
 73
    -7
  0
VERTEX
  5
2B22
  8
0
 10
0.0
 20
0.0
 30
0.0
 70
   128
 71
    -1
 72
     7
 73
    -6
  0
VERTEX
  5
2B23
  8
0
 10
0.0
 20
0.0
 30
0.0
 70
   128
 71
    -1
 72
     6
 73
    -5
  0
VERTEX
  5
2B24
  8
0
 10
0.0
 20
0.0
 30
0.0
 70
   128
 71
    -1
 72
     5
 73
    -4
  0
VERTEX
  5
2B25
  8
0
 10
0.0
 20
0.0
 30
0.0
 70
   128
 71
    -1
 72
     4
 73
    -3
  0
VERTEX
  5
2B26
  8
0
 10
0.0
 20
0.0
 30
0.0
 70
   128
 71
    -1
 72
     3
 73
     2
  0
SEQEND
  5
308B
  8
0
  0
POLYLINE
  5
2B27
  8
0
 66
     1
 10
0.0
 20
0.0
 30
0.0
 70
    64
 71
    32
 72
    32
  0
VERTEX
  5
2B28
  8
0
 10
450.0000000000002
 20
200.0000000000001
 30
0.0
 70
   192
  0
VERTEX
  5
2B29
  8
0
 10
443.3012701892221
 20
225.0
 30
0.0
 70
   192
  0
VERTEX
  5
2B2A
  8
0
 10
425.0000000000002
 20
243.301270189222
 30
0.0
 70
   192
  0
VERTEX
  5
2B2B
  8
0
 10
400.0000000000002
 20
250.0
 30
0.0
 70
   192
  0
VERTEX
  5
2B2C
  8
0
 10
-399.9999999999999
 20
249.9999999999999
 30
0.0
 70
   192
  0
VERTEX
  5
2B2D
  8
0
 10
-424.9999999999998
 20
243.3012701892218
 30
0.0
 70
   192
  0
VERTEX
  5
2B2E
  8
0
 10
-443.3012701892218
 20
224.9999999999999
 30
0.0
 70
   192
  0
VERTEX
  5
2B2F
  8
0
 10
-449.9999999999998
 20
200.0
 30
0.0
 70
   192
  0
VERTEX
  5
2B30
  8
0
 10
-449.9999999999998
 20
-200.0000000000001
 30
0.0
 70
   192
  0
VERTEX
  5
2B31
  8
0
 10
-443.3012701892217
 20
-225.0000000000001
 30
0.0
 70
   192
  0
VERTEX
  5
2B32
  8
0
 10
-424.9999999999998
 20
-243.3012701892219
 30
0.0
 70
   192
  0
VERTEX
  5
2B33
  8
0
 10
-399.9999999999998
 20
-250.0
 30
0.0
 70
   192
  0
VERTEX
  5
2B34
  8
0
 10
400.0000000000001
 20
-249.9999999999999
 30
0.0
 70
   192
  0
VERTEX
  5
2B35
  8
0
 10
425.0000000000001
 20
-243.3012701892219
 30
0.0
 70
   192
  0
VERTEX
  5
2B36
  8
0
 10
443.3012701892221
 20
-225.0
 30
0.0
 70
   192
  0
VERTEX
  5
2B37
  8
0
 10
450.0000000000002
 20
-199.9999999999999
 30
0.0
 70
   192
  0
VERTEX
  5
2B38
  8
0
 10
430.0000000000002
 20
200.0000000000001
 30
0.0
 70
   192
  0
VERTEX
  5
2B39
  8
0
 10
430.0000000000002
 20
-199.9999999999999
 30
0.0
 70
   192
  0
VERTEX
  5
2B3A
  8
0
 10
425.9807621135333
 20
-215.0
 30
0.0
 70
   192
  0
VERTEX
  5
2B3B
  8
0
 10
415.0000000000001
 20
-225.9807621135331
 30
0.0
 70
   192
  0
VERTEX
  5
2B3C
  8
0
 10
400.0000000000001
 20
-230.0
 30
0.0
 70
   192
  0
VERTEX
  5
2B3D
  8
0
 10
-399.9999999999998
 20
-230.0000000000001
 30
0.0
 70
   192
  0
VERTEX
  5
2B3E
  8
0
 10
-414.9999999999998
 20
-225.9807621135332
 30
0.0
 70
   192
  0
VERTEX
  5
2B3F
  8
0
 10
-425.9807621135329
 20
-215.0000000000001
 30
0.0
 70
   192
  0
VERTEX
  5
2B40
  8
0
 10
-429.9999999999998
 20
-200.0000000000001
 30
0.0
 70
   192
  0
VERTEX
  5
2B41
  8
0
 10
-429.9999999999999
 20
200.0
 30
0.0
 70
   192
  0
VERTEX
  5
2B42
  8
0
 10
-425.980762113533
 20
215.0
 30
0.0
 70
   192
  0
VERTEX
  5
2B43
  8
0
 10
-414.9999999999999
 20
225.9807621135331
 30
0.0
 70
   192
  0
VERTEX
  5
2B44
  8
0
 10
-399.9999999999999
 20
230.0
 30
0.0
 70
   192
  0
VERTEX
  5
2B45
  8
0
 10
400.0000000000002
 20
230.0000000000001
 30
0.0
 70
   192
  0
VERTEX
  5
2B46
  8
0
 10
415.0000000000002
 20
225.9807621135332
 30
0.0
 70
   192
  0
VERTEX
  5
2B47
  8
0
 10
425.9807621135334
 20
215.0
 30
0.0
 70
   192
  0
VERTEX
  5
2B48
  8
0
 10
0.0
 20
0.0
 30
0.0
 70
   128
 71
    -2
 72
    17
 73
   -18
  0
VERTEX
  5
2B49
  8
0
 10
0.0
 20
0.0
 30
0.0
 70
   128
 71
     1
 72
    -2
 73
   -18
  0
VERTEX
  5
2B4A
  8
0
 10
0.0
 20
0.0
 30
0.0
 70
   128
 71
    16
 72
    -1
 73
   -18
  0
VERTEX
  5
2B4B
  8
0
 10
0.0
 20
0.0
 30
0.0
 70
   128
 71
    15
 72
   -16
 73
   -18
  0
VERTEX
  5
2B4C
  8
0
 10
0.0
 20
0.0
 30
0.0
 70
   128
 71
    18
 72
   -19
 73
   -15
  0
VERTEX
  5
2B4D
  8
0
 10
0.0
 20
0.0
 30
0.0
 70
   128
 71
   -20
 72
    14
 73
   -15
  0
VERTEX
  5
2B4E
  8
0
 10
0.0
 20
0.0
 30
0.0
 70
   128
 71
    19
 72
   -20
 73
   -15
  0
VERTEX
  5
2B4F
  8
0
 10
0.0
 20
0.0
 30
0.0
 70
   128
 71
    20
 72
   -21
 73
   -14
  0
VERTEX
  5
2B50
  8
0
 10
0.0
 20
0.0
 30
0.0
 70
   128
 71
    12
 72
    13
 73
   -14
  0
VERTEX
  5
2B51
  8
0
 10
0.0
 20
0.0
 30
0.0
 70
   128
 71
    11
 72
   -12
 73
   -14
  0
VERTEX
  5
2B52
  8
0
 10
0.0
 20
0.0
 30
0.0
 70
   128
 71
   -22
 72
   -11
 73
   -14
  0
VERTEX
  5
2B53
  8
0
 10
0.0
 20
0.0
 30
0.0
 70
   128
 71
    21
 72
   -22
 73
   -14
  0
VERTEX
  5
2B54
  8
0
 10
0.0
 20
0.0
 30
0.0
 70
   128
 71
    22
 72
   -23
 73
   -11
  0
VERTEX
  5
2B55
  8
0
 10
0.0
 20
0.0
 30
0.0
 70
   128
 71
   -24
 72
    10
 73
   -11
  0
VERTEX
  5
2B56
  8
0
 10
0.0
 20
0.0
 30
0.0
 70
   128
 71
    23
 72
   -24
 73
   -11
  0
VERTEX
  5
2B57
  8
0
 10
0.0
 20
0.0
 30
0.0
 70
   128
 71
    24
 72
   -25
 73
   -10
  0
VERTEX
  5
2B58
  8
0
 10
0.0
 20
0.0
 30
0.0
 70
   128
 71
     8
 72
     9
 73
   -10
  0
VERTEX
  5
2B59
  8
0
 10
0.0
 20
0.0
 30
0.0
 70
   128
 71
     7
 72
    -8
 73
   -10
  0
VERTEX
  5
2B5A
  8
0
 10
0.0
 20
0.0
 30
0.0
 70
   128
 71
   -26
 72
    -7
 73
   -10
  0
VERTEX
  5
2B5B
  8
0
 10
0.0
 20
0.0
 30
0.0
 70
   128
 71
    25
 72
   -26
 73
   -10
  0
VERTEX
  5
2B5C
  8
0
 10
0.0
 20
0.0
 30
0.0
 70
   128
 71
    26
 72
   -27
 73
    -7
  0
VERTEX
  5
2B5D
  8
0
 10
0.0
 20
0.0
 30
0.0
 70
   128
 71
   -28
 72
     6
 73
    -7
  0
VERTEX
  5
2B5E
  8
0
 10
0.0
 20
0.0
 30
0.0
 70
   128
 71
    27
 72
   -28
 73
    -7
  0
VERTEX
  5
2B5F
  8
0
 10
0.0
 20
0.0
 30
0.0
 70
   128
 71
    28
 72
   -29
 73
    -6
  0
VERTEX
  5
2B60
  8
0
 10
0.0
 20
0.0
 30
0.0
 70
   128
 71
     4
 72
     5
 73
    -6
  0
VERTEX
  5
2B61
  8
0
 10
0.0
 20
0.0
 30
0.0
 70
   128
 71
     3
 72
    -4
 73
    -6
  0
VERTEX
  5
2B62
  8
0
 10
0.0
 20
0.0
 30
0.0
 70
   128
 71
   -30
 72
    -3
 73
    -6
  0
VERTEX
  5
2B63
  8
0
 10
0.0
 20
0.0
 30
0.0
 70
   128
 71
    29
 72
   -30
 73
    -6
  0
VERTEX
  5
2B64
  8
0
 10
0.0
 20
0.0
 30
0.0
 70
   128
 71
    30
 72
   -31
 73
    -3
  0
VERTEX
  5
2B65
  8
0
 10
0.0
 20
0.0
 30
0.0
 70
   128
 71
   -32
 72
     2
 73
    -3
  0
VERTEX
  5
2B66
  8
0
 10
0.0
 20
0.0
 30
0.0
 70
   128
 71
    31
 72
   -32
 73
    -3
  0
VERTEX
  5
2B67
  8
0
 10
0.0
 20
0.0
 30
0.0
 70
   128
 71
    32
 72
   -17
 73
    -2
  0
SEQEND
  5
308C
  8
0
  0
POLYLINE
  5
2B68
  8
0
 66
     1
 10
0.0
 20
0.0
 30
0.0
 70
    64
 71
     4
 72
     2
  0
VERTEX
  5
2B69
  8
0
 10
430.0000000000002
 20
-199.9999999999999
 30
0.0
 70
   192
  0
VERTEX
  5
2B6A
  8
0
 10
430.0000000000002
 20
-199.9999999999999
 30
-0.5
 70
   192
  0
VERTEX
  5
2B6B
  8
0
 10
430.0000000000002
 20
200.0000000000001
 30
-0.5
 70
   192
  0
VERTEX
  5
2B6C
  8
0
 10
430.0000000000002
 20
200.0000000000001
 30
0.0
 70
   192
  0
VERTEX
  5
2B6D
  8
0
 10
0.0
 20
0.0
 30
0.0
 70
   128
 71
     1
 72
     4
 73
    -3
  0
VERTEX
  5
2B6E
  8
0
 10
0.0
 20
0.0
 30
0.0
 70
   128
 71
    -1
 72
     3
 73
     2
  0
SEQEND
  5
308D
  8
0
  0
POLYLINE
  5
2B6F
  8
0
 66
     1
 10
0.0
 20
0.0
 30
0.0
 70
    64
 71
     8
 72
     6
  0
VERTEX
  5
2B70
  8
0
 10
425.9807621135333
 20
-215.0
 30
-0.5
 70
   192
  0
VERTEX
  5
2B71
  8
0
 10
415.0000000000001
 20
-225.9807621135331
 30
-0.5
 70
   192
  0
VERTEX
  5
2B72
  8
0
 10
415.0000000000001
 20
-225.9807621135331
 30
0.0
 70
   192
  0
VERTEX
  5
2B73
  8
0
 10
425.9807621135333
 20
-215.0
 30
0.0
 70
   192
  0
VERTEX
  5
2B74
  8
0
 10
400.0000000000001
 20
-230.0
 30
-0.5
 70
   192
  0
VERTEX
  5
2B75
  8
0
 10
400.0000000000001
 20
-230.0
 30
0.0
 70
   192
  0
VERTEX
  5
2B76
  8
0
 10
430.0000000000002
 20
-199.9999999999999
 30
-0.5
 70
   192
  0
VERTEX
  5
2B77
  8
0
 10
430.0000000000001
 20
-199.9999999999999
 30
0.0
 70
   192
  0
VERTEX
  5
2B78
  8
0
 10
0.0
 20
0.0
 30
0.0
 70
   128
 71
     1
 72
     2
 73
    -3
  0
VERTEX
  5
2B79
  8
0
 10
0.0
 20
0.0
 30
0.0
 70
   128
 71
     4
 72
    -1
 73
     3
  0
VERTEX
  5
2B7A
  8
0
 10
0.0
 20
0.0
 30
0.0
 70
   128
 71
     2
 72
     5
 73
    -6
  0
VERTEX
  5
2B7B
  8
0
 10
0.0
 20
0.0
 30
0.0
 70
   128
 71
     3
 72
    -2
 73
     6
  0
VERTEX
  5
2B7C
  8
0
 10
0.0
 20
0.0
 30
0.0
 70
   128
 71
     7
 72
     1
 73
    -4
  0
VERTEX
  5
2B7D
  8
0
 10
0.0
 20
0.0
 30
0.0
 70
   128
 71
     8
 72
    -7
 73
     4
  0
SEQEND
  5
308E
  8
0
  0
POLYLINE
  5
2B7E
  8
0
 66
     1
 10
0.0
 20
0.0
 30
0.0
 70
    64
 71
     4
 72
     2
  0
VERTEX
  5
2B7F
  8
0
 10
-399.9999999999998
 20
-230.0000000000001
 30
0.0
 70
   192
  0
VERTEX
  5
2B80
  8
0
 10
400.0000000000001
 20
-229.9999999999999
 30
0.0
 70
   192
  0
VERTEX
  5
2B81
  8
0
 10
400.0000000000001
 20
-229.9999999999999
 30
-0.5
 70
   192
  0
VERTEX
  5
2B82
  8
0
 10
-399.9999999999998
 20
-230.0000000000001
 30
-0.5
 70
   192
  0
VERTEX
  5
2B83
  8
0
 10
0.0
 20
0.0
 30
0.0
 70
   128
 71
     3
 72
     4
 73
    -1
  0
VERTEX
  5
2B84
  8
0
 10
0.0
 20
0.0
 30
0.0
 70
   128
 71
     2
 72
    -3
 73
     1
  0
SEQEND
  5
308F
  8
0
  0
POLYLINE
  5
2B85
  8
0
 66
     1
 10
0.0
 20
0.0
 30
0.0
 70
    64
 71
     8
 72
     6
  0
VERTEX
  5
2B86
  8
0
 10
-414.9999999999998
 20
-225.9807621135332
 30
-0.5
 70
   192
  0
VERTEX
  5
2B87
  8
0
 10
-425.9807621135329
 20
-215.0000000000001
 30
-0.5
 70
   192
  0
VERTEX
  5
2B88
  8
0
 10
-425.9807621135329
 20
-215.0000000000001
 30
0.0
 70
   192
  0
VERTEX
  5
2B89
  8
0
 10
-414.9999999999998
 20
-225.9807621135332
 30
0.0
 70
   192
  0
VERTEX
  5
2B8A
  8
0
 10
-429.9999999999998
 20
-200.0000000000001
 30
-0.5
 70
   192
  0
VERTEX
  5
2B8B
  8
0
 10
-429.9999999999998
 20
-200.0000000000001
 30
0.0
 70
   192
  0
VERTEX
  5
2B8C
  8
0
 10
-399.9999999999998
 20
-230.0000000000001
 30
-0.5
 70
   192
  0
VERTEX
  5
2B8D
  8
0
 10
-399.9999999999998
 20
-230.0
 30
0.0
 70
   192
  0
VERTEX
  5
2B8E
  8
0
 10
0.0
 20
0.0
 30
0.0
 70
   128
 71
     1
 72
     2
 73
    -3
  0
VERTEX
  5
2B8F
  8
0
 10
0.0
 20
0.0
 30
0.0
 70
   128
 71
     4
 72
    -1
 73
     3
  0
VERTEX
  5
2B90
  8
0
 10
0.0
 20
0.0
 30
0.0
 70
   128
 71
     2
 72
     5
 73
    -6
  0
VERTEX
  5
2B91
  8
0
 10
0.0
 20
0.0
 30
0.0
 70
   128
 71
     3
 72
    -2
 73
     6
  0
VERTEX
  5
2B92
  8
0
 10
0.0
 20
0.0
 30
0.0
 70
   128
 71
     7
 72
     1
 73
    -4
  0
VERTEX
  5
2B93
  8
0
 10
0.0
 20
0.0
 30
0.0
 70
   128
 71
     8
 72
    -7
 73
     4
  0
SEQEND
  5
3090
  8
0
  0
POLYLINE
  5
2B94
  8
0
 66
     1
 10
0.0
 20
0.0
 30
0.0
 70
    64
 71
     4
 72
     2
  0
VERTEX
  5
2B95
  8
0
 10
-429.9999999999999
 20
200.0
 30
0.0
 70
   192
  0
VERTEX
  5
2B96
  8
0
 10
-429.9999999999998
 20
-200.0000000000001
 30
0.0
 70
   192
  0
VERTEX
  5
2B97
  8
0
 10
-429.9999999999998
 20
-200.0000000000001
 30
-0.5
 70
   192
  0
VERTEX
  5
2B98
  8
0
 10
-429.9999999999999
 20
200.0
 30
-0.5
 70
   192
  0
VERTEX
  5
2B99
  8
0
 10
0.0
 20
0.0
 30
0.0
 70
   128
 71
     3
 72
     4
 73
    -1
  0
VERTEX
  5
2B9A
  8
0
 10
0.0
 20
0.0
 30
0.0
 70
   128
 71
     2
 72
    -3
 73
     1
  0
SEQEND
  5
3091
  8
0
  0
POLYLINE
  5
2B9B
  8
0
 66
     1
 10
0.0
 20
0.0
 30
0.0
 70
    64
 71
     8
 72
     6
  0
VERTEX
  5
2B9C
  8
0
 10
-425.980762113533
 20
215.0
 30
-0.5
 70
   192
  0
VERTEX
  5
2B9D
  8
0
 10
-414.9999999999999
 20
225.9807621135331
 30
-0.5
 70
   192
  0
VERTEX
  5
2B9E
  8
0
 10
-414.9999999999999
 20
225.9807621135331
 30
0.0
 70
   192
  0
VERTEX
  5
2B9F
  8
0
 10
-425.980762113533
 20
215.0
 30
0.0
 70
   192
  0
VERTEX
  5
2BA0
  8
0
 10
-399.9999999999999
 20
230.0
 30
-0.5
 70
   192
  0
VERTEX
  5
2BA1
  8
0
 10
-399.9999999999999
 20
230.0
 30
0.0
 70
   192
  0
VERTEX
  5
2BA2
  8
0
 10
-429.9999999999999
 20
200.0
 30
-0.5
 70
   192
  0
VERTEX
  5
2BA3
  8
0
 10
-429.9999999999999
 20
200.0
 30
0.0
 70
   192
  0
VERTEX
  5
2BA4
  8
0
 10
0.0
 20
0.0
 30
0.0
 70
   128
 71
     1
 72
     2
 73
    -3
  0
VERTEX
  5
2BA5
  8
0
 10
0.0
 20
0.0
 30
0.0
 70
   128
 71
     4
 72
    -1
 73
     3
  0
VERTEX
  5
2BA6
  8
0
 10
0.0
 20
0.0
 30
0.0
 70
   128
 71
     2
 72
     5
 73
    -6
  0
VERTEX
  5
2BA7
  8
0
 10
0.0
 20
0.0
 30
0.0
 70
   128
 71
     3
 72
    -2
 73
     6
  0
VERTEX
  5
2BA8
  8
0
 10
0.0
 20
0.0
 30
0.0
 70
   128
 71
     7
 72
     1
 73
    -4
  0
VERTEX
  5
2BA9
  8
0
 10
0.0
 20
0.0
 30
0.0
 70
   128
 71
     8
 72
    -7
 73
     4
  0
SEQEND
  5
3092
  8
0
  0
POLYLINE
  5
2BAA
  8
0
 66
     1
 10
0.0
 20
0.0
 30
0.0
 70
    64
 71
     4
 72
     2
  0
VERTEX
  5
2BAB
  8
0
 10
400.0000000000002
 20
230.0000000000001
 30
0.0
 70
   192
  0
VERTEX
  5
2BAC
  8
0
 10
400.0000000000002
 20
230.0000000000001
 30
-0.5
 70
   192
  0
VERTEX
  5
2BAD
  8
0
 10
-399.9999999999999
 20
229.9999999999999
 30
-0.5
 70
   192
  0
VERTEX
  5
2BAE
  8
0
 10
-399.9999999999998
 20
229.9999999999999
 30
0.0
 70
   192
  0
VERTEX
  5
2BAF
  8
0
 10
0.0
 20
0.0
 30
0.0
 70
   128
 71
     1
 72
     4
 73
    -3
  0
VERTEX
  5
2BB0
  8
0
 10
0.0
 20
0.0
 30
0.0
 70
   128
 71
    -1
 72
     3
 73
     2
  0
SEQEND
  5
3093
  8
0
  0
POLYLINE
  5
2BB1
  8
0
 66
     1
 10
0.0
 20
0.0
 30
0.0
 70
    64
 71
     8
 72
     6
  0
VERTEX
  5
2BB2
  8
0
 10
408.6602540378446
 20
205.0
 30
0.0
 70
   192
  0
VERTEX
  5
2BB3
  8
0
 10
408.6602540378446
 20
205.0
 30
-0.5
 70
   192
  0
VERTEX
  5
2BB4
  8
0
 10
405.0000000000002
 20
208.6602540378444
 30
-0.5
 70
   192
  0
VERTEX
  5
2BB5
  8
0
 10
405.0000000000002
 20
208.6602540378444
 30
0.0
 70
   192
  0
VERTEX
  5
2BB6
  8
0
 10
410.0000000000002
 20
200.0000000000001
 30
0.0
 70
   192
  0
VERTEX
  5
2BB7
  8
0
 10
410.0000000000001
 20
200.0000000000001
 30
-0.5
 70
   192
  0
VERTEX
  5
2BB8
  8
0
 10
400.0000000000002
 20
210.0
 30
-0.5
 70
   192
  0
VERTEX
  5
2BB9
  8
0
 10
400.0000000000002
 20
210.0000000000001
 30
0.0
 70
   192
  0
VERTEX
  5
2BBA
  8
0
 10
0.0
 20
0.0
 30
0.0
 70
   128
 71
     1
 72
     2
 73
    -3
  0
VERTEX
  5
2BBB
  8
0
 10
0.0
 20
0.0
 30
0.0
 70
   128
 71
    -1
 72
     3
 73
     4
  0
VERTEX
  5
2BBC
  8
0
 10
0.0
 20
0.0
 30
0.0
 70
   128
 71
     5
 72
     6
 73
    -2
  0
VERTEX
  5
2BBD
  8
0
 10
0.0
 20
0.0
 30
0.0
 70
   128
 71
    -5
 72
     2
 73
     1
  0
VERTEX
  5
2BBE
  8
0
 10
0.0
 20
0.0
 30
0.0
 70
   128
 71
     4
 72
     3
 73
    -7
  0
VERTEX
  5
2BBF
  8
0
 10
0.0
 20
0.0
 30
0.0
 70
   128
 71
    -4
 72
     7
 73
     8
  0
SEQEND
  5
3094
  8
0
  0
POLYLINE
  5
2BC0
  8
0
 66
     1
 10
0.0
 20
0.0
 30
0.0
 70
    64
 71
     4
 72
     2
  0
VERTEX
  5
2BC1
  8
0
 10
-399.9999999999998
 20
210.0
 30
0.0
 70
   192
  0
VERTEX
  5
2BC2
  8
0
 10
400.0000000000002
 20
210.0000000000001
 30
0.0
 70
   192
  0
VERTEX
  5
2BC3
  8
0
 10
400.0000000000002
 20
210.0000000000001
 30
-0.5
 70
   192
  0
VERTEX
  5
2BC4
  8
0
 10
-399.9999999999998
 20
210.0
 30
-0.5
 70
   192
  0
VERTEX
  5
2BC5
  8
0
 10
0.0
 20
0.0
 30
0.0
 70
   128
 71
     3
 72
     4
 73
    -1
  0
VERTEX
  5
2BC6
  8
0
 10
0.0
 20
0.0
 30
0.0
 70
   128
 71
     2
 72
    -3
 73
     1
  0
SEQEND
  5
3095
  8
0
  0
POLYLINE
  5
2BC7
  8
0
 66
     1
 10
0.0
 20
0.0
 30
0.0
 70
    64
 71
     8
 72
     6
  0
VERTEX
  5
2BC8
  8
0
 10
-404.9999999999999
 20
208.6602540378443
 30
0.0
 70
   192
  0
VERTEX
  5
2BC9
  8
0
 10
-404.9999999999999
 20
208.6602540378443
 30
-0.5
 70
   192
  0
VERTEX
  5
2BCA
  8
0
 10
-408.6602540378443
 20
204.9999999999999
 30
-0.5
 70
   192
  0
VERTEX
  5
2BCB
  8
0
 10
-408.6602540378443
 20
204.9999999999999
 30
0.0
 70
   192
  0
VERTEX
  5
2BCC
  8
0
 10
-399.9999999999999
 20
209.9999999999999
 30
0.0
 70
   192
  0
VERTEX
  5
2BCD
  8
0
 10
-399.9999999999999
 20
210.0
 30
-0.5
 70
   192
  0
VERTEX
  5
2BCE
  8
0
 10
-409.9999999999999
 20
199.9999999999999
 30
-0.5
 70
   192
  0
VERTEX
  5
2BCF
  8
0
 10
-409.9999999999999
 20
199.9999999999999
 30
0.0
 70
   192
  0
VERTEX
  5
2BD0
  8
0
 10
0.0
 20
0.0
 30
0.0
 70
   128
 71
     1
 72
     2
 73
    -3
  0
VERTEX
  5
2BD1
  8
0
 10
0.0
 20
0.0
 30
0.0
 70
   128
 71
    -1
 72
     3
 73
     4
  0
VERTEX
  5
2BD2
  8
0
 10
0.0
 20
0.0
 30
0.0
 70
   128
 71
     5
 72
     6
 73
    -2
  0
VERTEX
  5
2BD3
  8
0
 10
0.0
 20
0.0
 30
0.0
 70
   128
 71
    -5
 72
     2
 73
     1
  0
VERTEX
  5
2BD4
  8
0
 10
0.0
 20
0.0
 30
0.0
 70
   128
 71
     4
 72
     3
 73
    -7
  0
VERTEX
  5
2BD5
  8
0
 10
0.0
 20
0.0
 30
0.0
 70
   128
 71
    -4
 72
     7
 73
     8
  0
SEQEND
  5
3096
  8
0
  0
POLYLINE
  5
2BD6
  8
0
 66
     1
 10
0.0
 20
0.0
 30
0.0
 70
    64
 71
     4
 72
     2
  0
VERTEX
  5
2BD7
  8
0
 10
-409.9999999999998
 20
-200.0000000000001
 30
0.0
 70
   192
  0
VERTEX
  5
2BD8
  8
0
 10
-409.9999999999998
 20
-200.0000000000001
 30
-0.5
 70
   192
  0
VERTEX
  5
2BD9
  8
0
 10
-409.9999999999999
 20
199.9999999999999
 30
-0.5
 70
   192
  0
VERTEX
  5
2BDA
  8
0
 10
-409.9999999999999
 20
199.9999999999999
 30
0.0
 70
   192
  0
VERTEX
  5
2BDB
  8
0
 10
0.0
 20
0.0
 30
0.0
 70
   128
 71
     1
 72
     4
 73
    -3
  0
VERTEX
  5
2BDC
  8
0
 10
0.0
 20
0.0
 30
0.0
 70
   128
 71
    -1
 72
     3
 73
     2
  0
SEQEND
  5
3097
  8
0
  0
POLYLINE
  5
2BDD
  8
0
 66
     1
 10
0.0
 20
0.0
 30
0.0
 70
    64
 71
     8
 72
     6
  0
VERTEX
  5
2BDE
  8
0
 10
-408.6602540378442
 20
-205.0
 30
0.0
 70
   192
  0
VERTEX
  5
2BDF
  8
0
 10
-408.6602540378442
 20
-205.0
 30
-0.5
 70
   192
  0
VERTEX
  5
2BE0
  8
0
 10
-404.9999999999998
 20
-208.6602540378444
 30
-0.5
 70
   192
  0
VERTEX
  5
2BE1
  8
0
 10
-404.9999999999998
 20
-208.6602540378444
 30
0.0
 70
   192
  0
VERTEX
  5
2BE2
  8
0
 10
-409.9999999999998
 20
-200.0000000000001
 30
0.0
 70
   192
  0
VERTEX
  5
2BE3
  8
0
 10
-409.9999999999998
 20
-200.0000000000001
 30
-0.5
 70
   192
  0
VERTEX
  5
2BE4
  8
0
 10
-399.9999999999998
 20
-210.0
 30
-0.5
 70
   192
  0
VERTEX
  5
2BE5
  8
0
 10
-399.9999999999998
 20
-210.0000000000001
 30
0.0
 70
   192
  0
VERTEX
  5
2BE6
  8
0
 10
0.0
 20
0.0
 30
0.0
 70
   128
 71
     1
 72
     2
 73
    -3
  0
VERTEX
  5
2BE7
  8
0
 10
0.0
 20
0.0
 30
0.0
 70
   128
 71
    -1
 72
     3
 73
     4
  0
VERTEX
  5
2BE8
  8
0
 10
0.0
 20
0.0
 30
0.0
 70
   128
 71
     5
 72
     6
 73
    -2
  0
VERTEX
  5
2BE9
  8
0
 10
0.0
 20
0.0
 30
0.0
 70
   128
 71
    -5
 72
     2
 73
     1
  0
VERTEX
  5
2BEA
  8
0
 10
0.0
 20
0.0
 30
0.0
 70
   128
 71
     4
 72
     3
 73
    -7
  0
VERTEX
  5
2BEB
  8
0
 10
0.0
 20
0.0
 30
0.0
 70
   128
 71
    -4
 72
     7
 73
     8
  0
SEQEND
  5
3098
  8
0
  0
POLYLINE
  5
2BEC
  8
0
 66
     1
 10
0.0
 20
0.0
 30
0.0
 70
    64
 71
     4
 72
     2
  0
VERTEX
  5
2BED
  8
0
 10
400.0000000000001
 20
-210.0
 30
0.0
 70
   192
  0
VERTEX
  5
2BEE
  8
0
 10
400.0000000000001
 20
-210.0
 30
-0.5
 70
   192
  0
VERTEX
  5
2BEF
  8
0
 10
-399.9999999999998
 20
-210.0000000000001
 30
-0.5
 70
   192
  0
VERTEX
  5
2BF0
  8
0
 10
-399.9999999999998
 20
-210.0000000000001
 30
0.0
 70
   192
  0
VERTEX
  5
2BF1
  8
0
 10
0.0
 20
0.0
 30
0.0
 70
   128
 71
     1
 72
     4
 73
    -3
  0
VERTEX
  5
2BF2
  8
0
 10
0.0
 20
0.0
 30
0.0
 70
   128
 71
    -1
 72
     3
 73
     2
  0
SEQEND
  5
3099
  8
0
  0
POLYLINE
  5
2BF3
  8
0
 66
     1
 10
0.0
 20
0.0
 30
0.0
 70
    64
 71
     8
 72
     6
  0
VERTEX
  5
2BF4
  8
0
 10
405.0000000000001
 20
-208.6602540378443
 30
0.0
 70
   192
  0
VERTEX
  5
2BF5
  8
0
 10
405.0000000000001
 20
-208.6602540378443
 30
-0.5
 70
   192
  0
VERTEX
  5
2BF6
  8
0
 10
408.6602540378445
 20
-204.9999999999999
 30
-0.5
 70
   192
  0
VERTEX
  5
2BF7
  8
0
 10
408.6602540378445
 20
-204.9999999999999
 30
0.0
 70
   192
  0
VERTEX
  5
2BF8
  8
0
 10
400.0000000000001
 20
-209.9999999999999
 30
0.0
 70
   192
  0
VERTEX
  5
2BF9
  8
0
 10
400.0000000000001
 20
-210.0
 30
-0.5
 70
   192
  0
VERTEX
  5
2BFA
  8
0
 10
410.0000000000001
 20
-199.9999999999999
 30
-0.5
 70
   192
  0
VERTEX
  5
2BFB
  8
0
 10
410.0000000000001
 20
-199.9999999999999
 30
0.0
 70
   192
  0
VERTEX
  5
2BFC
  8
0
 10
0.0
 20
0.0
 30
0.0
 70
   128
 71
     1
 72
     2
 73
    -3
  0
VERTEX
  5
2BFD
  8
0
 10
0.0
 20
0.0
 30
0.0
 70
   128
 71
    -1
 72
     3
 73
     4
  0
VERTEX
  5
2BFE
  8
0
 10
0.0
 20
0.0
 30
0.0
 70
   128
 71
     5
 72
     6
 73
    -2
  0
VERTEX
  5
2BFF
  8
0
 10
0.0
 20
0.0
 30
0.0
 70
   128
 71
    -5
 72
     2
 73
     1
  0
VERTEX
  5
2C00
  8
0
 10
0.0
 20
0.0
 30
0.0
 70
   128
 71
     4
 72
     3
 73
    -7
  0
VERTEX
  5
2C01
  8
0
 10
0.0
 20
0.0
 30
0.0
 70
   128
 71
    -4
 72
     7
 73
     8
  0
SEQEND
  5
309A
  8
0
  0
POLYLINE
  5
2C02
  8
0
 66
     1
 10
0.0
 20
0.0
 30
0.0
 70
    64
 71
     4
 72
     2
  0
VERTEX
  5
2C03
  8
0
 10
410.0000000000001
 20
200.0000000000001
 30
0.0
 70
   192
  0
VERTEX
  5
2C04
  8
0
 10
410.0000000000001
 20
-199.9999999999999
 30
0.0
 70
   192
  0
VERTEX
  5
2C05
  8
0
 10
410.0000000000001
 20
-199.9999999999999
 30
-0.5
 70
   192
  0
VERTEX
  5
2C06
  8
0
 10
410.0000000000001
 20
200.0000000000001
 30
-0.5
 70
   192
  0
VERTEX
  5
2C07
  8
0
 10
0.0
 20
0.0
 30
0.0
 70
   128
 71
     3
 72
     4
 73
    -1
  0
VERTEX
  5
2C08
  8
0
 10
0.0
 20
0.0
 30
0.0
 70
   128
 71
     2
 72
    -3
 73
     1
  0
SEQEND
  5
309B
  8
0
  0
POLYLINE
  5
2C09
  8
0
 66
     1
 10
0.0
 20
0.0
 30
0.0
 70
    64
 71
     8
 72
     6
  0
VERTEX
  5
2C0A
  8
0
 10
415.0000000000002
 20
225.9807621135332
 30
-0.5
 70
   192
  0
VERTEX
  5
2C0B
  8
0
 10
425.9807621135334
 20
215.0
 30
-0.5
 70
   192
  0
VERTEX
  5
2C0C
  8
0
 10
425.9807621135334
 20
215.0
 30
0.0
 70
   192
  0
VERTEX
  5
2C0D
  8
0
 10
415.0000000000002
 20
225.9807621135332
 30
0.0
 70
   192
  0
VERTEX
  5
2C0E
  8
0
 10
430.0000000000002
 20
200.0000000000001
 30
-0.5
 70
   192
  0
VERTEX
  5
2C0F
  8
0
 10
430.0000000000002
 20
200.0000000000001
 30
0.0
 70
   192
  0
VERTEX
  5
2C10
  8
0
 10
400.0000000000002
 20
230.0000000000001
 30
-0.5
 70
   192
  0
VERTEX
  5
2C11
  8
0
 10
400.0000000000002
 20
230.0
 30
0.0
 70
   192
  0
VERTEX
  5
2C12
  8
0
 10
0.0
 20
0.0
 30
0.0
 70
   128
 71
     1
 72
     2
 73
    -3
  0
VERTEX
  5
2C13
  8
0
 10
0.0
 20
0.0
 30
0.0
 70
   128
 71
     4
 72
    -1
 73
     3
  0
VERTEX
  5
2C14
  8
0
 10
0.0
 20
0.0
 30
0.0
 70
   128
 71
     2
 72
     5
 73
    -6
  0
VERTEX
  5
2C15
  8
0
 10
0.0
 20
0.0
 30
0.0
 70
   128
 71
     3
 72
    -2
 73
     6
  0
VERTEX
  5
2C16
  8
0
 10
0.0
 20
0.0
 30
0.0
 70
   128
 71
     7
 72
     1
 73
    -4
  0
VERTEX
  5
2C17
  8
0
 10
0.0
 20
0.0
 30
0.0
 70
   128
 71
     8
 72
    -7
 73
     4
  0
SEQEND
  5
309C
  8
0
  0
POLYLINE
  5
2C18
  8
0
 66
     1
 10
0.0
 20
0.0
 30
0.0
 70
    64
 71
    32
 72
    32
  0
VERTEX
  5
2C19
  8
0
 10
430.0000000000002
 20
-199.9999999999999
 30
-0.5
 70
   192
  0
VERTEX
  5
2C1A
  8
0
 10
430.0000000000002
 20
200.0000000000001
 30
-0.5
 70
   192
  0
VERTEX
  5
2C1B
  8
0
 10
425.9807621135334
 20
215.0
 30
-0.5
 70
   192
  0
VERTEX
  5
2C1C
  8
0
 10
415.0000000000002
 20
225.9807621135332
 30
-0.5
 70
   192
  0
VERTEX
  5
2C1D
  8
0
 10
400.0000000000002
 20
230.0
 30
-0.5
 70
   192
  0
VERTEX
  5
2C1E
  8
0
 10
-399.9999999999998
 20
229.9999999999999
 30
-0.5
 70
   192
  0
VERTEX
  5
2C1F
  8
0
 10
-414.9999999999999
 20
225.9807621135331
 30
-0.5
 70
   192
  0
VERTEX
  5
2C20
  8
0
 10
-425.980762113533
 20
215.0
 30
-0.5
 70
   192
  0
VERTEX
  5
2C21
  8
0
 10
-429.9999999999999
 20
200.0
 30
-0.5
 70
   192
  0
VERTEX
  5
2C22
  8
0
 10
-429.9999999999998
 20
-200.0000000000001
 30
-0.5
 70
   192
  0
VERTEX
  5
2C23
  8
0
 10
-425.9807621135329
 20
-215.0000000000001
 30
-0.5
 70
   192
  0
VERTEX
  5
2C24
  8
0
 10
-414.9999999999998
 20
-225.9807621135332
 30
-0.5
 70
   192
  0
VERTEX
  5
2C25
  8
0
 10
-399.9999999999998
 20
-230.0
 30
-0.5
 70
   192
  0
VERTEX
  5
2C26
  8
0
 10
400.0000000000001
 20
-229.9999999999999
 30
-0.5
 70
   192
  0
VERTEX
  5
2C27
  8
0
 10
415.0000000000001
 20
-225.9807621135331
 30
-0.5
 70
   192
  0
VERTEX
  5
2C28
  8
0
 10
425.9807621135333
 20
-215.0
 30
-0.5
 70
   192
  0
VERTEX
  5
2C29
  8
0
 10
400.0000000000002
 20
210.0
 30
-0.5
 70
   192
  0
VERTEX
  5
2C2A
  8
0
 10
405.0000000000002
 20
208.6602540378444
 30
-0.5
 70
   192
  0
VERTEX
  5
2C2B
  8
0
 10
408.6602540378446
 20
205.0
 30
-0.5
 70
   192
  0
VERTEX
  5
2C2C
  8
0
 10
410.0000000000002
 20
200.0000000000001
 30
-0.5
 70
   192
  0
VERTEX
  5
2C2D
  8
0
 10
410.0000000000001
 20
-199.9999999999999
 30
-0.5
 70
   192
  0
VERTEX
  5
2C2E
  8
0
 10
408.6602540378445
 20
-204.9999999999999
 30
-0.5
 70
   192
  0
VERTEX
  5
2C2F
  8
0
 10
405.0000000000001
 20
-208.6602540378443
 30
-0.5
 70
   192
  0
VERTEX
  5
2C30
  8
0
 10
400.0000000000001
 20
-209.9999999999999
 30
-0.5
 70
   192
  0
VERTEX
  5
2C31
  8
0
 10
-399.9999999999998
 20
-210.0000000000001
 30
-0.5
 70
   192
  0
VERTEX
  5
2C32
  8
0
 10
-404.9999999999998
 20
-208.6602540378444
 30
-0.5
 70
   192
  0
VERTEX
  5
2C33
  8
0
 10
-408.6602540378442
 20
-205.0
 30
-0.5
 70
   192
  0
VERTEX
  5
2C34
  8
0
 10
-409.9999999999998
 20
-200.0000000000001
 30
-0.5
 70
   192
  0
VERTEX
  5
2C35
  8
0
 10
-409.9999999999999
 20
199.9999999999999
 30
-0.5
 70
   192
  0
VERTEX
  5
2C36
  8
0
 10
-408.6602540378443
 20
204.9999999999999
 30
-0.5
 70
   192
  0
VERTEX
  5
2C37
  8
0
 10
-404.9999999999999
 20
208.6602540378443
 30
-0.5
 70
   192
  0
VERTEX
  5
2C38
  8
0
 10
-399.9999999999999
 20
209.9999999999999
 30
-0.5
 70
   192
  0
VERTEX
  5
2C39
  8
0
 10
0.0
 20
0.0
 30
0.0
 70
   128
 71
    -3
 72
    17
 73
   -18
  0
VERTEX
  5
2C3A
  8
0
 10
0.0
 20
0.0
 30
0.0
 70
   128
 71
    18
 72
   -19
 73
    -3
  0
VERTEX
  5
2C3B
  8
0
 10
0.0
 20
0.0
 30
0.0
 70
   128
 71
    19
 72
   -20
 73
    -3
  0
VERTEX
  5
2C3C
  8
0
 10
0.0
 20
0.0
 30
0.0
 70
   128
 71
     1
 72
     2
 73
    -3
  0
VERTEX
  5
2C3D
  8
0
 10
0.0
 20
0.0
 30
0.0
 70
   128
 71
    16
 72
    -1
 73
    -3
  0
VERTEX
  5
2C3E
  8
0
 10
0.0
 20
0.0
 30
0.0
 70
   128
 71
   -21
 72
   -16
 73
    -3
  0
VERTEX
  5
2C3F
  8
0
 10
0.0
 20
0.0
 30
0.0
 70
   128
 71
    20
 72
   -21
 73
    -3
  0
VERTEX
  5
2C40
  8
0
 10
0.0
 20
0.0
 30
0.0
 70
   128
 71
    21
 72
   -22
 73
   -16
  0
VERTEX
  5
2C41
  8
0
 10
0.0
 20
0.0
 30
0.0
 70
   128
 71
    22
 72
   -23
 73
   -16
  0
VERTEX
  5
2C42
  8
0
 10
0.0
 20
0.0
 30
0.0
 70
   128
 71
    23
 72
   -24
 73
   -16
  0
VERTEX
  5
2C43
  8
0
 10
0.0
 20
0.0
 30
0.0
 70
   128
 71
    14
 72
    15
 73
   -16
  0
VERTEX
  5
2C44
  8
0
 10
0.0
 20
0.0
 30
0.0
 70
   128
 71
    13
 72
   -14
 73
   -16
  0
VERTEX
  5
2C45
  8
0
 10
0.0
 20
0.0
 30
0.0
 70
   128
 71
    12
 72
   -13
 73
   -16
  0
VERTEX
  5
2C46
  8
0
 10
0.0
 20
0.0
 30
0.0
 70
   128
 71
   -25
 72
   -12
 73
   -16
  0
VERTEX
  5
2C47
  8
0
 10
0.0
 20
0.0
 30
0.0
 70
   128
 71
    24
 72
   -25
 73
   -16
  0
VERTEX
  5
2C48
  8
0
 10
0.0
 20
0.0
 30
0.0
 70
   128
 71
    25
 72
   -26
 73
   -12
  0
VERTEX
  5
2C49
  8
0
 10
0.0
 20
0.0
 30
0.0
 70
   128
 71
    26
 72
   -27
 73
   -12
  0
VERTEX
  5
2C4A
  8
0
 10
0.0
 20
0.0
 30
0.0
 70
   128
 71
    27
 72
   -28
 73
   -12
  0
VERTEX
  5
2C4B
  8
0
 10
0.0
 20
0.0
 30
0.0
 70
   128
 71
    10
 72
    11
 73
   -12
  0
VERTEX
  5
2C4C
  8
0
 10
0.0
 20
0.0
 30
0.0
 70
   128
 71
     9
 72
   -10
 73
   -12
  0
VERTEX
  5
2C4D
  8
0
 10
0.0
 20
0.0
 30
0.0
 70
   128
 71
     8
 72
    -9
 73
   -12
  0
VERTEX
  5
2C4E
  8
0
 10
0.0
 20
0.0
 30
0.0
 70
   128
 71
   -29
 72
    -8
 73
   -12
  0
VERTEX
  5
2C4F
  8
0
 10
0.0
 20
0.0
 30
0.0
 70
   128
 71
    28
 72
   -29
 73
   -12
  0
VERTEX
  5
2C50
  8
0
 10
0.0
 20
0.0
 30
0.0
 70
   128
 71
    29
 72
   -30
 73
    -8
  0
VERTEX
  5
2C51
  8
0
 10
0.0
 20
0.0
 30
0.0
 70
   128
 71
    30
 72
   -31
 73
    -8
  0
VERTEX
  5
2C52
  8
0
 10
0.0
 20
0.0
 30
0.0
 70
   128
 71
    31
 72
   -32
 73
    -8
  0
VERTEX
  5
2C53
  8
0
 10
0.0
 20
0.0
 30
0.0
 70
   128
 71
     6
 72
     7
 73
    -8
  0
VERTEX
  5
2C54
  8
0
 10
0.0
 20
0.0
 30
0.0
 70
   128
 71
     5
 72
    -6
 73
    -8
  0
VERTEX
  5
2C55
  8
0
 10
0.0
 20
0.0
 30
0.0
 70
   128
 71
     4
 72
    -5
 73
    -8
  0
VERTEX
  5
2C56
  8
0
 10
0.0
 20
0.0
 30
0.0
 70
   128
 71
     3
 72
    -4
 73
    -8
  0
VERTEX
  5
2C57
  8
0
 10
0.0
 20
0.0
 30
0.0
 70
   128
 71
   -17
 72
    -3
 73
    -8
  0
VERTEX
  5
2C58
  8
0
 10
0.0
 20
0.0
 30
0.0
 70
   128
 71
    32
 72
   -17
 73
    -8
  0
SEQEND
  5
309D
  8
0
  0
POLYLINE
  5
2C59
  8
0
 66
     1
 10
0.0
 20
0.0
 30
0.0
 70
    64
 71
    16
 72
    14
  0
VERTEX
  5
2C5A
  8
0
 10
410.0000000000001
 20
-199.9999999999999
 30
0.0
 70
   192
  0
VERTEX
  5
2C5B
  8
0
 10
410.0000000000001
 20
200.0000000000001
 30
0.0
 70
   192
  0
VERTEX
  5
2C5C
  8
0
 10
408.6602540378446
 20
205.0
 30
0.0
 70
   192
  0
VERTEX
  5
2C5D
  8
0
 10
405.0000000000002
 20
208.6602540378444
 30
0.0
 70
   192
  0
VERTEX
  5
2C5E
  8
0
 10
400.0000000000002
 20
210.0
 30
0.0
 70
   192
  0
VERTEX
  5
2C5F
  8
0
 10
-399.9999999999998
 20
210.0
 30
0.0
 70
   192
  0
VERTEX
  5
2C60
  8
0
 10
-404.9999999999999
 20
208.6602540378443
 30
0.0
 70
   192
  0
VERTEX
  5
2C61
  8
0
 10
-408.6602540378443
 20
204.9999999999999
 30
0.0
 70
   192
  0
VERTEX
  5
2C62
  8
0
 10
-409.9999999999999
 20
199.9999999999999
 30
0.0
 70
   192
  0
VERTEX
  5
2C63
  8
0
 10
-409.9999999999998
 20
-200.0000000000001
 30
0.0
 70
   192
  0
VERTEX
  5
2C64
  8
0
 10
-408.6602540378442
 20
-205.0
 30
0.0
 70
   192
  0
VERTEX
  5
2C65
  8
0
 10
-404.9999999999998
 20
-208.6602540378444
 30
0.0
 70
   192
  0
VERTEX
  5
2C66
  8
0
 10
-399.9999999999998
 20
-210.0
 30
0.0
 70
   192
  0
VERTEX
  5
2C67
  8
0
 10
400.0000000000001
 20
-210.0
 30
0.0
 70
   192
  0
VERTEX
  5
2C68
  8
0
 10
405.0000000000001
 20
-208.6602540378443
 30
0.0
 70
   192
  0
VERTEX
  5
2C69
  8
0
 10
408.6602540378445
 20
-204.9999999999999
 30
0.0
 70
   192
  0
VERTEX
  5
2C6A
  8
0
 10
0.0
 20
0.0
 30
0.0
 70
   128
 71
    15
 72
    16
 73
    -1
  0
VERTEX
  5
2C6B
  8
0
 10
0.0
 20
0.0
 30
0.0
 70
   128
 71
    14
 72
   -15
 73
    -1
  0
VERTEX
  5
2C6C
  8
0
 10
0.0
 20
0.0
 30
0.0
 70
   128
 71
    13
 72
   -14
 73
    -1
  0
VERTEX
  5
2C6D
  8
0
 10
0.0
 20
0.0
 30
0.0
 70
   128
 71
    12
 72
   -13
 73
    -1
  0
VERTEX
  5
2C6E
  8
0
 10
0.0
 20
0.0
 30
0.0
 70
   128
 71
    11
 72
   -12
 73
    -1
  0
VERTEX
  5
2C6F
  8
0
 10
0.0
 20
0.0
 30
0.0
 70
   128
 71
    10
 72
   -11
 73
    -1
  0
VERTEX
  5
2C70
  8
0
 10
0.0
 20
0.0
 30
0.0
 70
   128
 71
     9
 72
   -10
 73
    -1
  0
VERTEX
  5
2C71
  8
0
 10
0.0
 20
0.0
 30
0.0
 70
   128
 71
     8
 72
    -9
 73
    -1
  0
VERTEX
  5
2C72
  8
0
 10
0.0
 20
0.0
 30
0.0
 70
   128
 71
     7
 72
    -8
 73
    -1
  0
VERTEX
  5
2C73
  8
0
 10
0.0
 20
0.0
 30
0.0
 70
   128
 71
     6
 72
    -7
 73
    -1
  0
VERTEX
  5
2C74
  8
0
 10
0.0
 20
0.0
 30
0.0
 70
   128
 71
     5
 72
    -6
 73
    -1
  0
VERTEX
  5
2C75
  8
0
 10
0.0
 20
0.0
 30
0.0
 70
   128
 71
     4
 72
    -5
 73
    -1
  0
VERTEX
  5
2C76
  8
0
 10
0.0
 20
0.0
 30
0.0
 70
   128
 71
     3
 72
    -4
 73
    -1
  0
VERTEX
  5
2C77
  8
0
 10
0.0
 20
0.0
 30
0.0
 70
   128
 71
     2
 72
    -3
 73
     1
  0
SEQEND
  5
309E
  8
0
  0
ENDBLK
  5
3082
  8
0
  0
BLOCK
  8
0
  2
*X2
 70
     1
 10
0.0
 20
0.0
 30
0.0
  3
*X2
  1

  0
POLYLINE
  5
2C79
  8
0
 66
     1
 10
0.0
 20
0.0
 30
0.0
 70
    64
 71
     6
 72
     4
  0
VERTEX
  5
2C7A
  8
0
 10
-235.0000000000001
 20
120.0000000000002
 30
-12.0
 70
   192
  0
VERTEX
  5
2C7B
  8
0
 10
-269.0000000000005
 20
120.0
 30
-12.0
 70
   192
  0
VERTEX
  5
2C7C
  8
0
 10
-269.0000000000005
 20
120.0
 30
-5.0
 70
   192
  0
VERTEX
  5
2C7D
  8
0
 10
-272.0000000000005
 20
120.0
 30
-5.0
 70
   192
  0
VERTEX
  5
2C7E
  8
0
 10
-272.0000000000005
 20
120.0
 30
-15.0
 70
   192
  0
VERTEX
  5
2C7F
  8
0
 10
-235.0000000000001
 20
120.0000000000002
 30
-15.0
 70
   192
  0
VERTEX
  5
2C80
  8
0
 10
0.0
 20
0.0
 30
0.0
 70
   128
 71
     6
 72
     1
 73
    -2
  0
VERTEX
  5
2C81
  8
0
 10
0.0
 20
0.0
 30
0.0
 70
   128
 71
     5
 72
    -6
 73
    -2
  0
VERTEX
  5
2C82
  8
0
 10
0.0
 20
0.0
 30
0.0
 70
   128
 71
     3
 72
     4
 73
    -5
  0
VERTEX
  5
2C83
  8
0
 10
0.0
 20
0.0
 30
0.0
 70
   128
 71
     2
 72
    -3
 73
    -5
  0
SEQEND
  5
30A1
  8
0
  0
POLYLINE
  5
2C84
  8
0
 66
     1
 10
0.0
 20
0.0
 30
0.0
 70
    64
 71
     6
 72
     4
  0
VERTEX
  5
2C85
  8
0
 10
-272.0000000000005
 20
84.99999999999997
 30
-2.0
 70
   192
  0
VERTEX
  5
2C86
  8
0
 10
-272.0000000000005
 20
144.9999999999997
 30
-2.0
 70
   192
  0
VERTEX
  5
2C87
  8
0
 10
-272.0000000000005
 20
144.9999999999997
 30
-15.0
 70
   192
  0
VERTEX
  5
2C88
  8
0
 10
-272.0000000000005
 20
120.0
 30
-15.0
 70
   192
  0
VERTEX
  5
2C89
  8
0
 10
-272.0000000000005
 20
120.0
 30
-5.0
 70
   192
  0
VERTEX
  5
2C8A
  8
0
 10
-272.0000000000005
 20
84.99999999999997
 30
-5.0
 70
   192
  0
VERTEX
  5
2C8B
  8
0
 10
0.0
 20
0.0
 30
0.0
 70
   128
 71
     3
 72
     4
 73
    -5
  0
VERTEX
  5
2C8C
  8
0
 10
0.0
 20
0.0
 30
0.0
 70
   128
 71
     2
 72
    -3
 73
    -5
  0
VERTEX
  5
2C8D
  8
0
 10
0.0
 20
0.0
 30
0.0
 70
   128
 71
     6
 72
     1
 73
    -2
  0
VERTEX
  5
2C8E
  8
0
 10
0.0
 20
0.0
 30
0.0
 70
   128
 71
     5
 72
    -6
 73
    -2
  0
SEQEND
  5
30A2
  8
0
  0
POLYLINE
  5
2C8F
  8
0
 66
     1
 10
0.0
 20
0.0
 30
0.0
 70
    64
 71
     4
 72
     2
  0
VERTEX
  5
2C90
  8
0
 10
-272.0000000000005
 20
144.9999999999997
 30
-2.0
 70
   192
  0
VERTEX
  5
2C91
  8
0
 10
-272.0000000000005
 20
144.9999999999997
 30
-15.0
 70
   192
  0
VERTEX
  5
2C92
  8
0
 10
-192.0000000000006
 20
144.9999999999999
 30
-15.0
 70
   192
  0
VERTEX
  5
2C93
  8
0
 10
-192.0000000000006
 20
144.9999999999999
 30
-2.0
 70
   192
  0
VERTEX
  5
2C94
  8
0
 10
0.0
 20
0.0
 30
0.0
 70
   128
 71
     1
 72
     4
 73
    -3
  0
VERTEX
  5
2C95
  8
0
 10
0.0
 20
0.0
 30
0.0
 70
   128
 71
    -1
 72
     3
 73
     2
  0
SEQEND
  5
30A3
  8
0
  0
POLYLINE
  5
2C96
  8
0
 66
     1
 10
0.0
 20
0.0
 30
0.0
 70
    64
 71
     6
 72
     4
  0
VERTEX
  5
2C97
  8
0
 10
-192.0000000000006
 20
144.9999999999999
 30
-2.0
 70
   192
  0
VERTEX
  5
2C98
  8
0
 10
-192.0000000000006
 20
144.9999999999999
 30
-15.0
 70
   192
  0
VERTEX
  5
2C99
  8
0
 10
-192.0000000000006
 20
120.0
 30
-15.0
 70
   192
  0
VERTEX
  5
2C9A
  8
0
 10
-192.0000000000006
 20
120.0
 30
-5.0
 70
   192
  0
VERTEX
  5
2C9B
  8
0
 10
-192.0000000000005
 20
84.99999999999991
 30
-5.0
 70
   192
  0
VERTEX
  5
2C9C
  8
0
 10
-192.0000000000005
 20
84.99999999999991
 30
-2.0
 70
   192
  0
VERTEX
  5
2C9D
  8
0
 10
0.0
 20
0.0
 30
0.0
 70
   128
 71
     4
 72
     3
 73
    -2
  0
VERTEX
  5
2C9E
  8
0
 10
0.0
 20
0.0
 30
0.0
 70
   128
 71
    -4
 72
     2
 73
    -1
  0
VERTEX
  5
2C9F
  8
0
 10
0.0
 20
0.0
 30
0.0
 70
   128
 71
     1
 72
     6
 73
    -5
  0
VERTEX
  5
2CA0
  8
0
 10
0.0
 20
0.0
 30
0.0
 70
   128
 71
    -1
 72
     5
 73
    -4
  0
SEQEND
  5
30A4
  8
0
  0
POLYLINE
  5
2CA1
  8
0
 66
     1
 10
0.0
 20
0.0
 30
0.0
 70
    64
 71
     4
 72
     2
  0
VERTEX
  5
2CA2
  8
0
 10
-192.0000000000005
 20
84.99999999999991
 30
-2.0
 70
   192
  0
VERTEX
  5
2CA3
  8
0
 10
-272.0000000000005
 20
84.99999999999997
 30
-2.0
 70
   192
  0
VERTEX
  5
2CA4
  8
0
 10
-272.0000000000005
 20
84.99999999999997
 30
-5.0
 70
   192
  0
VERTEX
  5
2CA5
  8
0
 10
-192.0000000000005
 20
84.99999999999991
 30
-5.0
 70
   192
  0
VERTEX
  5
2CA6
  8
0
 10
0.0
 20
0.0
 30
0.0
 70
   128
 71
     3
 72
     4
 73
    -1
  0
VERTEX
  5
2CA7
  8
0
 10
0.0
 20
0.0
 30
0.0
 70
   128
 71
     2
 72
    -3
 73
     1
  0
SEQEND
  5
30A5
  8
0
  0
POLYLINE
  5
2CA8
  8
0
 66
     1
 10
0.0
 20
0.0
 30
0.0
 70
    64
 71
     8
 72
     6
  0
VERTEX
  5
2CA9
  8
0
 10
-195.0000000000006
 20
141.9999999999999
 30
-5.0
 70
   192
  0
VERTEX
  5
2CAA
  8
0
 10
-269.0000000000005
 20
141.9999999999997
 30
-5.0
 70
   192
  0
VERTEX
  5
2CAB
  8
0
 10
-269.0000000000005
 20
120.0
 30
-5.0
 70
   192
  0
VERTEX
  5
2CAC
  8
0
 10
-272.0000000000005
 20
120.0
 30
-5.0
 70
   192
  0
VERTEX
  5
2CAD
  8
0
 10
-272.0000000000005
 20
84.99999999999997
 30
-5.0
 70
   192
  0
VERTEX
  5
2CAE
  8
0
 10
-192.0000000000005
 20
84.99999999999991
 30
-5.0
 70
   192
  0
VERTEX
  5
2CAF
  8
0
 10
-192.0000000000006
 20
120.0
 30
-5.0
 70
   192
  0
VERTEX
  5
2CB0
  8
0
 10
-195.0000000000006
 20
120.0
 30
-5.0
 70
   192
  0
VERTEX
  5
2CB1
  8
0
 10
0.0
 20
0.0
 30
0.0
 70
   128
 71
     8
 72
     7
 73
    -6
  0
VERTEX
  5
2CB2
  8
0
 10
0.0
 20
0.0
 30
0.0
 70
   128
 71
     3
 72
     2
 73
    -1
  0
VERTEX
  5
2CB3
  8
0
 10
0.0
 20
0.0
 30
0.0
 70
   128
 71
    -3
 72
     1
 73
    -8
  0
VERTEX
  5
2CB4
  8
0
 10
0.0
 20
0.0
 30
0.0
 70
   128
 71
    -8
 72
     6
 73
    -5
  0
VERTEX
  5
2CB5
  8
0
 10
0.0
 20
0.0
 30
0.0
 70
   128
 71
    -8
 72
    -5
 73
    -3
  0
VERTEX
  5
2CB6
  8
0
 10
0.0
 20
0.0
 30
0.0
 70
   128
 71
     5
 72
     4
 73
    -3
  0
SEQEND
  5
30A6
  8
0
  0
POLYLINE
  5
2CB7
  8
0
 66
     1
 10
0.0
 20
0.0
 30
0.0
 70
    64
 71
     4
 72
     2
  0
VERTEX
  5
2CB8
  8
0
 10
-272.0000000000005
 20
144.9999999999997
 30
-2.0
 70
   192
  0
VERTEX
  5
2CB9
  8
0
 10
-272.0000000000005
 20
84.99999999999997
 30
-2.0
 70
   192
  0
VERTEX
  5
2CBA
  8
0
 10
-192.0000000000005
 20
84.99999999999991
 30
-2.0
 70
   192
  0
VERTEX
  5
2CBB
  8
0
 10
-192.0000000000006
 20
144.9999999999999
 30
-2.0
 70
   192
  0
VERTEX
  5
2CBC
  8
0
 10
0.0
 20
0.0
 30
0.0
 70
   128
 71
     3
 72
     4
 73
    -1
  0
VERTEX
  5
2CBD
  8
0
 10
0.0
 20
0.0
 30
0.0
 70
   128
 71
     2
 72
    -3
 73
     1
  0
SEQEND
  5
30A7
  8
0
  0
POLYLINE
  5
2CBE
  8
0
 66
     1
 10
0.0
 20
0.0
 30
0.0
 70
    64
 71
     4
 72
     2
  0
VERTEX
  5
2CBF
  8
0
 10
-229.0000000000002
 20
140.0
 30
-12.0
 70
   192
  0
VERTEX
  5
2CC0
  8
0
 10
-235.0000000000002
 20
139.9999999999999
 30
-12.0
 70
   192
  0
VERTEX
  5
2CC1
  8
0
 10
-235.0000000000002
 20
139.9999999999999
 30
-15.0
 70
   192
  0
VERTEX
  5
2CC2
  8
0
 10
-229.0000000000002
 20
140.0
 30
-15.0
 70
   192
  0
VERTEX
  5
2CC3
  8
0
 10
0.0
 20
0.0
 30
0.0
 70
   128
 71
     3
 72
     4
 73
    -1
  0
VERTEX
  5
2CC4
  8
0
 10
0.0
 20
0.0
 30
0.0
 70
   128
 71
     2
 72
    -3
 73
     1
  0
SEQEND
  5
30A8
  8
0
  0
POLYLINE
  5
2CC5
  8
0
 66
     1
 10
0.0
 20
0.0
 30
0.0
 70
    64
 71
     4
 72
     2
  0
VERTEX
  5
2CC6
  8
0
 10
-235.0000000000002
 20
139.9999999999999
 30
-12.0
 70
   192
  0
VERTEX
  5
2CC7
  8
0
 10
-235.0000000000001
 20
120.0000000000002
 30
-12.0
 70
   192
  0
VERTEX
  5
2CC8
  8
0
 10
-235.0000000000001
 20
120.0000000000002
 30
-15.0
 70
   192
  0
VERTEX
  5
2CC9
  8
0
 10
-235.0000000000002
 20
139.9999999999999
 30
-15.0
 70
   192
  0
VERTEX
  5
2CCA
  8
0
 10
0.0
 20
0.0
 30
0.0
 70
   128
 71
     3
 72
     4
 73
    -1
  0
VERTEX
  5
2CCB
  8
0
 10
0.0
 20
0.0
 30
0.0
 70
   128
 71
     2
 72
    -3
 73
     1
  0
SEQEND
  5
30A9
  8
0
  0
POLYLINE
  5
2CCC
  8
0
 66
     1
 10
0.0
 20
0.0
 30
0.0
 70
    64
 71
     6
 72
     4
  0
VERTEX
  5
2CCD
  8
0
 10
-195.0000000000006
 20
120.0
 30
-5.0
 70
   192
  0
VERTEX
  5
2CCE
  8
0
 10
-195.0000000000006
 20
120.0
 30
-12.0
 70
   192
  0
VERTEX
  5
2CCF
  8
0
 10
-229.0000000000008
 20
120.0
 30
-12.0
 70
   192
  0
VERTEX
  5
2CD0
  8
0
 10
-229.0000000000008
 20
120.0
 30
-15.0
 70
   192
  0
VERTEX
  5
2CD1
  8
0
 10
-192.0000000000006
 20
120.0
 30
-15.0
 70
   192
  0
VERTEX
  5
2CD2
  8
0
 10
-192.0000000000006
 20
120.0
 30
-5.0
 70
   192
  0
VERTEX
  5
2CD3
  8
0
 10
0.0
 20
0.0
 30
0.0
 70
   128
 71
     6
 72
     1
 73
    -2
  0
VERTEX
  5
2CD4
  8
0
 10
0.0
 20
0.0
 30
0.0
 70
   128
 71
     5
 72
    -6
 73
    -2
  0
VERTEX
  5
2CD5
  8
0
 10
0.0
 20
0.0
 30
0.0
 70
   128
 71
     3
 72
     4
 73
    -5
  0
VERTEX
  5
2CD6
  8
0
 10
0.0
 20
0.0
 30
0.0
 70
   128
 71
     2
 72
    -3
 73
    -5
  0
SEQEND
  5
30AA
  8
0
  0
POLYLINE
  5
2CD7
  8
0
 66
     1
 10
0.0
 20
0.0
 30
0.0
 70
    64
 71
     4
 72
     2
  0
VERTEX
  5
2CD8
  8
0
 10
-229.0000000000008
 20
120.0
 30
-12.0
 70
   192
  0
VERTEX
  5
2CD9
  8
0
 10
-229.0000000000002
 20
140.0
 30
-12.0
 70
   192
  0
VERTEX
  5
2CDA
  8
0
 10
-229.0000000000002
 20
140.0
 30
-15.0
 70
   192
  0
VERTEX
  5
2CDB
  8
0
 10
-229.0000000000008
 20
120.0
 30
-15.0
 70
   192
  0
VERTEX
  5
2CDC
  8
0
 10
0.0
 20
0.0
 30
0.0
 70
   128
 71
     3
 72
     4
 73
    -1
  0
VERTEX
  5
2CDD
  8
0
 10
0.0
 20
0.0
 30
0.0
 70
   128
 71
     2
 72
    -3
 73
     1
  0
SEQEND
  5
30AB
  8
0
  0
POLYLINE
  5
2CDE
  8
0
 66
     1
 10
0.0
 20
0.0
 30
0.0
 70
    64
 71
     8
 72
     6
  0
VERTEX
  5
2CDF
  8
0
 10
-229.0000000000002
 20
140.0
 30
-15.0
 70
   192
  0
VERTEX
  5
2CE0
  8
0
 10
-235.0000000000002
 20
139.9999999999999
 30
-15.0
 70
   192
  0
VERTEX
  5
2CE1
  8
0
 10
-235.0000000000001
 20
120.0000000000002
 30
-15.0
 70
   192
  0
VERTEX
  5
2CE2
  8
0
 10
-272.0000000000005
 20
120.0
 30
-15.0
 70
   192
  0
VERTEX
  5
2CE3
  8
0
 10
-272.0000000000005
 20
144.9999999999997
 30
-15.0
 70
   192
  0
VERTEX
  5
2CE4
  8
0
 10
-192.0000000000006
 20
144.9999999999999
 30
-15.0
 70
   192
  0
VERTEX
  5
2CE5
  8
0
 10
-192.0000000000006
 20
120.0
 30
-15.0
 70
   192
  0
VERTEX
  5
2CE6
  8
0
 10
-229.0000000000008
 20
120.0
 30
-15.0
 70
   192
  0
VERTEX
  5
2CE7
  8
0
 10
0.0
 20
0.0
 30
0.0
 70
   128
 71
     7
 72
     8
 73
    -1
  0
VERTEX
  5
2CE8
  8
0
 10
0.0
 20
0.0
 30
0.0
 70
   128
 71
     6
 72
    -7
 73
    -1
  0
VERTEX
  5
2CE9
  8
0
 10
0.0
 20
0.0
 30
0.0
 70
   128
 71
    -6
 72
     1
 73
    -2
  0
VERTEX
  5
2CEA
  8
0
 10
0.0
 20
0.0
 30
0.0
 70
   128
 71
     5
 72
    -6
 73
    -2
  0
VERTEX
  5
2CEB
  8
0
 10
0.0
 20
0.0
 30
0.0
 70
   128
 71
     3
 72
     4
 73
    -5
  0
VERTEX
  5
2CEC
  8
0
 10
0.0
 20
0.0
 30
0.0
 70
   128
 71
     2
 72
    -3
 73
    -5
  0
SEQEND
  5
30AC
  8
0
  0
POLYLINE
  5
2CED
  8
0
 66
     1
 10
0.0
 20
0.0
 30
0.0
 70
    64
 71
     4
 72
     2
  0
VERTEX
  5
2CEE
  8
0
 10
-269.0000000000005
 20
120.0
 30
-5.0
 70
   192
  0
VERTEX
  5
2CEF
  8
0
 10
-269.0000000000005
 20
141.9999999999997
 30
-5.0
 70
   192
  0
VERTEX
  5
2CF0
  8
0
 10
-269.0000000000005
 20
141.9999999999997
 30
-12.0
 70
   192
  0
VERTEX
  5
2CF1
  8
0
 10
-269.0000000000005
 20
120.0
 30
-12.0
 70
   192
  0
VERTEX
  5
2CF2
  8
0
 10
0.0
 20
0.0
 30
0.0
 70
   128
 71
     1
 72
     4
 73
    -3
  0
VERTEX
  5
2CF3
  8
0
 10
0.0
 20
0.0
 30
0.0
 70
   128
 71
    -1
 72
     3
 73
     2
  0
SEQEND
  5
30AD
  8
0
  0
POLYLINE
  5
2CF4
  8
0
 66
     1
 10
0.0
 20
0.0
 30
0.0
 70
    64
 71
     4
 72
     2
  0
VERTEX
  5
2CF5
  8
0
 10
-195.0000000000006
 20
141.9999999999999
 30
-5.0
 70
   192
  0
VERTEX
  5
2CF6
  8
0
 10
-269.0000000000005
 20
141.9999999999997
 30
-5.0
 70
   192
  0
VERTEX
  5
2CF7
  8
0
 10
-269.0000000000005
 20
141.9999999999997
 30
-12.0
 70
   192
  0
VERTEX
  5
2CF8
  8
0
 10
-195.0000000000006
 20
141.9999999999999
 30
-12.0
 70
   192
  0
VERTEX
  5
2CF9
  8
0
 10
0.0
 20
0.0
 30
0.0
 70
   128
 71
     3
 72
     4
 73
    -1
  0
VERTEX
  5
2CFA
  8
0
 10
0.0
 20
0.0
 30
0.0
 70
   128
 71
     2
 72
    -3
 73
     1
  0
SEQEND
  5
30AE
  8
0
  0
POLYLINE
  5
2CFB
  8
0
 66
     1
 10
0.0
 20
0.0
 30
0.0
 70
    64
 71
     4
 72
     2
  0
VERTEX
  5
2CFC
  8
0
 10
-195.0000000000006
 20
120.0
 30
-5.0
 70
   192
  0
VERTEX
  5
2CFD
  8
0
 10
-195.0000000000006
 20
141.9999999999999
 30
-5.0
 70
   192
  0
VERTEX
  5
2CFE
  8
0
 10
-195.0000000000006
 20
141.9999999999999
 30
-12.0
 70
   192
  0
VERTEX
  5
2CFF
  8
0
 10
-195.0000000000006
 20
120.0
 30
-12.0
 70
   192
  0
VERTEX
  5
2D00
  8
0
 10
0.0
 20
0.0
 30
0.0
 70
   128
 71
     3
 72
     4
 73
    -1
  0
VERTEX
  5
2D01
  8
0
 10
0.0
 20
0.0
 30
0.0
 70
   128
 71
     2
 72
    -3
 73
     1
  0
SEQEND
  5
30AF
  8
0
  0
POLYLINE
  5
2D02
  8
0
 66
     1
 10
0.0
 20
0.0
 30
0.0
 70
    64
 71
     8
 72
     6
  0
VERTEX
  5
2D03
  8
0
 10
-235.0000000000002
 20
139.9999999999999
 30
-12.0
 70
   192
  0
VERTEX
  5
2D04
  8
0
 10
-235.0000000000001
 20
120.0000000000002
 30
-12.0
 70
   192
  0
VERTEX
  5
2D05
  8
0
 10
-269.0000000000005
 20
120.0
 30
-12.0
 70
   192
  0
VERTEX
  5
2D06
  8
0
 10
-269.0000000000005
 20
141.9999999999997
 30
-12.0
 70
   192
  0
VERTEX
  5
2D07
  8
0
 10
-195.0000000000006
 20
141.9999999999999
 30
-12.0
 70
   192
  0
VERTEX
  5
2D08
  8
0
 10
-195.0000000000006
 20
120.0
 30
-12.0
 70
   192
  0
VERTEX
  5
2D09
  8
0
 10
-229.0000000000008
 20
120.0
 30
-12.0
 70
   192
  0
VERTEX
  5
2D0A
  8
0
 10
-229.0000000000002
 20
140.0
 30
-12.0
 70
   192
  0
VERTEX
  5
2D0B
  8
0
 10
0.0
 20
0.0
 30
0.0
 70
   128
 71
     8
 72
     7
 73
    -6
  0
VERTEX
  5
2D0C
  8
0
 10
0.0
 20
0.0
 30
0.0
 70
   128
 71
    -8
 72
     6
 73
    -5
  0
VERTEX
  5
2D0D
  8
0
 10
0.0
 20
0.0
 30
0.0
 70
   128
 71
    -5
 72
     1
 73
    -8
  0
VERTEX
  5
2D0E
  8
0
 10
0.0
 20
0.0
 30
0.0
 70
   128
 71
     5
 72
    -4
 73
    -1
  0
VERTEX
  5
2D0F
  8
0
 10
0.0
 20
0.0
 30
0.0
 70
   128
 71
     4
 72
     3
 73
    -2
  0
VERTEX
  5
2D10
  8
0
 10
0.0
 20
0.0
 30
0.0
 70
   128
 71
    -4
 72
     2
 73
    -1
  0
SEQEND
  5
30B0
  8
0
  0
ENDBLK
  5
30A0
  8
0
  0
BLOCK
  8
0
  2
*X3
 70
     1
 10
0.0
 20
0.0
 30
0.0
  3
*X3
  1

  0
POLYLINE
  5
2D12
  8
0
 66
     1
 10
0.0
 20
0.0
 30
0.0
 70
    64
 71
     8
 72
     6
  0
VERTEX
  5
2D13
  8
0
 10
191.9999999999979
 20
120.0
 30
-5.0
 70
   192
  0
VERTEX
  5
2D14
  8
0
 10
191.9999999999981
 20
84.99999999999989
 30
-5.0
 70
   192
  0
VERTEX
  5
2D15
  8
0
 10
271.9999999999977
 20
85.00000000000074
 30
-5.0
 70
   192
  0
VERTEX
  5
2D16
  8
0
 10
271.999999999998
 20
120.0
 30
-5.0
 70
   192
  0
VERTEX
  5
2D17
  8
0
 10
268.9999999999981
 20
120.0
 30
-5.0
 70
   192
  0
VERTEX
  5
2D18
  8
0
 10
268.9999999999982
 20
142.0000000000002
 30
-5.0
 70
   192
  0
VERTEX
  5
2D19
  8
0
 10
194.9999999999977
 20
142.0000000000001
 30
-5.0
 70
   192
  0
VERTEX
  5
2D1A
  8
0
 10
194.9999999999979
 20
120.0
 30
-5.0
 70
   192
  0
VERTEX
  5
2D1B
  8
0
 10
0.0
 20
0.0
 30
0.0
 70
   128
 71
     5
 72
    -4
 73
    -8
  0
VERTEX
  5
2D1C
  8
0
 10
0.0
 20
0.0
 30
0.0
 70
   128
 71
     8
 72
     7
 73
    -6
  0
VERTEX
  5
2D1D
  8
0
 10
0.0
 20
0.0
 30
0.0
 70
   128
 71
    -8
 72
     6
 73
    -5
  0
VERTEX
  5
2D1E
  8
0
 10
0.0
 20
0.0
 30
0.0
 70
   128
 71
     4
 72
     3
 73
    -2
  0
VERTEX
  5
2D1F
  8
0
 10
0.0
 20
0.0
 30
0.0
 70
   128
 71
    -4
 72
    -2
 73
    -8
  0
VERTEX
  5
2D20
  8
0
 10
0.0
 20
0.0
 30
0.0
 70
   128
 71
     2
 72
     1
 73
    -8
  0
SEQEND
  5
30B3
  8
0
  0
POLYLINE
  5
2D21
  8
0
 66
     1
 10
0.0
 20
0.0
 30
0.0
 70
    64
 71
     6
 72
     4
  0
VERTEX
  5
2D22
  8
0
 10
191.9999999999981
 20
84.99999999999989
 30
-2.0
 70
   192
  0
VERTEX
  5
2D23
  8
0
 10
191.9999999999977
 20
145.0000000000001
 30
-2.0
 70
   192
  0
VERTEX
  5
2D24
  8
0
 10
191.9999999999977
 20
145.0000000000001
 30
-15.0
 70
   192
  0
VERTEX
  5
2D25
  8
0
 10
191.9999999999979
 20
120.0
 30
-15.0
 70
   192
  0
VERTEX
  5
2D26
  8
0
 10
191.9999999999979
 20
120.0
 30
-5.0
 70
   192
  0
VERTEX
  5
2D27
  8
0
 10
191.9999999999981
 20
84.99999999999989
 30
-5.0
 70
   192
  0
VERTEX
  5
2D28
  8
0
 10
0.0
 20
0.0
 30
0.0
 70
   128
 71
     3
 72
     4
 73
    -5
  0
VERTEX
  5
2D29
  8
0
 10
0.0
 20
0.0
 30
0.0
 70
   128
 71
     2
 72
    -3
 73
    -5
  0
VERTEX
  5
2D2A
  8
0
 10
0.0
 20
0.0
 30
0.0
 70
   128
 71
     6
 72
     1
 73
    -2
  0
VERTEX
  5
2D2B
  8
0
 10
0.0
 20
0.0
 30
0.0
 70
   128
 71
     5
 72
    -6
 73
    -2
  0
SEQEND
  5
30B4
  8
0
  0
POLYLINE
  5
2D2C
  8
0
 66
     1
 10
0.0
 20
0.0
 30
0.0
 70
    64
 71
     4
 72
     2
  0
VERTEX
  5
2D2D
  8
0
 10
191.9999999999977
 20
145.0000000000001
 30
-2.0
 70
   192
  0
VERTEX
  5
2D2E
  8
0
 10
191.9999999999977
 20
145.0000000000001
 30
-15.0
 70
   192
  0
VERTEX
  5
2D2F
  8
0
 10
271.9999999999982
 20
145.0000000000002
 30
-15.0
 70
   192
  0
VERTEX
  5
2D30
  8
0
 10
271.9999999999982
 20
145.0000000000002
 30
-2.0
 70
   192
  0
VERTEX
  5
2D31
  8
0
 10
0.0
 20
0.0
 30
0.0
 70
   128
 71
     1
 72
     4
 73
    -3
  0
VERTEX
  5
2D32
  8
0
 10
0.0
 20
0.0
 30
0.0
 70
   128
 71
    -1
 72
     3
 73
     2
  0
SEQEND
  5
30B5
  8
0
  0
POLYLINE
  5
2D33
  8
0
 66
     1
 10
0.0
 20
0.0
 30
0.0
 70
    64
 71
     6
 72
     4
  0
VERTEX
  5
2D34
  8
0
 10
271.9999999999982
 20
145.0000000000002
 30
-2.0
 70
   192
  0
VERTEX
  5
2D35
  8
0
 10
271.9999999999982
 20
145.0000000000002
 30
-15.0
 70
   192
  0
VERTEX
  5
2D36
  8
0
 10
271.999999999998
 20
120.0
 30
-15.0
 70
   192
  0
VERTEX
  5
2D37
  8
0
 10
271.999999999998
 20
120.0
 30
-5.0
 70
   192
  0
VERTEX
  5
2D38
  8
0
 10
271.9999999999977
 20
85.00000000000074
 30
-5.0
 70
   192
  0
VERTEX
  5
2D39
  8
0
 10
271.9999999999977
 20
85.00000000000074
 30
-2.0
 70
   192
  0
VERTEX
  5
2D3A
  8
0
 10
0.0
 20
0.0
 30
0.0
 70
   128
 71
     4
 72
     3
 73
    -2
  0
VERTEX
  5
2D3B
  8
0
 10
0.0
 20
0.0
 30
0.0
 70
   128
 71
    -4
 72
     2
 73
    -1
  0
VERTEX
  5
2D3C
  8
0
 10
0.0
 20
0.0
 30
0.0
 70
   128
 71
     1
 72
     6
 73
    -5
  0
VERTEX
  5
2D3D
  8
0
 10
0.0
 20
0.0
 30
0.0
 70
   128
 71
    -1
 72
     5
 73
    -4
  0
SEQEND
  5
30B6
  8
0
  0
POLYLINE
  5
2D3E
  8
0
 66
     1
 10
0.0
 20
0.0
 30
0.0
 70
    64
 71
     4
 72
     2
  0
VERTEX
  5
2D3F
  8
0
 10
271.9999999999977
 20
85.00000000000075
 30
-2.0
 70
   192
  0
VERTEX
  5
2D40
  8
0
 10
191.9999999999981
 20
84.99999999999989
 30
-2.0
 70
   192
  0
VERTEX
  5
2D41
  8
0
 10
191.9999999999981
 20
84.99999999999989
 30
-5.0
 70
   192
  0
VERTEX
  5
2D42
  8
0
 10
271.9999999999977
 20
85.00000000000075
 30
-5.0
 70
   192
  0
VERTEX
  5
2D43
  8
0
 10
0.0
 20
0.0
 30
0.0
 70
   128
 71
     3
 72
     4
 73
    -1
  0
VERTEX
  5
2D44
  8
0
 10
0.0
 20
0.0
 30
0.0
 70
   128
 71
     2
 72
    -3
 73
     1
  0
SEQEND
  5
30B7
  8
0
  0
POLYLINE
  5
2D45
  8
0
 66
     1
 10
0.0
 20
0.0
 30
0.0
 70
    64
 71
     4
 72
     2
  0
VERTEX
  5
2D46
  8
0
 10
191.9999999999977
 20
145.0000000000001
 30
-2.0
 70
   192
  0
VERTEX
  5
2D47
  8
0
 10
191.9999999999981
 20
84.99999999999989
 30
-2.0
 70
   192
  0
VERTEX
  5
2D48
  8
0
 10
271.9999999999977
 20
85.00000000000075
 30
-2.0
 70
   192
  0
VERTEX
  5
2D49
  8
0
 10
271.9999999999982
 20
145.0000000000002
 30
-2.0
 70
   192
  0
VERTEX
  5
2D4A
  8
0
 10
0.0
 20
0.0
 30
0.0
 70
   128
 71
     3
 72
     4
 73
    -1
  0
VERTEX
  5
2D4B
  8
0
 10
0.0
 20
0.0
 30
0.0
 70
   128
 71
     2
 72
    -3
 73
     1
  0
SEQEND
  5
30B8
  8
0
  0
POLYLINE
  5
2D4C
  8
0
 66
     1
 10
0.0
 20
0.0
 30
0.0
 70
    64
 71
     4
 72
     2
  0
VERTEX
  5
2D4D
  8
0
 10
229.0000000000008
 20
140.0
 30
-15.0
 70
   192
  0
VERTEX
  5
2D4E
  8
0
 10
229.0000000000008
 20
120.0
 30
-15.0
 70
   192
  0
VERTEX
  5
2D4F
  8
0
 10
229.0000000000008
 20
120.0
 30
-12.0
 70
   192
  0
VERTEX
  5
2D50
  8
0
 10
229.0000000000008
 20
140.0
 30
-12.0
 70
   192
  0
VERTEX
  5
2D51
  8
0
 10
0.0
 20
0.0
 30
0.0
 70
   128
 71
     1
 72
     4
 73
    -3
  0
VERTEX
  5
2D52
  8
0
 10
0.0
 20
0.0
 30
0.0
 70
   128
 71
    -1
 72
     3
 73
     2
  0
SEQEND
  5
30B9
  8
0
  0
POLYLINE
  5
2D53
  8
0
 66
     1
 10
0.0
 20
0.0
 30
0.0
 70
    64
 71
     6
 72
     4
  0
VERTEX
  5
2D54
  8
0
 10
229.0000000000008
 20
120.0
 30
-12.0
 70
   192
  0
VERTEX
  5
2D55
  8
0
 10
229.0000000000008
 20
120.0
 30
-15.0
 70
   192
  0
VERTEX
  5
2D56
  8
0
 10
191.9999999999979
 20
120.0
 30
-15.0
 70
   192
  0
VERTEX
  5
2D57
  8
0
 10
191.9999999999979
 20
120.0
 30
-5.0
 70
   192
  0
VERTEX
  5
2D58
  8
0
 10
194.9999999999979
 20
120.0
 30
-5.0
 70
   192
  0
VERTEX
  5
2D59
  8
0
 10
194.9999999999979
 20
120.0
 30
-12.0
 70
   192
  0
VERTEX
  5
2D5A
  8
0
 10
0.0
 20
0.0
 30
0.0
 70
   128
 71
     6
 72
     5
 73
    -4
  0
VERTEX
  5
2D5B
  8
0
 10
0.0
 20
0.0
 30
0.0
 70
   128
 71
    -6
 72
     4
 73
    -3
  0
VERTEX
  5
2D5C
  8
0
 10
0.0
 20
0.0
 30
0.0
 70
   128
 71
     3
 72
     2
 73
    -1
  0
VERTEX
  5
2D5D
  8
0
 10
0.0
 20
0.0
 30
0.0
 70
   128
 71
    -3
 72
     1
 73
    -6
  0
SEQEND
  5
30BA
  8
0
  0
POLYLINE
  5
2D5E
  8
0
 66
     1
 10
0.0
 20
0.0
 30
0.0
 70
    64
 71
     6
 72
     4
  0
VERTEX
  5
2D5F
  8
0
 10
268.999999999998
 20
120.0
 30
-5.0
 70
   192
  0
VERTEX
  5
2D60
  8
0
 10
271.999999999998
 20
120.0
 30
-5.0
 70
   192
  0
VERTEX
  5
2D61
  8
0
 10
271.999999999998
 20
120.0
 30
-15.0
 70
   192
  0
VERTEX
  5
2D62
  8
0
 10
235.0000000000002
 20
120.0
 30
-15.0
 70
   192
  0
VERTEX
  5
2D63
  8
0
 10
235.0000000000002
 20
120.0
 30
-12.0
 70
   192
  0
VERTEX
  5
2D64
  8
0
 10
268.999999999998
 20
120.0
 30
-12.0
 70
   192
  0
VERTEX
  5
2D65
  8
0
 10
0.0
 20
0.0
 30
0.0
 70
   128
 71
     6
 72
     5
 73
    -4
  0
VERTEX
  5
2D66
  8
0
 10
0.0
 20
0.0
 30
0.0
 70
   128
 71
    -6
 72
     4
 73
    -3
  0
VERTEX
  5
2D67
  8
0
 10
0.0
 20
0.0
 30
0.0
 70
   128
 71
     3
 72
     2
 73
    -1
  0
VERTEX
  5
2D68
  8
0
 10
0.0
 20
0.0
 30
0.0
 70
   128
 71
    -3
 72
     1
 73
    -6
  0
SEQEND
  5
30BB
  8
0
  0
POLYLINE
  5
2D69
  8
0
 66
     1
 10
0.0
 20
0.0
 30
0.0
 70
    64
 71
     4
 72
     2
  0
VERTEX
  5
2D6A
  8
0
 10
235.0000000000002
 20
120.0
 30
-15.0
 70
   192
  0
VERTEX
  5
2D6B
  8
0
 10
235.0000000000002
 20
140.0
 30
-15.0
 70
   192
  0
VERTEX
  5
2D6C
  8
0
 10
235.0000000000002
 20
140.0
 30
-12.0
 70
   192
  0
VERTEX
  5
2D6D
  8
0
 10
235.0000000000002
 20
120.0
 30
-12.0
 70
   192
  0
VERTEX
  5
2D6E
  8
0
 10
0.0
 20
0.0
 30
0.0
 70
   128
 71
     1
 72
     4
 73
    -3
  0
VERTEX
  5
2D6F
  8
0
 10
0.0
 20
0.0
 30
0.0
 70
   128
 71
    -1
 72
     3
 73
     2
  0
SEQEND
  5
30BC
  8
0
  0
POLYLINE
  5
2D70
  8
0
 66
     1
 10
0.0
 20
0.0
 30
0.0
 70
    64
 71
     4
 72
     2
  0
VERTEX
  5
2D71
  8
0
 10
235.0000000000002
 20
140.0
 30
-15.0
 70
   192
  0
VERTEX
  5
2D72
  8
0
 10
229.0000000000008
 20
140.0
 30
-15.0
 70
   192
  0
VERTEX
  5
2D73
  8
0
 10
229.0000000000008
 20
140.0
 30
-12.0
 70
   192
  0
VERTEX
  5
2D74
  8
0
 10
235.0000000000002
 20
140.0
 30
-12.0
 70
   192
  0
VERTEX
  5
2D75
  8
0
 10
0.0
 20
0.0
 30
0.0
 70
   128
 71
     1
 72
     4
 73
    -3
  0
VERTEX
  5
2D76
  8
0
 10
0.0
 20
0.0
 30
0.0
 70
   128
 71
    -1
 72
     3
 73
     2
  0
SEQEND
  5
30BD
  8
0
  0
POLYLINE
  5
2D77
  8
0
 66
     1
 10
0.0
 20
0.0
 30
0.0
 70
    64
 71
     8
 72
     6
  0
VERTEX
  5
2D78
  8
0
 10
229.0000000000008
 20
140.0
 30
-15.0
 70
   192
  0
VERTEX
  5
2D79
  8
0
 10
229.0000000000008
 20
120.0
 30
-15.0
 70
   192
  0
VERTEX
  5
2D7A
  8
0
 10
191.9999999999979
 20
120.0
 30
-15.0
 70
   192
  0
VERTEX
  5
2D7B
  8
0
 10
191.9999999999977
 20
145.0000000000001
 30
-15.0
 70
   192
  0
VERTEX
  5
2D7C
  8
0
 10
271.9999999999982
 20
145.0000000000002
 30
-15.0
 70
   192
  0
VERTEX
  5
2D7D
  8
0
 10
271.9999999999981
 20
120.0
 30
-15.0
 70
   192
  0
VERTEX
  5
2D7E
  8
0
 10
235.0000000000002
 20
120.0
 30
-15.0
 70
   192
  0
VERTEX
  5
2D7F
  8
0
 10
235.0000000000002
 20
140.0
 30
-15.0
 70
   192
  0
VERTEX
  5
2D80
  8
0
 10
0.0
 20
0.0
 30
0.0
 70
   128
 71
     6
 72
     7
 73
    -8
  0
VERTEX
  5
2D81
  8
0
 10
0.0
 20
0.0
 30
0.0
 70
   128
 71
     5
 72
    -6
 73
    -8
  0
VERTEX
  5
2D82
  8
0
 10
0.0
 20
0.0
 30
0.0
 70
   128
 71
    -1
 72
     4
 73
    -5
  0
VERTEX
  5
2D83
  8
0
 10
0.0
 20
0.0
 30
0.0
 70
   128
 71
     8
 72
    -1
 73
    -5
  0
VERTEX
  5
2D84
  8
0
 10
0.0
 20
0.0
 30
0.0
 70
   128
 71
     2
 72
     3
 73
    -4
  0
VERTEX
  5
2D85
  8
0
 10
0.0
 20
0.0
 30
0.0
 70
   128
 71
     1
 72
    -2
 73
    -4
  0
SEQEND
  5
30BE
  8
0
  0
POLYLINE
  5
2D86
  8
0
 66
     1
 10
0.0
 20
0.0
 30
0.0
 70
    64
 71
     4
 72
     2
  0
VERTEX
  5
2D87
  8
0
 10
194.9999999999979
 20
120.0
 30
-5.0
 70
   192
  0
VERTEX
  5
2D88
  8
0
 10
194.9999999999978
 20
142.0000000000001
 30
-5.0
 70
   192
  0
VERTEX
  5
2D89
  8
0
 10
194.9999999999978
 20
142.0000000000001
 30
-12.0
 70
   192
  0
VERTEX
  5
2D8A
  8
0
 10
194.9999999999979
 20
120.0
 30
-12.0
 70
   192
  0
VERTEX
  5
2D8B
  8
0
 10
0.0
 20
0.0
 30
0.0
 70
   128
 71
     1
 72
     4
 73
    -3
  0
VERTEX
  5
2D8C
  8
0
 10
0.0
 20
0.0
 30
0.0
 70
   128
 71
    -1
 72
     3
 73
     2
  0
SEQEND
  5
30BF
  8
0
  0
POLYLINE
  5
2D8D
  8
0
 66
     1
 10
0.0
 20
0.0
 30
0.0
 70
    64
 71
     4
 72
     2
  0
VERTEX
  5
2D8E
  8
0
 10
268.9999999999982
 20
142.0000000000002
 30
-5.0
 70
   192
  0
VERTEX
  5
2D8F
  8
0
 10
194.9999999999978
 20
142.0000000000001
 30
-5.0
 70
   192
  0
VERTEX
  5
2D90
  8
0
 10
194.9999999999978
 20
142.0000000000001
 30
-12.0
 70
   192
  0
VERTEX
  5
2D91
  8
0
 10
268.9999999999982
 20
142.0000000000001
 30
-12.0
 70
   192
  0
VERTEX
  5
2D92
  8
0
 10
0.0
 20
0.0
 30
0.0
 70
   128
 71
     3
 72
     4
 73
    -1
  0
VERTEX
  5
2D93
  8
0
 10
0.0
 20
0.0
 30
0.0
 70
   128
 71
     2
 72
    -3
 73
     1
  0
SEQEND
  5
30C0
  8
0
  0
POLYLINE
  5
2D94
  8
0
 66
     1
 10
0.0
 20
0.0
 30
0.0
 70
    64
 71
     4
 72
     2
  0
VERTEX
  5
2D95
  8
0
 10
268.9999999999981
 20
120.0
 30
-5.0
 70
   192
  0
VERTEX
  5
2D96
  8
0
 10
268.9999999999982
 20
142.0000000000001
 30
-5.0
 70
   192
  0
VERTEX
  5
2D97
  8
0
 10
268.9999999999982
 20
142.0000000000001
 30
-12.0
 70
   192
  0
VERTEX
  5
2D98
  8
0
 10
268.999999999998
 20
120.0
 30
-12.0
 70
   192
  0
VERTEX
  5
2D99
  8
0
 10
0.0
 20
0.0
 30
0.0
 70
   128
 71
     3
 72
     4
 73
    -1
  0
VERTEX
  5
2D9A
  8
0
 10
0.0
 20
0.0
 30
0.0
 70
   128
 71
     2
 72
    -3
 73
     1
  0
SEQEND
  5
30C1
  8
0
  0
POLYLINE
  5
2D9B
  8
0
 66
     1
 10
0.0
 20
0.0
 30
0.0
 70
    64
 71
     8
 72
     6
  0
VERTEX
  5
2D9C
  8
0
 10
229.0000000000008
 20
120.0
 30
-12.0
 70
   192
  0
VERTEX
  5
2D9D
  8
0
 10
194.9999999999979
 20
120.0
 30
-12.0
 70
   192
  0
VERTEX
  5
2D9E
  8
0
 10
194.9999999999978
 20
142.0000000000001
 30
-12.0
 70
   192
  0
VERTEX
  5
2D9F
  8
0
 10
268.9999999999982
 20
142.0000000000001
 30
-12.0
 70
   192
  0
VERTEX
  5
2DA0
  8
0
 10
268.999999999998
 20
120.0
 30
-12.0
 70
   192
  0
VERTEX
  5
2DA1
  8
0
 10
235.0000000000002
 20
120.0
 30
-12.0
 70
   192
  0
VERTEX
  5
2DA2
  8
0
 10
235.0000000000002
 20
140.0
 30
-12.0
 70
   192
  0
VERTEX
  5
2DA3
  8
0
 10
229.0000000000008
 20
140.0
 30
-12.0
 70
   192
  0
VERTEX
  5
2DA4
  8
0
 10
0.0
 20
0.0
 30
0.0
 70
   128
 71
     7
 72
     6
 73
    -5
  0
VERTEX
  5
2DA5
  8
0
 10
0.0
 20
0.0
 30
0.0
 70
   128
 71
    -7
 72
     5
 73
    -4
  0
VERTEX
  5
2DA6
  8
0
 10
0.0
 20
0.0
 30
0.0
 70
   128
 71
    -4
 72
     8
 73
    -7
  0
VERTEX
  5
2DA7
  8
0
 10
0.0
 20
0.0
 30
0.0
 70
   128
 71
     4
 72
    -3
 73
    -8
  0
VERTEX
  5
2DA8
  8
0
 10
0.0
 20
0.0
 30
0.0
 70
   128
 71
     3
 72
     2
 73
    -1
  0
VERTEX
  5
2DA9
  8
0
 10
0.0
 20
0.0
 30
0.0
 70
   128
 71
    -3
 72
     1
 73
    -8
  0
SEQEND
  5
30C2
  8
0
  0
ENDBLK
  5
30B2
  8
0
  0
BLOCK
  8
0
  2
*X4
 70
     1
 10
0.0
 20
0.0
 30
0.0
  3
*X4
  1

  0
POLYLINE
  5
2DAB
  8
0
 66
     1
 10
0.0
 20
0.0
 30
0.0
 70
    64
 71
    10
 72
     8
  0
VERTEX
  5
2DAC
  8
0
 10
355.0
 20
-23.49999999999995
 30
-7.0
 70
   192
  0
VERTEX
  5
2DAD
  8
0
 10
355.0
 20
-16.49999999999997
 30
-7.0
 70
   192
  0
VERTEX
  5
2DAE
  8
0
 10
350.0
 20
-16.49999999999997
 30
-7.0
 70
   192
  0
VERTEX
  5
2DAF
  8
0
 10
350.0
 20
-23.49999999999995
 30
-7.0
 70
   192
  0
VERTEX
  5
2DB0
  8
0
 10
350.0
 20
-19.99999999999996
 30
-3.500000000000006
 70
   192
  0
VERTEX
  5
2DB1
  8
0
 10
355.0
 20
-19.99999999999996
 30
-3.500000000000006
 70
   192
  0
VERTEX
  5
2DB2
  8
0
 10
350.0
 20
-22.47487373415287
 30
-4.525126265847089
 70
   192
  0
VERTEX
  5
2DB3
  8
0
 10
355.0
 20
-22.47487373415287
 30
-4.525126265847089
 70
   192
  0
VERTEX
  5
2DB4
  8
0
 10
350.0
 20
-17.52512626584705
 30
-4.525126265847089
 70
   192
  0
VERTEX
  5
2DB5
  8
0
 10
355.0
 20
-17.52512626584705
 30
-4.525126265847089
 70
   192
  0
VERTEX
  5
2DB6
  8
0
 10
0.0
 20
0.0
 30
0.0
 70
   128
 71
     7
 72
     4
 73
    -1
  0
VERTEX
  5
2DB7
  8
0
 10
0.0
 20
0.0
 30
0.0
 70
   128
 71
    -7
 72
     1
 73
     8
  0
VERTEX
  5
2DB8
  8
0
 10
0.0
 20
0.0
 30
0.0
 70
   128
 71
     6
 72
     5
 73
    -7
  0
VERTEX
  5
2DB9
  8
0
 10
0.0
 20
0.0
 30
0.0
 70
   128
 71
    -6
 72
     7
 73
     8
  0
VERTEX
  5
2DBA
  8
0
 10
0.0
 20
0.0
 30
0.0
 70
   128
 71
    10
 72
     9
 73
    -5
  0
VERTEX
  5
2DBB
  8
0
 10
0.0
 20
0.0
 30
0.0
 70
   128
 71
   -10
 72
     5
 73
     6
  0
VERTEX
  5
2DBC
  8
0
 10
0.0
 20
0.0
 30
0.0
 70
   128
 71
     2
 72
     3
 73
    -9
  0
VERTEX
  5
2DBD
  8
0
 10
0.0
 20
0.0
 30
0.0
 70
   128
 71
    -2
 72
     9
 73
    10
  0
SEQEND
  5
30C5
  8
0
  0
POLYLINE
  5
2DBE
  8
0
 66
     1
 10
0.0
 20
0.0
 30
0.0
 70
    64
 71
     8
 72
     6
  0
VERTEX
  5
2DBF
  8
0
 10
345.0000000000001
 20
-148.6602540378443
 30
-2.0
 70
   192
  0
VERTEX
  5
2DC0
  8
0
 10
345.0000000000001
 20
-148.6602540378443
 30
-12.0
 70
   192
  0
VERTEX
  5
2DC1
  8
0
 10
348.6602540378444
 20
-145.0
 30
-12.0
 70
   192
  0
VERTEX
  5
2DC2
  8
0
 10
348.6602540378444
 20
-145.0
 30
-2.0
 70
   192
  0
VERTEX
  5
2DC3
  8
0
 10
340.0000000000001
 20
-149.9999999999999
 30
-2.0
 70
   192
  0
VERTEX
  5
2DC4
  8
0
 10
340.0000000000001
 20
-149.9999999999999
 30
-12.0
 70
   192
  0
VERTEX
  5
2DC5
  8
0
 10
350.0000000000001
 20
-140.0
 30
-12.0
 70
   192
  0
VERTEX
  5
2DC6
  8
0
 10
350.0000000000001
 20
-140.0
 30
-2.0
 70
   192
  0
VERTEX
  5
2DC7
  8
0
 10
0.0
 20
0.0
 30
0.0
 70
   128
 71
     1
 72
     2
 73
    -3
  0
VERTEX
  5
2DC8
  8
0
 10
0.0
 20
0.0
 30
0.0
 70
   128
 71
    -1
 72
     3
 73
     4
  0
VERTEX
  5
2DC9
  8
0
 10
0.0
 20
0.0
 30
0.0
 70
   128
 71
     5
 72
     6
 73
    -2
  0
VERTEX
  5
2DCA
  8
0
 10
0.0
 20
0.0
 30
0.0
 70
   128
 71
    -5
 72
     2
 73
     1
  0
VERTEX
  5
2DCB
  8
0
 10
0.0
 20
0.0
 30
0.0
 70
   128
 71
     4
 72
     3
 73
    -7
  0
VERTEX
  5
2DCC
  8
0
 10
0.0
 20
0.0
 30
0.0
 70
   128
 71
    -4
 72
     7
 73
     8
  0
SEQEND
  5
30C6
  8
0
  0
POLYLINE
  5
2DCD
  8
0
 66
     1
 10
0.0
 20
0.0
 30
0.0
 70
    64
 71
     4
 72
     2
  0
VERTEX
  5
2DCE
  8
0
 10
340.0000000000001
 20
-149.9999999999999
 30
-2.0
 70
   192
  0
VERTEX
  5
2DCF
  8
0
 10
340.0000000000001
 20
-149.9999999999999
 30
-12.0
 70
   192
  0
VERTEX
  5
2DD0
  8
0
 10
160.0000000000001
 20
-150.0
 30
-12.0
 70
   192
  0
VERTEX
  5
2DD1
  8
0
 10
160.0000000000001
 20
-149.9999999999999
 30
-2.0
 70
   192
  0
VERTEX
  5
2DD2
  8
0
 10
0.0
 20
0.0
 30
0.0
 70
   128
 71
     1
 72
     4
 73
    -3
  0
VERTEX
  5
2DD3
  8
0
 10
0.0
 20
0.0
 30
0.0
 70
   128
 71
    -1
 72
     3
 73
     2
  0
SEQEND
  5
30C7
  8
0
  0
POLYLINE
  5
2DD4
  8
0
 66
     1
 10
0.0
 20
0.0
 30
0.0
 70
    64
 71
     8
 72
     6
  0
VERTEX
  5
2DD5
  8
0
 10
151.3397459621557
 20
-145.0
 30
-2.0
 70
   192
  0
VERTEX
  5
2DD6
  8
0
 10
151.3397459621557
 20
-145.0
 30
-12.0
 70
   192
  0
VERTEX
  5
2DD7
  8
0
 10
155.0000000000001
 20
-148.6602540378443
 30
-12.0
 70
   192
  0
VERTEX
  5
2DD8
  8
0
 10
155.0000000000001
 20
-148.6602540378443
 30
-2.0
 70
   192
  0
VERTEX
  5
2DD9
  8
0
 10
150.0000000000001
 20
-140.0
 30
-2.0
 70
   192
  0
VERTEX
  5
2DDA
  8
0
 10
150.0000000000001
 20
-140.0
 30
-12.0
 70
   192
  0
VERTEX
  5
2DDB
  8
0
 10
160.0000000000001
 20
-149.9999999999999
 30
-12.0
 70
   192
  0
VERTEX
  5
2DDC
  8
0
 10
160.0000000000001
 20
-150.0
 30
-2.0
 70
   192
  0
VERTEX
  5
2DDD
  8
0
 10
0.0
 20
0.0
 30
0.0
 70
   128
 71
     1
 72
     2
 73
    -3
  0
VERTEX
  5
2DDE
  8
0
 10
0.0
 20
0.0
 30
0.0
 70
   128
 71
    -1
 72
     3
 73
     4
  0
VERTEX
  5
2DDF
  8
0
 10
0.0
 20
0.0
 30
0.0
 70
   128
 71
     5
 72
     6
 73
    -2
  0
VERTEX
  5
2DE0
  8
0
 10
0.0
 20
0.0
 30
0.0
 70
   128
 71
    -5
 72
     2
 73
     1
  0
VERTEX
  5
2DE1
  8
0
 10
0.0
 20
0.0
 30
0.0
 70
   128
 71
     4
 72
     3
 73
    -7
  0
VERTEX
  5
2DE2
  8
0
 10
0.0
 20
0.0
 30
0.0
 70
   128
 71
    -4
 72
     7
 73
     8
  0
SEQEND
  5
30C8
  8
0
  0
POLYLINE
  5
2DE3
  8
0
 66
     1
 10
0.0
 20
0.0
 30
0.0
 70
    64
 71
     4
 72
     2
  0
VERTEX
  5
2DE4
  8
0
 10
150.0000000000001
 20
-140.0
 30
-2.0
 70
   192
  0
VERTEX
  5
2DE5
  8
0
 10
150.0000000000001
 20
-140.0
 30
-12.0
 70
   192
  0
VERTEX
  5
2DE6
  8
0
 10
150.0000000000001
 20
20.00000000000002
 30
-12.0
 70
   192
  0
VERTEX
  5
2DE7
  8
0
 10
150.0000000000001
 20
20.00000000000002
 30
-2.0
 70
   192
  0
VERTEX
  5
2DE8
  8
0
 10
0.0
 20
0.0
 30
0.0
 70
   128
 71
     1
 72
     4
 73
    -3
  0
VERTEX
  5
2DE9
  8
0
 10
0.0
 20
0.0
 30
0.0
 70
   128
 71
    -1
 72
     3
 73
     2
  0
SEQEND
  5
30C9
  8
0
  0
POLYLINE
  5
2DEA
  8
0
 66
     1
 10
0.0
 20
0.0
 30
0.0
 70
    64
 71
     8
 72
     6
  0
VERTEX
  5
2DEB
  8
0
 10
155.0000000000001
 20
28.66025403784441
 30
-2.0
 70
   192
  0
VERTEX
  5
2DEC
  8
0
 10
155.0000000000001
 20
28.66025403784441
 30
-12.0
 70
   192
  0
VERTEX
  5
2DED
  8
0
 10
151.3397459621557
 20
25.00000000000002
 30
-12.0
 70
   192
  0
VERTEX
  5
2DEE
  8
0
 10
151.3397459621557
 20
25.00000000000002
 30
-2.0
 70
   192
  0
VERTEX
  5
2DEF
  8
0
 10
160.0000000000001
 20
30.00000000000003
 30
-2.0
 70
   192
  0
VERTEX
  5
2DF0
  8
0
 10
160.0000000000001
 20
30.00000000000003
 30
-12.0
 70
   192
  0
VERTEX
  5
2DF1
  8
0
 10
150.0000000000001
 20
20.00000000000002
 30
-12.0
 70
   192
  0
VERTEX
  5
2DF2
  8
0
 10
150.0000000000001
 20
20.00000000000002
 30
-2.0
 70
   192
  0
VERTEX
  5
2DF3
  8
0
 10
0.0
 20
0.0
 30
0.0
 70
   128
 71
     1
 72
     2
 73
    -3
  0
VERTEX
  5
2DF4
  8
0
 10
0.0
 20
0.0
 30
0.0
 70
   128
 71
    -1
 72
     3
 73
     4
  0
VERTEX
  5
2DF5
  8
0
 10
0.0
 20
0.0
 30
0.0
 70
   128
 71
     5
 72
     6
 73
    -2
  0
VERTEX
  5
2DF6
  8
0
 10
0.0
 20
0.0
 30
0.0
 70
   128
 71
    -5
 72
     2
 73
     1
  0
VERTEX
  5
2DF7
  8
0
 10
0.0
 20
0.0
 30
0.0
 70
   128
 71
     4
 72
     3
 73
    -7
  0
VERTEX
  5
2DF8
  8
0
 10
0.0
 20
0.0
 30
0.0
 70
   128
 71
    -4
 72
     7
 73
     8
  0
SEQEND
  5
30CA
  8
0
  0
POLYLINE
  5
2DF9
  8
0
 66
     1
 10
0.0
 20
0.0
 30
0.0
 70
    64
 71
     4
 72
     2
  0
VERTEX
  5
2DFA
  8
0
 10
160.0000000000001
 20
30.00000000000003
 30
-2.0
 70
   192
  0
VERTEX
  5
2DFB
  8
0
 10
160.0000000000001
 20
30.00000000000003
 30
-12.0
 70
   192
  0
VERTEX
  5
2DFC
  8
0
 10
340.0000000000001
 20
30.00000000000003
 30
-12.0
 70
   192
  0
VERTEX
  5
2DFD
  8
0
 10
340.0000000000001
 20
30.00000000000002
 30
-2.0
 70
   192
  0
VERTEX
  5
2DFE
  8
0
 10
0.0
 20
0.0
 30
0.0
 70
   128
 71
     1
 72
     4
 73
    -3
  0
VERTEX
  5
2DFF
  8
0
 10
0.0
 20
0.0
 30
0.0
 70
   128
 71
    -1
 72
     3
 73
     2
  0
SEQEND
  5
30CB
  8
0
  0
POLYLINE
  5
2E00
  8
0
 66
     1
 10
0.0
 20
0.0
 30
0.0
 70
    64
 71
     8
 72
     6
  0
VERTEX
  5
2E01
  8
0
 10
348.6602540378444
 20
25.00000000000004
 30
-2.0
 70
   192
  0
VERTEX
  5
2E02
  8
0
 10
348.6602540378444
 20
25.00000000000004
 30
-12.0
 70
   192
  0
VERTEX
  5
2E03
  8
0
 10
345.0000000000001
 20
28.66025403784442
 30
-12.0
 70
   192
  0
VERTEX
  5
2E04
  8
0
 10
345.0000000000001
 20
28.66025403784442
 30
-2.0
 70
   192
  0
VERTEX
  5
2E05
  8
0
 10
350.0000000000001
 20
20.00000000000003
 30
-2.0
 70
   192
  0
VERTEX
  5
2E06
  8
0
 10
350.0000000000001
 20
20.00000000000003
 30
-12.0
 70
   192
  0
VERTEX
  5
2E07
  8
0
 10
340.0000000000001
 20
30.00000000000004
 30
-12.0
 70
   192
  0
VERTEX
  5
2E08
  8
0
 10
340.0000000000001
 20
30.00000000000003
 30
-2.0
 70
   192
  0
VERTEX
  5
2E09
  8
0
 10
0.0
 20
0.0
 30
0.0
 70
   128
 71
     1
 72
     2
 73
    -3
  0
VERTEX
  5
2E0A
  8
0
 10
0.0
 20
0.0
 30
0.0
 70
   128
 71
    -1
 72
     3
 73
     4
  0
VERTEX
  5
2E0B
  8
0
 10
0.0
 20
0.0
 30
0.0
 70
   128
 71
     5
 72
     6
 73
    -2
  0
VERTEX
  5
2E0C
  8
0
 10
0.0
 20
0.0
 30
0.0
 70
   128
 71
    -5
 72
     2
 73
     1
  0
VERTEX
  5
2E0D
  8
0
 10
0.0
 20
0.0
 30
0.0
 70
   128
 71
     4
 72
     3
 73
    -7
  0
VERTEX
  5
2E0E
  8
0
 10
0.0
 20
0.0
 30
0.0
 70
   128
 71
    -4
 72
     7
 73
     8
  0
SEQEND
  5
30CC
  8
0
  0
POLYLINE
  5
2E0F
  8
0
 66
     1
 10
0.0
 20
0.0
 30
0.0
 70
    64
 71
    12
 72
    12
  0
VERTEX
  5
2E10
  8
0
 10
350.0000000000001
 20
20.00000000000003
 30
-2.0
 70
   192
  0
VERTEX
  5
2E11
  8
0
 10
350.0000000000001
 20
20.00000000000003
 30
-12.0
 70
   192
  0
VERTEX
  5
2E12
  8
0
 10
350.0000000000001
 20
-140.0
 30
-12.0
 70
   192
  0
VERTEX
  5
2E13
  8
0
 10
350.0000000000001
 20
-140.0
 30
-2.0
 70
   192
  0
VERTEX
  5
2E14
  8
0
 10
350.0
 20
-23.49999999999995
 30
-7.0
 70
   192
  0
VERTEX
  5
2E15
  8
0
 10
350.0
 20
-22.47487373415287
 30
-9.474873734152911
 70
   192
  0
VERTEX
  5
2E16
  8
0
 10
350.0
 20
-19.99999999999996
 30
-10.49999999999999
 70
   192
  0
VERTEX
  5
2E17
  8
0
 10
350.0
 20
-17.52512626584705
 30
-9.474873734152911
 70
   192
  0
VERTEX
  5
2E18
  8
0
 10
350.0
 20
-16.49999999999997
 30
-7.0
 70
   192
  0
VERTEX
  5
2E19
  8
0
 10
350.0
 20
-17.52512626584705
 30
-4.525126265847089
 70
   192
  0
VERTEX
  5
2E1A
  8
0
 10
350.0
 20
-19.99999999999996
 30
-3.500000000000006
 70
   192
  0
VERTEX
  5
2E1B
  8
0
 10
350.0
 20
-22.47487373415287
 30
-4.525126265847089
 70
   192
  0
VERTEX
  5
2E1C
  8
0
 10
0.0
 20
0.0
 30
0.0
 70
   128
 71
     6
 72
    -5
 73
    -3
  0
VERTEX
  5
2E1D
  8
0
 10
0.0
 20
0.0
 30
0.0
 70
   128
 71
    -3
 72
     7
 73
    -6
  0
VERTEX
  5
2E1E
  8
0
 10
0.0
 20
0.0
 30
0.0
 70
   128
 71
     3
 72
    -2
 73
    -7
  0
VERTEX
  5
2E1F
  8
0
 10
0.0
 20
0.0
 30
0.0
 70
   128
 71
    -2
 72
     8
 73
    -7
  0
VERTEX
  5
2E20
  8
0
 10
0.0
 20
0.0
 30
0.0
 70
   128
 71
     2
 72
    -1
 73
    -9
  0
VERTEX
  5
2E21
  8
0
 10
0.0
 20
0.0
 30
0.0
 70
   128
 71
    -2
 72
     9
 73
    -8
  0
VERTEX
  5
2E22
  8
0
 10
0.0
 20
0.0
 30
0.0
 70
   128
 71
    -1
 72
    10
 73
    -9
  0
VERTEX
  5
2E23
  8
0
 10
0.0
 20
0.0
 30
0.0
 70
   128
 71
    -1
 72
    11
 73
   -10
  0
VERTEX
  5
2E24
  8
0
 10
0.0
 20
0.0
 30
0.0
 70
   128
 71
   -11
 72
     1
 73
    -4
  0
VERTEX
  5
2E25
  8
0
 10
0.0
 20
0.0
 30
0.0
 70
   128
 71
    -4
 72
    12
 73
   -11
  0
VERTEX
  5
2E26
  8
0
 10
0.0
 20
0.0
 30
0.0
 70
   128
 71
     4
 72
    -3
 73
    -5
  0
VERTEX
  5
2E27
  8
0
 10
0.0
 20
0.0
 30
0.0
 70
   128
 71
    -4
 72
     5
 73
   -12
  0
SEQEND
  5
30CD
  8
0
  0
POLYLINE
  5
2E28
  8
0
 66
     1
 10
0.0
 20
0.0
 30
0.0
 70
    64
 71
    16
 72
    14
  0
VERTEX
  5
2E29
  8
0
 10
350.0000000000001
 20
-140.0
 30
-12.0
 70
   192
  0
VERTEX
  5
2E2A
  8
0
 10
348.6602540378444
 20
-145.0
 30
-12.0
 70
   192
  0
VERTEX
  5
2E2B
  8
0
 10
345.0000000000001
 20
-148.6602540378443
 30
-12.0
 70
   192
  0
VERTEX
  5
2E2C
  8
0
 10
340.0000000000001
 20
-149.9999999999999
 30
-12.0
 70
   192
  0
VERTEX
  5
2E2D
  8
0
 10
160.0000000000001
 20
-149.9999999999999
 30
-12.0
 70
   192
  0
VERTEX
  5
2E2E
  8
0
 10
155.0000000000001
 20
-148.6602540378443
 30
-12.0
 70
   192
  0
VERTEX
  5
2E2F
  8
0
 10
151.3397459621557
 20
-145.0
 30
-12.0
 70
   192
  0
VERTEX
  5
2E30
  8
0
 10
150.0000000000001
 20
-140.0
 30
-12.0
 70
   192
  0
VERTEX
  5
2E31
  8
0
 10
150.0000000000001
 20
20.00000000000002
 30
-12.0
 70
   192
  0
VERTEX
  5
2E32
  8
0
 10
151.3397459621557
 20
25.00000000000002
 30
-12.0
 70
   192
  0
VERTEX
  5
2E33
  8
0
 10
155.0000000000001
 20
28.66025403784441
 30
-12.0
 70
   192
  0
VERTEX
  5
2E34
  8
0
 10
160.0000000000001
 20
30.00000000000003
 30
-12.0
 70
   192
  0
VERTEX
  5
2E35
  8
0
 10
340.0000000000001
 20
30.00000000000002
 30
-12.0
 70
   192
  0
VERTEX
  5
2E36
  8
0
 10
345.0000000000001
 20
28.66025403784442
 30
-12.0
 70
   192
  0
VERTEX
  5
2E37
  8
0
 10
348.6602540378444
 20
25.00000000000004
 30
-12.0
 70
   192
  0
VERTEX
  5
2E38
  8
0
 10
350.0000000000001
 20
20.00000000000003
 30
-12.0
 70
   192
  0
VERTEX
  5
2E39
  8
0
 10
0.0
 20
0.0
 30
0.0
 70
   128
 71
    15
 72
    16
 73
    -1
  0
VERTEX
  5
2E3A
  8
0
 10
0.0
 20
0.0
 30
0.0
 70
   128
 71
    14
 72
   -15
 73
    -1
  0
VERTEX
  5
2E3B
  8
0
 10
0.0
 20
0.0
 30
0.0
 70
   128
 71
    13
 72
   -14
 73
    -1
  0
VERTEX
  5
2E3C
  8
0
 10
0.0
 20
0.0
 30
0.0
 70
   128
 71
    12
 72
   -13
 73
    -1
  0
VERTEX
  5
2E3D
  8
0
 10
0.0
 20
0.0
 30
0.0
 70
   128
 71
    11
 72
   -12
 73
    -1
  0
VERTEX
  5
2E3E
  8
0
 10
0.0
 20
0.0
 30
0.0
 70
   128
 71
    10
 72
   -11
 73
    -1
  0
VERTEX
  5
2E3F
  8
0
 10
0.0
 20
0.0
 30
0.0
 70
   128
 71
     9
 72
   -10
 73
    -1
  0
VERTEX
  5
2E40
  8
0
 10
0.0
 20
0.0
 30
0.0
 70
   128
 71
     8
 72
    -9
 73
    -1
  0
VERTEX
  5
2E41
  8
0
 10
0.0
 20
0.0
 30
0.0
 70
   128
 71
     7
 72
    -8
 73
    -1
  0
VERTEX
  5
2E42
  8
0
 10
0.0
 20
0.0
 30
0.0
 70
   128
 71
     6
 72
    -7
 73
    -1
  0
VERTEX
  5
2E43
  8
0
 10
0.0
 20
0.0
 30
0.0
 70
   128
 71
     5
 72
    -6
 73
    -1
  0
VERTEX
  5
2E44
  8
0
 10
0.0
 20
0.0
 30
0.0
 70
   128
 71
     4
 72
    -5
 73
    -1
  0
VERTEX
  5
2E45
  8
0
 10
0.0
 20
0.0
 30
0.0
 70
   128
 71
     3
 72
    -4
 73
    -1
  0
VERTEX
  5
2E46
  8
0
 10
0.0
 20
0.0
 30
0.0
 70
   128
 71
     2
 72
    -3
 73
     1
  0
SEQEND
  5
30CE
  8
0
  0
POLYLINE
  5
2E47
  8
0
 66
     1
 10
0.0
 20
0.0
 30
0.0
 70
    64
 71
    16
 72
    14
  0
VERTEX
  5
2E48
  8
0
 10
340.0000000000001
 20
-149.9999999999999
 30
-2.0
 70
   192
  0
VERTEX
  5
2E49
  8
0
 10
160.0000000000001
 20
-149.9999999999999
 30
-2.0
 70
   192
  0
VERTEX
  5
2E4A
  8
0
 10
155.0000000000001
 20
-148.6602540378443
 30
-2.0
 70
   192
  0
VERTEX
  5
2E4B
  8
0
 10
151.3397459621557
 20
-145.0
 30
-2.0
 70
   192
  0
VERTEX
  5
2E4C
  8
0
 10
150.0000000000001
 20
-140.0
 30
-2.0
 70
   192
  0
VERTEX
  5
2E4D
  8
0
 10
150.0000000000001
 20
20.00000000000002
 30
-2.0
 70
   192
  0
VERTEX
  5
2E4E
  8
0
 10
151.3397459621557
 20
25.00000000000002
 30
-2.0
 70
   192
  0
VERTEX
  5
2E4F
  8
0
 10
155.0000000000001
 20
28.66025403784441
 30
-2.0
 70
   192
  0
VERTEX
  5
2E50
  8
0
 10
160.0000000000001
 20
30.00000000000003
 30
-2.0
 70
   192
  0
VERTEX
  5
2E51
  8
0
 10
340.0000000000001
 20
30.00000000000004
 30
-2.0
 70
   192
  0
VERTEX
  5
2E52
  8
0
 10
345.0000000000001
 20
28.66025403784442
 30
-2.0
 70
   192
  0
VERTEX
  5
2E53
  8
0
 10
348.6602540378444
 20
25.00000000000004
 30
-2.0
 70
   192
  0
VERTEX
  5
2E54
  8
0
 10
350.0000000000001
 20
20.00000000000003
 30
-2.0
 70
   192
  0
VERTEX
  5
2E55
  8
0
 10
350.0000000000001
 20
-140.0
 30
-2.0
 70
   192
  0
VERTEX
  5
2E56
  8
0
 10
348.6602540378444
 20
-145.0
 30
-2.0
 70
   192
  0
VERTEX
  5
2E57
  8
0
 10
345.0000000000001
 20
-148.6602540378443
 30
-2.0
 70
   192
  0
VERTEX
  5
2E58
  8
0
 10
0.0
 20
0.0
 30
0.0
 70
   128
 71
     1
 72
    16
 73
   -15
  0
VERTEX
  5
2E59
  8
0
 10
0.0
 20
0.0
 30
0.0
 70
   128
 71
    -1
 72
    15
 73
   -14
  0
VERTEX
  5
2E5A
  8
0
 10
0.0
 20
0.0
 30
0.0
 70
   128
 71
    -1
 72
    14
 73
   -13
  0
VERTEX
  5
2E5B
  8
0
 10
0.0
 20
0.0
 30
0.0
 70
   128
 71
    -1
 72
    13
 73
   -12
  0
VERTEX
  5
2E5C
  8
0
 10
0.0
 20
0.0
 30
0.0
 70
   128
 71
    -1
 72
    12
 73
   -11
  0
VERTEX
  5
2E5D
  8
0
 10
0.0
 20
0.0
 30
0.0
 70
   128
 71
    -1
 72
    11
 73
   -10
  0
VERTEX
  5
2E5E
  8
0
 10
0.0
 20
0.0
 30
0.0
 70
   128
 71
    -1
 72
    10
 73
    -9
  0
VERTEX
  5
2E5F
  8
0
 10
0.0
 20
0.0
 30
0.0
 70
   128
 71
    -1
 72
     9
 73
    -8
  0
VERTEX
  5
2E60
  8
0
 10
0.0
 20
0.0
 30
0.0
 70
   128
 71
    -1
 72
     8
 73
    -7
  0
VERTEX
  5
2E61
  8
0
 10
0.0
 20
0.0
 30
0.0
 70
   128
 71
    -1
 72
     7
 73
    -6
  0
VERTEX
  5
2E62
  8
0
 10
0.0
 20
0.0
 30
0.0
 70
   128
 71
    -1
 72
     6
 73
    -5
  0
VERTEX
  5
2E63
  8
0
 10
0.0
 20
0.0
 30
0.0
 70
   128
 71
    -1
 72
     5
 73
    -4
  0
VERTEX
  5
2E64
  8
0
 10
0.0
 20
0.0
 30
0.0
 70
   128
 71
    -1
 72
     4
 73
    -3
  0
VERTEX
  5
2E65
  8
0
 10
0.0
 20
0.0
 30
0.0
 70
   128
 71
    -1
 72
     3
 73
     2
  0
SEQEND
  5
30CF
  8
0
  0
POLYLINE
  5
2E66
  8
0
 66
     1
 10
0.0
 20
0.0
 30
0.0
 70
    64
 71
    10
 72
     8
  0
VERTEX
  5
2E67
  8
0
 10
355.0
 20
-16.49999999999997
 30
-7.0
 70
   192
  0
VERTEX
  5
2E68
  8
0
 10
355.0
 20
-23.49999999999995
 30
-7.0
 70
   192
  0
VERTEX
  5
2E69
  8
0
 10
350.0
 20
-23.49999999999995
 30
-7.0
 70
   192
  0
VERTEX
  5
2E6A
  8
0
 10
350.0
 20
-16.49999999999997
 30
-7.0
 70
   192
  0
VERTEX
  5
2E6B
  8
0
 10
350.0
 20
-19.99999999999996
 30
-10.49999999999999
 70
   192
  0
VERTEX
  5
2E6C
  8
0
 10
355.0
 20
-19.99999999999996
 30
-10.49999999999999
 70
   192
  0
VERTEX
  5
2E6D
  8
0
 10
350.0
 20
-17.52512626584705
 30
-9.474873734152911
 70
   192
  0
VERTEX
  5
2E6E
  8
0
 10
355.0
 20
-17.52512626584705
 30
-9.474873734152911
 70
   192
  0
VERTEX
  5
2E6F
  8
0
 10
350.0
 20
-22.47487373415287
 30
-9.474873734152911
 70
   192
  0
VERTEX
  5
2E70
  8
0
 10
355.0
 20
-22.47487373415287
 30
-9.474873734152911
 70
   192
  0
VERTEX
  5
2E71
  8
0
 10
0.0
 20
0.0
 30
0.0
 70
   128
 71
     8
 72
     7
 73
    -4
  0
VERTEX
  5
2E72
  8
0
 10
0.0
 20
0.0
 30
0.0
 70
   128
 71
    -8
 72
     4
 73
     1
  0
VERTEX
  5
2E73
  8
0
 10
0.0
 20
0.0
 30
0.0
 70
   128
 71
     6
 72
     5
 73
    -7
  0
VERTEX
  5
2E74
  8
0
 10
0.0
 20
0.0
 30
0.0
 70
   128
 71
    -6
 72
     7
 73
     8
  0
VERTEX
  5
2E75
  8
0
 10
0.0
 20
0.0
 30
0.0
 70
   128
 71
    10
 72
     9
 73
    -5
  0
VERTEX
  5
2E76
  8
0
 10
0.0
 20
0.0
 30
0.0
 70
   128
 71
   -10
 72
     5
 73
     6
  0
VERTEX
  5
2E77
  8
0
 10
0.0
 20
0.0
 30
0.0
 70
   128
 71
     2
 72
     3
 73
    -9
  0
VERTEX
  5
2E78
  8
0
 10
0.0
 20
0.0
 30
0.0
 70
   128
 71
    -2
 72
     9
 73
    10
  0
SEQEND
  5
30D0
  8
0
  0
POLYLINE
  5
2E79
  8
0
 66
     1
 10
0.0
 20
0.0
 30
0.0
 70
    64
 71
     8
 72
     6
  0
VERTEX
  5
2E7A
  8
0
 10
355.0
 20
-16.49999999999997
 30
-7.0
 70
   192
  0
VERTEX
  5
2E7B
  8
0
 10
355.0
 20
-17.52512626584705
 30
-9.474873734152911
 70
   192
  0
VERTEX
  5
2E7C
  8
0
 10
355.0
 20
-19.99999999999996
 30
-10.49999999999999
 70
   192
  0
VERTEX
  5
2E7D
  8
0
 10
355.0
 20
-22.47487373415287
 30
-9.474873734152911
 70
   192
  0
VERTEX
  5
2E7E
  8
0
 10
355.0
 20
-23.49999999999995
 30
-7.0
 70
   192
  0
VERTEX
  5
2E7F
  8
0
 10
355.0
 20
-22.47487373415287
 30
-4.525126265847089
 70
   192
  0
VERTEX
  5
2E80
  8
0
 10
355.0
 20
-19.99999999999996
 30
-3.500000000000006
 70
   192
  0
VERTEX
  5
2E81
  8
0
 10
355.0
 20
-17.52512626584705
 30
-4.525126265847089
 70
   192
  0
VERTEX
  5
2E82
  8
0
 10
0.0
 20
0.0
 30
0.0
 70
   128
 71
     1
 72
     8
 73
    -7
  0
VERTEX
  5
2E83
  8
0
 10
0.0
 20
0.0
 30
0.0
 70
   128
 71
    -1
 72
     7
 73
    -6
  0
VERTEX
  5
2E84
  8
0
 10
0.0
 20
0.0
 30
0.0
 70
   128
 71
    -1
 72
     6
 73
    -5
  0
VERTEX
  5
2E85
  8
0
 10
0.0
 20
0.0
 30
0.0
 70
   128
 71
    -1
 72
     5
 73
    -4
  0
VERTEX
  5
2E86
  8
0
 10
0.0
 20
0.0
 30
0.0
 70
   128
 71
    -1
 72
     4
 73
    -3
  0
VERTEX
  5
2E87
  8
0
 10
0.0
 20
0.0
 30
0.0
 70
   128
 71
    -1
 72
     3
 73
     2
  0
SEQEND
  5
30D1
  8
0
  0
ENDBLK
  5
30C4
  8
0
  0
BLOCK
  8
0
  2
*X5
 70
     1
 10
0.0
 20
0.0
 30
0.0
  3
*X5
  1

  0
POLYLINE
  5
2E89
  8
0
 66
     1
 10
0.0
 20
0.0
 30
0.0
 70
    64
 71
     4
 72
     2
  0
VERTEX
  5
2E8A
  8
0
 10
-444.9999999999998
 20
-200.0000000000001
 30
-2.0
 70
   192
  0
VERTEX
  5
2E8B
  8
0
 10
-444.9999999999998
 20
-200.0000000000001
 30
-20.0
 70
   192
  0
VERTEX
  5
2E8C
  8
0
 10
-444.9999999999998
 20
199.9999999999999
 30
-20.0
 70
   192
  0
VERTEX
  5
2E8D
  8
0
 10
-444.9999999999998
 20
199.9999999999999
 30
-2.0
 70
   192
  0
VERTEX
  5
2E8E
  8
0
 10
0.0
 20
0.0
 30
0.0
 70
   128
 71
     1
 72
     4
 73
    -3
  0
VERTEX
  5
2E8F
  8
0
 10
0.0
 20
0.0
 30
0.0
 70
   128
 71
    -1
 72
     3
 73
     2
  0
SEQEND
  5
30D4
  8
0
  0
POLYLINE
  5
2E90
  8
0
 66
     1
 10
0.0
 20
0.0
 30
0.0
 70
    64
 71
     8
 72
     6
  0
VERTEX
  5
2E91
  8
0
 10
-422.4999999999998
 20
238.9711431702996
 30
-2.0
 70
   192
  0
VERTEX
  5
2E92
  8
0
 10
-422.4999999999998
 20
238.9711431702996
 30
-20.0
 70
   192
  0
VERTEX
  5
2E93
  8
0
 10
-438.9711431702996
 20
222.4999999999999
 30
-20.0
 70
   192
  0
VERTEX
  5
2E94
  8
0
 10
-438.9711431702996
 20
222.4999999999999
 30
-2.0
 70
   192
  0
VERTEX
  5
2E95
  8
0
 10
-399.9999999999999
 20
244.9999999999999
 30
-2.0
 70
   192
  0
VERTEX
  5
2E96
  8
0
 10
-399.9999999999999
 20
244.9999999999999
 30
-20.0
 70
   192
  0
VERTEX
  5
2E97
  8
0
 10
-444.9999999999998
 20
199.9999999999999
 30
-20.0
 70
   192
  0
VERTEX
  5
2E98
  8
0
 10
-444.9999999999998
 20
199.9999999999999
 30
-2.0
 70
   192
  0
VERTEX
  5
2E99
  8
0
 10
0.0
 20
0.0
 30
0.0
 70
   128
 71
     1
 72
     2
 73
    -3
  0
VERTEX
  5
2E9A
  8
0
 10
0.0
 20
0.0
 30
0.0
 70
   128
 71
    -1
 72
     3
 73
     4
  0
VERTEX
  5
2E9B
  8
0
 10
0.0
 20
0.0
 30
0.0
 70
   128
 71
     5
 72
     6
 73
    -2
  0
VERTEX
  5
2E9C
  8
0
 10
0.0
 20
0.0
 30
0.0
 70
   128
 71
    -5
 72
     2
 73
     1
  0
VERTEX
  5
2E9D
  8
0
 10
0.0
 20
0.0
 30
0.0
 70
   128
 71
     4
 72
     3
 73
    -7
  0
VERTEX
  5
2E9E
  8
0
 10
0.0
 20
0.0
 30
0.0
 70
   128
 71
    -4
 72
     7
 73
     8
  0
SEQEND
  5
30D5
  8
0
  0
POLYLINE
  5
2E9F
  8
0
 66
     1
 10
0.0
 20
0.0
 30
0.0
 70
    64
 71
     4
 72
     2
  0
VERTEX
  5
2EA0
  8
0
 10
-399.9999999999999
 20
244.9999999999999
 30
-2.0
 70
   192
  0
VERTEX
  5
2EA1
  8
0
 10
-399.9999999999999
 20
244.9999999999999
 30
-20.0
 70
   192
  0
VERTEX
  5
2EA2
  8
0
 10
400.0000000000002
 20
245.0
 30
-20.0
 70
   192
  0
VERTEX
  5
2EA3
  8
0
 10
400.0000000000002
 20
245.0
 30
-2.0
 70
   192
  0
VERTEX
  5
2EA4
  8
0
 10
0.0
 20
0.0
 30
0.0
 70
   128
 71
     1
 72
     4
 73
    -3
  0
VERTEX
  5
2EA5
  8
0
 10
0.0
 20
0.0
 30
0.0
 70
   128
 71
    -1
 72
     3
 73
     2
  0
SEQEND
  5
30D6
  8
0
  0
POLYLINE
  5
2EA6
  8
0
 66
     1
 10
0.0
 20
0.0
 30
0.0
 70
    64
 71
     8
 72
     6
  0
VERTEX
  5
2EA7
  8
0
 10
438.9711431702999
 20
222.5
 30
-2.0
 70
   192
  0
VERTEX
  5
2EA8
  8
0
 10
438.9711431702999
 20
222.5
 30
-20.0
 70
   192
  0
VERTEX
  5
2EA9
  8
0
 10
422.5000000000002
 20
238.9711431702997
 30
-20.0
 70
   192
  0
VERTEX
  5
2EAA
  8
0
 10
422.5000000000002
 20
238.9711431702997
 30
-2.0
 70
   192
  0
VERTEX
  5
2EAB
  8
0
 10
445.0000000000002
 20
200.0000000000001
 30
-2.0
 70
   192
  0
VERTEX
  5
2EAC
  8
0
 10
445.0000000000002
 20
200.0000000000001
 30
-20.0
 70
   192
  0
VERTEX
  5
2EAD
  8
0
 10
400.0000000000002
 20
245.0
 30
-20.0
 70
   192
  0
VERTEX
  5
2EAE
  8
0
 10
400.0000000000002
 20
245.0
 30
-2.0
 70
   192
  0
VERTEX
  5
2EAF
  8
0
 10
0.0
 20
0.0
 30
0.0
 70
   128
 71
     1
 72
     2
 73
    -3
  0
VERTEX
  5
2EB0
  8
0
 10
0.0
 20
0.0
 30
0.0
 70
   128
 71
    -1
 72
     3
 73
     4
  0
VERTEX
  5
2EB1
  8
0
 10
0.0
 20
0.0
 30
0.0
 70
   128
 71
     5
 72
     6
 73
    -2
  0
VERTEX
  5
2EB2
  8
0
 10
0.0
 20
0.0
 30
0.0
 70
   128
 71
    -5
 72
     2
 73
     1
  0
VERTEX
  5
2EB3
  8
0
 10
0.0
 20
0.0
 30
0.0
 70
   128
 71
     4
 72
     3
 73
    -7
  0
VERTEX
  5
2EB4
  8
0
 10
0.0
 20
0.0
 30
0.0
 70
   128
 71
    -4
 72
     7
 73
     8
  0
SEQEND
  5
30D7
  8
0
  0
POLYLINE
  5
2EB5
  8
0
 66
     1
 10
0.0
 20
0.0
 30
0.0
 70
    64
 71
     4
 72
     2
  0
VERTEX
  5
2EB6
  8
0
 10
445.0000000000002
 20
200.0000000000001
 30
-2.0
 70
   192
  0
VERTEX
  5
2EB7
  8
0
 10
445.0000000000002
 20
200.0000000000001
 30
-20.0
 70
   192
  0
VERTEX
  5
2EB8
  8
0
 10
445.0000000000002
 20
-199.9999999999999
 30
-20.0
 70
   192
  0
VERTEX
  5
2EB9
  8
0
 10
445.0000000000002
 20
-199.9999999999999
 30
-2.0
 70
   192
  0
VERTEX
  5
2EBA
  8
0
 10
0.0
 20
0.0
 30
0.0
 70
   128
 71
     1
 72
     4
 73
    -3
  0
VERTEX
  5
2EBB
  8
0
 10
0.0
 20
0.0
 30
0.0
 70
   128
 71
    -1
 72
     3
 73
     2
  0
SEQEND
  5
30D8
  8
0
  0
POLYLINE
  5
2EBC
  8
0
 66
     1
 10
0.0
 20
0.0
 30
0.0
 70
    64
 71
     8
 72
     6
  0
VERTEX
  5
2EBD
  8
0
 10
422.5000000000002
 20
-238.9711431702997
 30
-2.0
 70
   192
  0
VERTEX
  5
2EBE
  8
0
 10
422.5000000000002
 20
-238.9711431702997
 30
-20.0
 70
   192
  0
VERTEX
  5
2EBF
  8
0
 10
438.9711431702999
 20
-222.4999999999999
 30
-20.0
 70
   192
  0
VERTEX
  5
2EC0
  8
0
 10
438.9711431702999
 20
-222.4999999999999
 30
-2.0
 70
   192
  0
VERTEX
  5
2EC1
  8
0
 10
400.0000000000001
 20
-245.0
 30
-2.0
 70
   192
  0
VERTEX
  5
2EC2
  8
0
 10
400.0000000000001
 20
-245.0
 30
-20.0
 70
   192
  0
VERTEX
  5
2EC3
  8
0
 10
445.0000000000002
 20
-199.9999999999999
 30
-20.0
 70
   192
  0
VERTEX
  5
2EC4
  8
0
 10
445.0000000000002
 20
-199.9999999999999
 30
-2.0
 70
   192
  0
VERTEX
  5
2EC5
  8
0
 10
0.0
 20
0.0
 30
0.0
 70
   128
 71
     1
 72
     2
 73
    -3
  0
VERTEX
  5
2EC6
  8
0
 10
0.0
 20
0.0
 30
0.0
 70
   128
 71
    -1
 72
     3
 73
     4
  0
VERTEX
  5
2EC7
  8
0
 10
0.0
 20
0.0
 30
0.0
 70
   128
 71
     5
 72
     6
 73
    -2
  0
VERTEX
  5
2EC8
  8
0
 10
0.0
 20
0.0
 30
0.0
 70
   128
 71
    -5
 72
     2
 73
     1
  0
VERTEX
  5
2EC9
  8
0
 10
0.0
 20
0.0
 30
0.0
 70
   128
 71
     4
 72
     3
 73
    -7
  0
VERTEX
  5
2ECA
  8
0
 10
0.0
 20
0.0
 30
0.0
 70
   128
 71
    -4
 72
     7
 73
     8
  0
SEQEND
  5
30D9
  8
0
  0
POLYLINE
  5
2ECB
  8
0
 66
     1
 10
0.0
 20
0.0
 30
0.0
 70
    64
 71
     4
 72
     2
  0
VERTEX
  5
2ECC
  8
0
 10
400.0000000000001
 20
-245.0
 30
-2.0
 70
   192
  0
VERTEX
  5
2ECD
  8
0
 10
400.0000000000001
 20
-245.0
 30
-20.0
 70
   192
  0
VERTEX
  5
2ECE
  8
0
 10
-399.9999999999999
 20
-245.0
 30
-20.0
 70
   192
  0
VERTEX
  5
2ECF
  8
0
 10
-399.9999999999999
 20
-245.0
 30
-2.0
 70
   192
  0
VERTEX
  5
2ED0
  8
0
 10
0.0
 20
0.0
 30
0.0
 70
   128
 71
     1
 72
     4
 73
    -3
  0
VERTEX
  5
2ED1
  8
0
 10
0.0
 20
0.0
 30
0.0
 70
   128
 71
    -1
 72
     3
 73
     2
  0
SEQEND
  5
30DA
  8
0
  0
POLYLINE
  5
2ED2
  8
0
 66
     1
 10
0.0
 20
0.0
 30
0.0
 70
    64
 71
     4
 72
     2
  0
VERTEX
  5
2ED3
  8
0
 10
380.0000000000001
 20
180.0000000000001
 30
-2.0
 70
   192
  0
VERTEX
  5
2ED4
  8
0
 10
-379.9999999999998
 20
179.9999999999999
 30
-2.0
 70
   192
  0
VERTEX
  5
2ED5
  8
0
 10
-379.9999999999998
 20
179.9999999999999
 30
-20.0
 70
   192
  0
VERTEX
  5
2ED6
  8
0
 10
380.0000000000001
 20
180.0000000000001
 30
-20.0
 70
   192
  0
VERTEX
  5
2ED7
  8
0
 10
0.0
 20
0.0
 30
0.0
 70
   128
 71
     3
 72
     4
 73
    -1
  0
VERTEX
  5
2ED8
  8
0
 10
0.0
 20
0.0
 30
0.0
 70
   128
 71
     2
 72
    -3
 73
     1
  0
SEQEND
  5
30DB
  8
0
  0
POLYLINE
  5
2ED9
  8
0
 66
     1
 10
0.0
 20
0.0
 30
0.0
 70
    64
 71
     4
 72
     2
  0
VERTEX
  5
2EDA
  8
0
 10
-379.9999999999998
 20
179.9999999999999
 30
-2.0
 70
   192
  0
VERTEX
  5
2EDB
  8
0
 10
-379.9999999999998
 20
-180.0
 30
-2.0
 70
   192
  0
VERTEX
  5
2EDC
  8
0
 10
-379.9999999999998
 20
-180.0
 30
-20.0
 70
   192
  0
VERTEX
  5
2EDD
  8
0
 10
-379.9999999999998
 20
179.9999999999999
 30
-20.0
 70
   192
  0
VERTEX
  5
2EDE
  8
0
 10
0.0
 20
0.0
 30
0.0
 70
   128
 71
     3
 72
     4
 73
    -1
  0
VERTEX
  5
2EDF
  8
0
 10
0.0
 20
0.0
 30
0.0
 70
   128
 71
     2
 72
    -3
 73
     1
  0
SEQEND
  5
30DC
  8
0
  0
POLYLINE
  5
2EE0
  8
0
 66
     1
 10
0.0
 20
0.0
 30
0.0
 70
    64
 71
     4
 72
     2
  0
VERTEX
  5
2EE1
  8
0
 10
-379.9999999999998
 20
-180.0
 30
-2.0
 70
   192
  0
VERTEX
  5
2EE2
  8
0
 10
380.0000000000002
 20
-179.9999999999999
 30
-2.0
 70
   192
  0
VERTEX
  5
2EE3
  8
0
 10
380.0000000000002
 20
-179.9999999999999
 30
-20.0
 70
   192
  0
VERTEX
  5
2EE4
  8
0
 10
-379.9999999999998
 20
-180.0
 30
-20.0
 70
   192
  0
VERTEX
  5
2EE5
  8
0
 10
0.0
 20
0.0
 30
0.0
 70
   128
 71
     3
 72
     4
 73
    -1
  0
VERTEX
  5
2EE6
  8
0
 10
0.0
 20
0.0
 30
0.0
 70
   128
 71
     2
 72
    -3
 73
     1
  0
SEQEND
  5
30DD
  8
0
  0
POLYLINE
  5
2EE7
  8
0
 66
     1
 10
0.0
 20
0.0
 30
0.0
 70
    64
 71
     4
 72
     2
  0
VERTEX
  5
2EE8
  8
0
 10
380.0000000000002
 20
-179.9999999999999
 30
-2.0
 70
   192
  0
VERTEX
  5
2EE9
  8
0
 10
380.0000000000002
 20
180.0000000000001
 30
-2.0
 70
   192
  0
VERTEX
  5
2EEA
  8
0
 10
380.0000000000001
 20
180.0000000000001
 30
-20.0
 70
   192
  0
VERTEX
  5
2EEB
  8
0
 10
380.0000000000002
 20
-179.9999999999999
 30
-20.0
 70
   192
  0
VERTEX
  5
2EEC
  8
0
 10
0.0
 20
0.0
 30
0.0
 70
   128
 71
     3
 72
     4
 73
    -1
  0
VERTEX
  5
2EED
  8
0
 10
0.0
 20
0.0
 30
0.0
 70
   128
 71
     2
 72
    -3
 73
     1
  0
SEQEND
  5
30DE
  8
0
  0
POLYLINE
  5
2EEE
  8
0
 66
     1
 10
0.0
 20
0.0
 30
0.0
 70
    64
 71
     8
 72
     6
  0
VERTEX
  5
2EEF
  8
0
 10
-438.9711431702996
 20
-222.5
 30
-2.0
 70
   192
  0
VERTEX
  5
2EF0
  8
0
 10
-438.9711431702996
 20
-222.5
 30
-20.0
 70
   192
  0
VERTEX
  5
2EF1
  8
0
 10
-422.4999999999998
 20
-238.9711431702998
 30
-20.0
 70
   192
  0
VERTEX
  5
2EF2
  8
0
 10
-422.4999999999998
 20
-238.9711431702998
 30
-2.0
 70
   192
  0
VERTEX
  5
2EF3
  8
0
 10
-444.9999999999998
 20
-200.0000000000001
 30
-2.0
 70
   192
  0
VERTEX
  5
2EF4
  8
0
 10
-444.9999999999998
 20
-200.0000000000001
 30
-20.0
 70
   192
  0
VERTEX
  5
2EF5
  8
0
 10
-399.9999999999999
 20
-245.0000000000001
 30
-20.0
 70
   192
  0
VERTEX
  5
2EF6
  8
0
 10
-399.9999999999999
 20
-245.0
 30
-2.0
 70
   192
  0
VERTEX
  5
2EF7
  8
0
 10
0.0
 20
0.0
 30
0.0
 70
   128
 71
     1
 72
     2
 73
    -3
  0
VERTEX
  5
2EF8
  8
0
 10
0.0
 20
0.0
 30
0.0
 70
   128
 71
    -1
 72
     3
 73
     4
  0
VERTEX
  5
2EF9
  8
0
 10
0.0
 20
0.0
 30
0.0
 70
   128
 71
     5
 72
     6
 73
    -2
  0
VERTEX
  5
2EFA
  8
0
 10
0.0
 20
0.0
 30
0.0
 70
   128
 71
    -5
 72
     2
 73
     1
  0
VERTEX
  5
2EFB
  8
0
 10
0.0
 20
0.0
 30
0.0
 70
   128
 71
     4
 72
     3
 73
    -7
  0
VERTEX
  5
2EFC
  8
0
 10
0.0
 20
0.0
 30
0.0
 70
   128
 71
    -4
 72
     7
 73
     8
  0
SEQEND
  5
30DF
  8
0
  0
POLYLINE
  5
2EFD
  8
0
 66
     1
 10
0.0
 20
0.0
 30
0.0
 70
    64
 71
    20
 72
    20
  0
VERTEX
  5
2EFE
  8
0
 10
-444.9999999999998
 20
-200.0000000000001
 30
-20.0
 70
   192
  0
VERTEX
  5
2EFF
  8
0
 10
-444.9999999999998
 20
199.9999999999999
 30
-20.0
 70
   192
  0
VERTEX
  5
2F00
  8
0
 10
-438.9711431702996
 20
222.4999999999999
 30
-20.0
 70
   192
  0
VERTEX
  5
2F01
  8
0
 10
-422.4999999999998
 20
238.9711431702996
 30
-20.0
 70
   192
  0
VERTEX
  5
2F02
  8
0
 10
-399.9999999999999
 20
244.9999999999999
 30
-20.0
 70
   192
  0
VERTEX
  5
2F03
  8
0
 10
400.0000000000002
 20
245.0
 30
-20.0
 70
   192
  0
VERTEX
  5
2F04
  8
0
 10
422.5000000000002
 20
238.9711431702997
 30
-20.0
 70
   192
  0
VERTEX
  5
2F05
  8
0
 10
438.9711431702999
 20
222.5
 30
-20.0
 70
   192
  0
VERTEX
  5
2F06
  8
0
 10
445.0000000000002
 20
200.0000000000001
 30
-20.0
 70
   192
  0
VERTEX
  5
2F07
  8
0
 10
445.0000000000002
 20
-199.9999999999999
 30
-20.0
 70
   192
  0
VERTEX
  5
2F08
  8
0
 10
438.9711431702999
 20
-222.4999999999999
 30
-20.0
 70
   192
  0
VERTEX
  5
2F09
  8
0
 10
422.5000000000002
 20
-238.9711431702997
 30
-20.0
 70
   192
  0
VERTEX
  5
2F0A
  8
0
 10
400.0000000000001
 20
-245.0
 30
-20.0
 70
   192
  0
VERTEX
  5
2F0B
  8
0
 10
-399.9999999999999
 20
-245.0
 30
-20.0
 70
   192
  0
VERTEX
  5
2F0C
  8
0
 10
-422.4999999999998
 20
-238.9711431702998
 30
-20.0
 70
   192
  0
VERTEX
  5
2F0D
  8
0
 10
-438.9711431702996
 20
-222.5
 30
-20.0
 70
   192
  0
VERTEX
  5
2F0E
  8
0
 10
380.0000000000001
 20
180.0000000000001
 30
-20.0
 70
   192
  0
VERTEX
  5
2F0F
  8
0
 10
-379.9999999999998
 20
179.9999999999999
 30
-20.0
 70
   192
  0
VERTEX
  5
2F10
  8
0
 10
-379.9999999999998
 20
-180.0
 30
-20.0
 70
   192
  0
VERTEX
  5
2F11
  8
0
 10
380.0000000000002
 20
-179.9999999999999
 30
-20.0
 70
   192
  0
VERTEX
  5
2F12
  8
0
 10
0.0
 20
0.0
 30
0.0
 70
   128
 71
    -9
 72
    17
 73
   -18
  0
VERTEX
  5
2F13
  8
0
 10
0.0
 20
0.0
 30
0.0
 70
   128
 71
     8
 72
    -9
 73
   -18
  0
VERTEX
  5
2F14
  8
0
 10
0.0
 20
0.0
 30
0.0
 70
   128
 71
     7
 72
    -8
 73
   -18
  0
VERTEX
  5
2F15
  8
0
 10
0.0
 20
0.0
 30
0.0
 70
   128
 71
     6
 72
    -7
 73
   -18
  0
VERTEX
  5
2F16
  8
0
 10
0.0
 20
0.0
 30
0.0
 70
   128
 71
     5
 72
    -6
 73
   -18
  0
VERTEX
  5
2F17
  8
0
 10
0.0
 20
0.0
 30
0.0
 70
   128
 71
     4
 72
    -5
 73
   -18
  0
VERTEX
  5
2F18
  8
0
 10
0.0
 20
0.0
 30
0.0
 70
   128
 71
     3
 72
    -4
 73
   -18
  0
VERTEX
  5
2F19
  8
0
 10
0.0
 20
0.0
 30
0.0
 70
   128
 71
     2
 72
    -3
 73
   -18
  0
VERTEX
  5
2F1A
  8
0
 10
0.0
 20
0.0
 30
0.0
 70
   128
 71
   -19
 72
     1
 73
    -2
  0
VERTEX
  5
2F1B
  8
0
 10
0.0
 20
0.0
 30
0.0
 70
   128
 71
    18
 72
   -19
 73
    -2
  0
VERTEX
  5
2F1C
  8
0
 10
0.0
 20
0.0
 30
0.0
 70
   128
 71
    15
 72
    16
 73
    -1
  0
VERTEX
  5
2F1D
  8
0
 10
0.0
 20
0.0
 30
0.0
 70
   128
 71
    14
 72
   -15
 73
    -1
  0
VERTEX
  5
2F1E
  8
0
 10
0.0
 20
0.0
 30
0.0
 70
   128
 71
    13
 72
   -14
 73
    -1
  0
VERTEX
  5
2F1F
  8
0
 10
0.0
 20
0.0
 30
0.0
 70
   128
 71
    12
 72
   -13
 73
    -1
  0
VERTEX
  5
2F20
  8
0
 10
0.0
 20
0.0
 30
0.0
 70
   128
 71
    11
 72
   -12
 73
    -1
  0
VERTEX
  5
2F21
  8
0
 10
0.0
 20
0.0
 30
0.0
 70
   128
 71
    10
 72
   -11
 73
    -1
  0
VERTEX
  5
2F22
  8
0
 10
0.0
 20
0.0
 30
0.0
 70
   128
 71
   -20
 72
   -10
 73
    -1
  0
VERTEX
  5
2F23
  8
0
 10
0.0
 20
0.0
 30
0.0
 70
   128
 71
    19
 72
   -20
 73
    -1
  0
VERTEX
  5
2F24
  8
0
 10
0.0
 20
0.0
 30
0.0
 70
   128
 71
   -17
 72
     9
 73
   -10
  0
VERTEX
  5
2F25
  8
0
 10
0.0
 20
0.0
 30
0.0
 70
   128
 71
    20
 72
   -17
 73
   -10
  0
SEQEND
  5
30E0
  8
0
  0
POLYLINE
  5
2F26
  8
0
 66
     1
 10
0.0
 20
0.0
 30
0.0
 70
    64
 71
    20
 72
    20
  0
VERTEX
  5
2F27
  8
0
 10
-444.9999999999998
 20
199.9999999999999
 30
-2.0
 70
   192
  0
VERTEX
  5
2F28
  8
0
 10
-438.9711431702996
 20
222.4999999999999
 30
-2.0
 70
   192
  0
VERTEX
  5
2F29
  8
0
 10
-422.4999999999998
 20
238.9711431702996
 30
-2.0
 70
   192
  0
VERTEX
  5
2F2A
  8
0
 10
-399.9999999999999
 20
244.9999999999999
 30
-2.0
 70
   192
  0
VERTEX
  5
2F2B
  8
0
 10
400.0000000000002
 20
245.0
 30
-2.0
 70
   192
  0
VERTEX
  5
2F2C
  8
0
 10
422.5000000000002
 20
238.9711431702997
 30
-2.0
 70
   192
  0
VERTEX
  5
2F2D
  8
0
 10
438.9711431702999
 20
222.5
 30
-2.0
 70
   192
  0
VERTEX
  5
2F2E
  8
0
 10
445.0000000000002
 20
200.0000000000001
 30
-2.0
 70
   192
  0
VERTEX
  5
2F2F
  8
0
 10
445.0000000000002
 20
-199.9999999999999
 30
-2.0
 70
   192
  0
VERTEX
  5
2F30
  8
0
 10
438.9711431702999
 20
-222.4999999999999
 30
-2.0
 70
   192
  0
VERTEX
  5
2F31
  8
0
 10
422.5000000000002
 20
-238.9711431702997
 30
-2.0
 70
   192
  0
VERTEX
  5
2F32
  8
0
 10
400.0000000000001
 20
-245.0
 30
-2.0
 70
   192
  0
VERTEX
  5
2F33
  8
0
 10
-399.9999999999999
 20
-245.0000000000001
 30
-2.0
 70
   192
  0
VERTEX
  5
2F34
  8
0
 10
-422.4999999999998
 20
-238.9711431702998
 30
-2.0
 70
   192
  0
VERTEX
  5
2F35
  8
0
 10
-438.9711431702996
 20
-222.5
 30
-2.0
 70
   192
  0
VERTEX
  5
2F36
  8
0
 10
-444.9999999999998
 20
-200.0000000000001
 30
-2.0
 70
   192
  0
VERTEX
  5
2F37
  8
0
 10
-379.9999999999998
 20
179.9999999999999
 30
-2.0
 70
   192
  0
VERTEX
  5
2F38
  8
0
 10
-379.9999999999998
 20
-180.0
 30
-2.0
 70
   192
  0
VERTEX
  5
2F39
  8
0
 10
380.0000000000002
 20
-179.9999999999999
 30
-2.0
 70
   192
  0
VERTEX
  5
2F3A
  8
0
 10
380.0000000000001
 20
180.0000000000001
 30
-2.0
 70
   192
  0
VERTEX
  5
2F3B
  8
0
 10
0.0
 20
0.0
 30
0.0
 70
   128
 71
    18
 72
   -17
 73
    -1
  0
VERTEX
  5
2F3C
  8
0
 10
0.0
 20
0.0
 30
0.0
 70
   128
 71
   -18
 72
     1
 73
   -16
  0
VERTEX
  5
2F3D
  8
0
 10
0.0
 20
0.0
 30
0.0
 70
   128
 71
    16
 72
    15
 73
   -14
  0
VERTEX
  5
2F3E
  8
0
 10
0.0
 20
0.0
 30
0.0
 70
   128
 71
   -16
 72
    14
 73
   -13
  0
VERTEX
  5
2F3F
  8
0
 10
0.0
 20
0.0
 30
0.0
 70
   128
 71
   -16
 72
    13
 73
   -12
  0
VERTEX
  5
2F40
  8
0
 10
0.0
 20
0.0
 30
0.0
 70
   128
 71
   -16
 72
    12
 73
   -11
  0
VERTEX
  5
2F41
  8
0
 10
0.0
 20
0.0
 30
0.0
 70
   128
 71
   -16
 72
    11
 73
   -10
  0
VERTEX
  5
2F42
  8
0
 10
0.0
 20
0.0
 30
0.0
 70
   128
 71
   -16
 72
    10
 73
    -9
  0
VERTEX
  5
2F43
  8
0
 10
0.0
 20
0.0
 30
0.0
 70
   128
 71
   -16
 72
    -9
 73
   -19
  0
VERTEX
  5
2F44
  8
0
 10
0.0
 20
0.0
 30
0.0
 70
   128
 71
   -16
 72
    19
 73
   -18
  0
VERTEX
  5
2F45
  8
0
 10
0.0
 20
0.0
 30
0.0
 70
   128
 71
     9
 72
    -8
 73
   -20
  0
VERTEX
  5
2F46
  8
0
 10
0.0
 20
0.0
 30
0.0
 70
   128
 71
    -9
 72
    20
 73
   -19
  0
VERTEX
  5
2F47
  8
0
 10
0.0
 20
0.0
 30
0.0
 70
   128
 71
     8
 72
     7
 73
    -6
  0
VERTEX
  5
2F48
  8
0
 10
0.0
 20
0.0
 30
0.0
 70
   128
 71
    -8
 72
     6
 73
    -5
  0
VERTEX
  5
2F49
  8
0
 10
0.0
 20
0.0
 30
0.0
 70
   128
 71
    -8
 72
     5
 73
    -4
  0
VERTEX
  5
2F4A
  8
0
 10
0.0
 20
0.0
 30
0.0
 70
   128
 71
    -8
 72
     4
 73
    -3
  0
VERTEX
  5
2F4B
  8
0
 10
0.0
 20
0.0
 30
0.0
 70
   128
 71
    -8
 72
     3
 73
    -2
  0
VERTEX
  5
2F4C
  8
0
 10
0.0
 20
0.0
 30
0.0
 70
   128
 71
    -8
 72
     2
 73
    -1
  0
VERTEX
  5
2F4D
  8
0
 10
0.0
 20
0.0
 30
0.0
 70
   128
 71
    -8
 72
    -1
 73
   -17
  0
VERTEX
  5
2F4E
  8
0
 10
0.0
 20
0.0
 30
0.0
 70
   128
 71
    -8
 72
    17
 73
   -20
  0
SEQEND
  5
30E1
  8
0
  0
ENDBLK
  5
30D3
  8
0
  0
BLOCK
  8
0
  2
*X6
 70
     1
 10
0.0
 20
0.0
 30
0.0
  3
*X6
  1

  0
POLYLINE
  5
2F50
  8
0
 66
     1
 10
0.0
 20
0.0
 30
0.0
 70
    64
 71
     6
 72
     4
  0
VERTEX
  5
2F51
  8
0
 10
-307.0200000000012
 20
102.0000000000004
 30
-12.0
 70
   192
  0
VERTEX
  5
2F52
  8
0
 10
-307.0200000000012
 20
68.00000000000011
 30
-12.0
 70
   192
  0
VERTEX
  5
2F53
  8
0
 10
-307.0200000000012
 20
68.00000000000011
 30
-5.0
 70
   192
  0
VERTEX
  5
2F54
  8
0
 10
-307.0200000000012
 20
65.00000000000011
 30
-5.0
 70
   192
  0
VERTEX
  5
2F55
  8
0
 10
-307.0200000000012
 20
65.00000000000011
 30
-15.0
 70
   192
  0
VERTEX
  5
2F56
  8
0
 10
-307.0200000000012
 20
102.0000000000004
 30
-15.0
 70
   192
  0
VERTEX
  5
2F57
  8
0
 10
0.0
 20
0.0
 30
0.0
 70
   128
 71
     6
 72
     1
 73
    -2
  0
VERTEX
  5
2F58
  8
0
 10
0.0
 20
0.0
 30
0.0
 70
   128
 71
     5
 72
    -6
 73
    -2
  0
VERTEX
  5
2F59
  8
0
 10
0.0
 20
0.0
 30
0.0
 70
   128
 71
     3
 72
     4
 73
    -5
  0
VERTEX
  5
2F5A
  8
0
 10
0.0
 20
0.0
 30
0.0
 70
   128
 71
     2
 72
    -3
 73
    -5
  0
SEQEND
  5
30E4
  8
0
  0
POLYLINE
  5
2F5B
  8
0
 66
     1
 10
0.0
 20
0.0
 30
0.0
 70
    64
 71
     8
 72
     6
  0
VERTEX
  5
2F5C
  8
0
 10
-307.0200000000012
 20
65.00000000000011
 30
-5.0
 70
   192
  0
VERTEX
  5
2F5D
  8
0
 10
-307.0200000000012
 20
68.00000000000011
 30
-5.0
 70
   192
  0
VERTEX
  5
2F5E
  8
0
 10
-329.020000000001
 20
68.00000000000011
 30
-5.0
 70
   192
  0
VERTEX
  5
2F5F
  8
0
 10
-329.0200000000012
 20
142.0
 30
-5.0
 70
   192
  0
VERTEX
  5
2F60
  8
0
 10
-307.0200000000012
 20
142.0000000000001
 30
-5.0
 70
   192
  0
VERTEX
  5
2F61
  8
0
 10
-307.0200000000012
 20
145.0000000000001
 30
-5.0
 70
   192
  0
VERTEX
  5
2F62
  8
0
 10
-272.0200000000012
 20
145.0000000000001
 30
-5.0
 70
   192
  0
VERTEX
  5
2F63
  8
0
 10
-272.0200000000012
 20
65.00000000000011
 30
-5.0
 70
   192
  0
VERTEX
  5
2F64
  8
0
 10
0.0
 20
0.0
 30
0.0
 70
   128
 71
     8
 72
     1
 73
    -2
  0
VERTEX
  5
2F65
  8
0
 10
0.0
 20
0.0
 30
0.0
 70
   128
 71
    -5
 72
    -8
 73
    -2
  0
VERTEX
  5
2F66
  8
0
 10
0.0
 20
0.0
 30
0.0
 70
   128
 71
     3
 72
     4
 73
    -5
  0
VERTEX
  5
2F67
  8
0
 10
0.0
 20
0.0
 30
0.0
 70
   128
 71
     2
 72
    -3
 73
    -5
  0
VERTEX
  5
2F68
  8
0
 10
0.0
 20
0.0
 30
0.0
 70
   128
 71
    -5
 72
     7
 73
    -8
  0
VERTEX
  5
2F69
  8
0
 10
0.0
 20
0.0
 30
0.0
 70
   128
 71
     5
 72
     6
 73
    -7
  0
SEQEND
  5
30E5
  8
0
  0
POLYLINE
  5
2F6A
  8
0
 66
     1
 10
0.0
 20
0.0
 30
0.0
 70
    64
 71
     4
 72
     2
  0
VERTEX
  5
2F6B
  8
0
 10
-332.020000000001
 20
65.00000000000011
 30
-2.0
 70
   192
  0
VERTEX
  5
2F6C
  8
0
 10
-332.020000000001
 20
65.00000000000011
 30
-15.0
 70
   192
  0
VERTEX
  5
2F6D
  8
0
 10
-332.0200000000012
 20
145.0
 30
-15.0
 70
   192
  0
VERTEX
  5
2F6E
  8
0
 10
-332.0200000000012
 20
145.0
 30
-2.0
 70
   192
  0
VERTEX
  5
2F6F
  8
0
 10
0.0
 20
0.0
 30
0.0
 70
   128
 71
     1
 72
     4
 73
    -3
  0
VERTEX
  5
2F70
  8
0
 10
0.0
 20
0.0
 30
0.0
 70
   128
 71
    -1
 72
     3
 73
     2
  0
SEQEND
  5
30E6
  8
0
  0
POLYLINE
  5
2F71
  8
0
 66
     1
 10
0.0
 20
0.0
 30
0.0
 70
    64
 71
     6
 72
     4
  0
VERTEX
  5
2F72
  8
0
 10
-332.0200000000012
 20
145.0
 30
-2.0
 70
   192
  0
VERTEX
  5
2F73
  8
0
 10
-332.0200000000012
 20
145.0
 30
-15.0
 70
   192
  0
VERTEX
  5
2F74
  8
0
 10
-307.0200000000012
 20
145.0000000000001
 30
-15.0
 70
   192
  0
VERTEX
  5
2F75
  8
0
 10
-307.0200000000012
 20
145.0000000000001
 30
-5.0
 70
   192
  0
VERTEX
  5
2F76
  8
0
 10
-272.0200000000012
 20
145.0000000000001
 30
-5.0
 70
   192
  0
VERTEX
  5
2F77
  8
0
 10
-272.0200000000012
 20
145.0000000000001
 30
-2.0
 70
   192
  0
VERTEX
  5
2F78
  8
0
 10
0.0
 20
0.0
 30
0.0
 70
   128
 71
     4
 72
     3
 73
    -2
  0
VERTEX
  5
2F79
  8
0
 10
0.0
 20
0.0
 30
0.0
 70
   128
 71
    -4
 72
     2
 73
    -1
  0
VERTEX
  5
2F7A
  8
0
 10
0.0
 20
0.0
 30
0.0
 70
   128
 71
     1
 72
     6
 73
    -5
  0
VERTEX
  5
2F7B
  8
0
 10
0.0
 20
0.0
 30
0.0
 70
   128
 71
    -1
 72
     5
 73
    -4
  0
SEQEND
  5
30E7
  8
0
  0
POLYLINE
  5
2F7C
  8
0
 66
     1
 10
0.0
 20
0.0
 30
0.0
 70
    64
 71
     4
 72
     2
  0
VERTEX
  5
2F7D
  8
0
 10
-272.0200000000012
 20
145.0000000000001
 30
-2.0
 70
   192
  0
VERTEX
  5
2F7E
  8
0
 10
-272.0200000000012
 20
65.00000000000011
 30
-2.0
 70
   192
  0
VERTEX
  5
2F7F
  8
0
 10
-272.0200000000012
 20
65.00000000000011
 30
-5.0
 70
   192
  0
VERTEX
  5
2F80
  8
0
 10
-272.0200000000012
 20
145.0000000000001
 30
-5.0
 70
   192
  0
VERTEX
  5
2F81
  8
0
 10
0.0
 20
0.0
 30
0.0
 70
   128
 71
     3
 72
     4
 73
    -1
  0
VERTEX
  5
2F82
  8
0
 10
0.0
 20
0.0
 30
0.0
 70
   128
 71
     2
 72
    -3
 73
     1
  0
SEQEND
  5
30E8
  8
0
  0
POLYLINE
  5
2F83
  8
0
 66
     1
 10
0.0
 20
0.0
 30
0.0
 70
    64
 71
     6
 72
     4
  0
VERTEX
  5
2F84
  8
0
 10
-272.0200000000012
 20
65.00000000000011
 30
-2.0
 70
   192
  0
VERTEX
  5
2F85
  8
0
 10
-332.020000000001
 20
65.00000000000011
 30
-2.0
 70
   192
  0
VERTEX
  5
2F86
  8
0
 10
-332.020000000001
 20
65.00000000000011
 30
-15.0
 70
   192
  0
VERTEX
  5
2F87
  8
0
 10
-307.0200000000012
 20
65.00000000000011
 30
-15.0
 70
   192
  0
VERTEX
  5
2F88
  8
0
 10
-307.0200000000012
 20
65.00000000000011
 30
-5.0
 70
   192
  0
VERTEX
  5
2F89
  8
0
 10
-272.0200000000012
 20
65.00000000000011
 30
-5.0
 70
   192
  0
VERTEX
  5
2F8A
  8
0
 10
0.0
 20
0.0
 30
0.0
 70
   128
 71
     3
 72
     4
 73
    -5
  0
VERTEX
  5
2F8B
  8
0
 10
0.0
 20
0.0
 30
0.0
 70
   128
 71
     2
 72
    -3
 73
    -5
  0
VERTEX
  5
2F8C
  8
0
 10
0.0
 20
0.0
 30
0.0
 70
   128
 71
     6
 72
     1
 73
    -2
  0
VERTEX
  5
2F8D
  8
0
 10
0.0
 20
0.0
 30
0.0
 70
   128
 71
     5
 72
    -6
 73
    -2
  0
SEQEND
  5
30E9
  8
0
  0
POLYLINE
  5
2F8E
  8
0
 66
     1
 10
0.0
 20
0.0
 30
0.0
 70
    64
 71
     4
 72
     2
  0
VERTEX
  5
2F8F
  8
0
 10
-332.0200000000012
 20
145.0
 30
-2.0
 70
   192
  0
VERTEX
  5
2F90
  8
0
 10
-272.0200000000012
 20
145.0000000000001
 30
-2.0
 70
   192
  0
VERTEX
  5
2F91
  8
0
 10
-272.0200000000012
 20
65.00000000000011
 30
-2.0
 70
   192
  0
VERTEX
  5
2F92
  8
0
 10
-332.020000000001
 20
65.00000000000011
 30
-2.0
 70
   192
  0
VERTEX
  5
2F93
  8
0
 10
0.0
 20
0.0
 30
0.0
 70
   128
 71
     1
 72
     4
 73
    -3
  0
VERTEX
  5
2F94
  8
0
 10
0.0
 20
0.0
 30
0.0
 70
   128
 71
    -1
 72
     3
 73
     2
  0
SEQEND
  5
30EA
  8
0
  0
POLYLINE
  5
2F95
  8
0
 66
     1
 10
0.0
 20
0.0
 30
0.0
 70
    64
 71
     4
 72
     2
  0
VERTEX
  5
2F96
  8
0
 10
-327.0200000000004
 20
107.9999999999998
 30
-12.0
 70
   192
  0
VERTEX
  5
2F97
  8
0
 10
-327.0200000000004
 20
102.0000000000004
 30
-12.0
 70
   192
  0
VERTEX
  5
2F98
  8
0
 10
-327.0200000000004
 20
102.0000000000004
 30
-15.0
 70
   192
  0
VERTEX
  5
2F99
  8
0
 10
-327.0200000000004
 20
107.9999999999998
 30
-15.0
 70
   192
  0
VERTEX
  5
2F9A
  8
0
 10
0.0
 20
0.0
 30
0.0
 70
   128
 71
     3
 72
     4
 73
    -1
  0
VERTEX
  5
2F9B
  8
0
 10
0.0
 20
0.0
 30
0.0
 70
   128
 71
     2
 72
    -3
 73
     1
  0
SEQEND
  5
30EB
  8
0
  0
POLYLINE
  5
2F9C
  8
0
 66
     1
 10
0.0
 20
0.0
 30
0.0
 70
    64
 71
     4
 72
     2
  0
VERTEX
  5
2F9D
  8
0
 10
-327.0200000000005
 20
102.0000000000004
 30
-12.0
 70
   192
  0
VERTEX
  5
2F9E
  8
0
 10
-307.0200000000012
 20
102.0000000000004
 30
-12.0
 70
   192
  0
VERTEX
  5
2F9F
  8
0
 10
-307.0200000000012
 20
102.0000000000004
 30
-15.0
 70
   192
  0
VERTEX
  5
2FA0
  8
0
 10
-327.0200000000005
 20
102.0000000000004
 30
-15.0
 70
   192
  0
VERTEX
  5
2FA1
  8
0
 10
0.0
 20
0.0
 30
0.0
 70
   128
 71
     3
 72
     4
 73
    -1
  0
VERTEX
  5
2FA2
  8
0
 10
0.0
 20
0.0
 30
0.0
 70
   128
 71
     2
 72
    -3
 73
     1
  0
SEQEND
  5
30EC
  8
0
  0
POLYLINE
  5
2FA3
  8
0
 66
     1
 10
0.0
 20
0.0
 30
0.0
 70
    64
 71
     6
 72
     4
  0
VERTEX
  5
2FA4
  8
0
 10
-307.0200000000012
 20
142.0000000000001
 30
-12.0
 70
   192
  0
VERTEX
  5
2FA5
  8
0
 10
-307.0200000000012
 20
107.9999999999999
 30
-12.0
 70
   192
  0
VERTEX
  5
2FA6
  8
0
 10
-307.0200000000012
 20
107.9999999999999
 30
-15.0
 70
   192
  0
VERTEX
  5
2FA7
  8
0
 10
-307.0200000000012
 20
145.0000000000001
 30
-15.0
 70
   192
  0
VERTEX
  5
2FA8
  8
0
 10
-307.0200000000012
 20
145.0000000000001
 30
-5.0
 70
   192
  0
VERTEX
  5
2FA9
  8
0
 10
-307.0200000000012
 20
142.0000000000001
 30
-5.0
 70
   192
  0
VERTEX
  5
2FAA
  8
0
 10
0.0
 20
0.0
 30
0.0
 70
   128
 71
     5
 72
     6
 73
    -1
  0
VERTEX
  5
2FAB
  8
0
 10
0.0
 20
0.0
 30
0.0
 70
   128
 71
     4
 72
    -5
 73
    -1
  0
VERTEX
  5
2FAC
  8
0
 10
0.0
 20
0.0
 30
0.0
 70
   128
 71
     2
 72
     3
 73
    -4
  0
VERTEX
  5
2FAD
  8
0
 10
0.0
 20
0.0
 30
0.0
 70
   128
 71
     1
 72
    -2
 73
    -4
  0
SEQEND
  5
30ED
  8
0
  0
POLYLINE
  5
2FAE
  8
0
 66
     1
 10
0.0
 20
0.0
 30
0.0
 70
    64
 71
     4
 72
     2
  0
VERTEX
  5
2FAF
  8
0
 10
-307.0200000000012
 20
107.9999999999999
 30
-12.0
 70
   192
  0
VERTEX
  5
2FB0
  8
0
 10
-327.0200000000005
 20
107.9999999999998
 30
-12.0
 70
   192
  0
VERTEX
  5
2FB1
  8
0
 10
-327.0200000000004
 20
107.9999999999998
 30
-15.0
 70
   192
  0
VERTEX
  5
2FB2
  8
0
 10
-307.0200000000012
 20
107.9999999999999
 30
-15.0
 70
   192
  0
VERTEX
  5
2FB3
  8
0
 10
0.0
 20
0.0
 30
0.0
 70
   128
 71
     3
 72
     4
 73
    -1
  0
VERTEX
  5
2FB4
  8
0
 10
0.0
 20
0.0
 30
0.0
 70
   128
 71
     2
 72
    -3
 73
     1
  0
SEQEND
  5
30EE
  8
0
  0
POLYLINE
  5
2FB5
  8
0
 66
     1
 10
0.0
 20
0.0
 30
0.0
 70
    64
 71
     8
 72
     6
  0
VERTEX
  5
2FB6
  8
0
 10
-327.0200000000004
 20
107.9999999999998
 30
-15.0
 70
   192
  0
VERTEX
  5
2FB7
  8
0
 10
-327.0200000000004
 20
102.0000000000004
 30
-15.0
 70
   192
  0
VERTEX
  5
2FB8
  8
0
 10
-307.0200000000012
 20
102.0000000000004
 30
-15.0
 70
   192
  0
VERTEX
  5
2FB9
  8
0
 10
-307.0200000000012
 20
65.00000000000011
 30
-15.0
 70
   192
  0
VERTEX
  5
2FBA
  8
0
 10
-332.020000000001
 20
65.00000000000011
 30
-15.0
 70
   192
  0
VERTEX
  5
2FBB
  8
0
 10
-332.0200000000012
 20
145.0
 30
-15.0
 70
   192
  0
VERTEX
  5
2FBC
  8
0
 10
-307.0200000000012
 20
145.0000000000001
 30
-15.0
 70
   192
  0
VERTEX
  5
2FBD
  8
0
 10
-307.0200000000012
 20
107.9999999999999
 30
-15.0
 70
   192
  0
VERTEX
  5
2FBE
  8
0
 10
0.0
 20
0.0
 30
0.0
 70
   128
 71
     7
 72
     8
 73
    -1
  0
VERTEX
  5
2FBF
  8
0
 10
0.0
 20
0.0
 30
0.0
 70
   128
 71
     6
 72
    -7
 73
    -1
  0
VERTEX
  5
2FC0
  8
0
 10
0.0
 20
0.0
 30
0.0
 70
   128
 71
    -6
 72
     1
 73
    -2
  0
VERTEX
  5
2FC1
  8
0
 10
0.0
 20
0.0
 30
0.0
 70
   128
 71
     5
 72
    -6
 73
    -2
  0
VERTEX
  5
2FC2
  8
0
 10
0.0
 20
0.0
 30
0.0
 70
   128
 71
     3
 72
     4
 73
    -5
  0
VERTEX
  5
2FC3
  8
0
 10
0.0
 20
0.0
 30
0.0
 70
   128
 71
     2
 72
    -3
 73
    -5
  0
SEQEND
  5
30EF
  8
0
  0
POLYLINE
  5
2FC4
  8
0
 66
     1
 10
0.0
 20
0.0
 30
0.0
 70
    64
 71
     4
 72
     2
  0
VERTEX
  5
2FC5
  8
0
 10
-329.0200000000012
 20
142.0
 30
-5.0
 70
   192
  0
VERTEX
  5
2FC6
  8
0
 10
-329.020000000001
 20
68.00000000000011
 30
-5.0
 70
   192
  0
VERTEX
  5
2FC7
  8
0
 10
-329.020000000001
 20
68.00000000000011
 30
-12.0
 70
   192
  0
VERTEX
  5
2FC8
  8
0
 10
-329.0200000000012
 20
142.0
 30
-12.0
 70
   192
  0
VERTEX
  5
2FC9
  8
0
 10
0.0
 20
0.0
 30
0.0
 70
   128
 71
     3
 72
     4
 73
    -1
  0
VERTEX
  5
2FCA
  8
0
 10
0.0
 20
0.0
 30
0.0
 70
   128
 71
     2
 72
    -3
 73
     1
  0
SEQEND
  5
30F0
  8
0
  0
POLYLINE
  5
2FCB
  8
0
 66
     1
 10
0.0
 20
0.0
 30
0.0
 70
    64
 71
     4
 72
     2
  0
VERTEX
  5
2FCC
  8
0
 10
-307.0200000000012
 20
142.0000000000001
 30
-5.0
 70
   192
  0
VERTEX
  5
2FCD
  8
0
 10
-329.0200000000012
 20
142.0
 30
-5.0
 70
   192
  0
VERTEX
  5
2FCE
  8
0
 10
-329.0200000000012
 20
142.0
 30
-12.0
 70
   192
  0
VERTEX
  5
2FCF
  8
0
 10
-307.0200000000012
 20
142.0000000000001
 30
-12.0
 70
   192
  0
VERTEX
  5
2FD0
  8
0
 10
0.0
 20
0.0
 30
0.0
 70
   128
 71
     3
 72
     4
 73
    -1
  0
VERTEX
  5
2FD1
  8
0
 10
0.0
 20
0.0
 30
0.0
 70
   128
 71
     2
 72
    -3
 73
     1
  0
SEQEND
  5
30F1
  8
0
  0
POLYLINE
  5
2FD2
  8
0
 66
     1
 10
0.0
 20
0.0
 30
0.0
 70
    64
 71
     4
 72
     2
  0
VERTEX
  5
2FD3
  8
0
 10
-307.0200000000012
 20
68.00000000000011
 30
-5.0
 70
   192
  0
VERTEX
  5
2FD4
  8
0
 10
-329.020000000001
 20
68.00000000000011
 30
-5.0
 70
   192
  0
VERTEX
  5
2FD5
  8
0
 10
-329.020000000001
 20
68.00000000000011
 30
-12.0
 70
   192
  0
VERTEX
  5
2FD6
  8
0
 10
-307.0200000000012
 20
68.00000000000011
 30
-12.0
 70
   192
  0
VERTEX
  5
2FD7
  8
0
 10
0.0
 20
0.0
 30
0.0
 70
   128
 71
     1
 72
     4
 73
    -3
  0
VERTEX
  5
2FD8
  8
0
 10
0.0
 20
0.0
 30
0.0
 70
   128
 71
    -1
 72
     3
 73
     2
  0
SEQEND
  5
30F2
  8
0
  0
POLYLINE
  5
2FD9
  8
0
 66
     1
 10
0.0
 20
0.0
 30
0.0
 70
    64
 71
     8
 72
     6
  0
VERTEX
  5
2FDA
  8
0
 10
-327.0200000000005
 20
102.0000000000004
 30
-12.0
 70
   192
  0
VERTEX
  5
2FDB
  8
0
 10
-307.0200000000012
 20
102.0000000000004
 30
-12.0
 70
   192
  0
VERTEX
  5
2FDC
  8
0
 10
-307.0200000000012
 20
68.00000000000011
 30
-12.0
 70
   192
  0
VERTEX
  5
2FDD
  8
0
 10
-329.020000000001
 20
68.00000000000011
 30
-12.0
 70
   192
  0
VERTEX
  5
2FDE
  8
0
 10
-329.0200000000012
 20
142.0
 30
-12.0
 70
   192
  0
VERTEX
  5
2FDF
  8
0
 10
-307.0200000000012
 20
142.0000000000001
 30
-12.0
 70
   192
  0
VERTEX
  5
2FE0
  8
0
 10
-307.0200000000012
 20
107.9999999999999
 30
-12.0
 70
   192
  0
VERTEX
  5
2FE1
  8
0
 10
-327.0200000000004
 20
107.9999999999998
 30
-12.0
 70
   192
  0
VERTEX
  5
2FE2
  8
0
 10
0.0
 20
0.0
 30
0.0
 70
   128
 71
     8
 72
     7
 73
    -6
  0
VERTEX
  5
2FE3
  8
0
 10
0.0
 20
0.0
 30
0.0
 70
   128
 71
    -8
 72
     6
 73
    -5
  0
VERTEX
  5
2FE4
  8
0
 10
0.0
 20
0.0
 30
0.0
 70
   128
 71
    -5
 72
     1
 73
    -8
  0
VERTEX
  5
2FE5
  8
0
 10
0.0
 20
0.0
 30
0.0
 70
   128
 71
     5
 72
    -4
 73
    -1
  0
VERTEX
  5
2FE6
  8
0
 10
0.0
 20
0.0
 30
0.0
 70
   128
 71
     4
 72
     3
 73
    -2
  0
VERTEX
  5
2FE7
  8
0
 10
0.0
 20
0.0
 30
0.0
 70
   128
 71
    -4
 72
     2
 73
    -1
  0
SEQEND
  5
30F3
  8
0
  0
ENDBLK
  5
30E3
  8
0
  0
BLOCK
  8
0
  2
*X7
 70
     1
 10
0.0
 20
0.0
 30
0.0
  3
*X7
  1

  0
POLYLINE
  5
2FE9
  8
0
 66
     1
 10
0.0
 20
0.0
 30
0.0
 70
    64
 71
     6
 72
     4
  0
VERTEX
  5
2FEA
  8
0
 10
-307.0200000000004
 20
-121.9999999999997
 30
-12.0
 70
   192
  0
VERTEX
  5
2FEB
  8
0
 10
-307.0200000000004
 20
-155.9999999999999
 30
-12.0
 70
   192
  0
VERTEX
  5
2FEC
  8
0
 10
-307.0200000000004
 20
-155.9999999999999
 30
-5.0
 70
   192
  0
VERTEX
  5
2FED
  8
0
 10
-307.0200000000004
 20
-158.9999999999999
 30
-5.0
 70
   192
  0
VERTEX
  5
2FEE
  8
0
 10
-307.0200000000004
 20
-158.9999999999999
 30
-15.0
 70
   192
  0
VERTEX
  5
2FEF
  8
0
 10
-307.0200000000004
 20
-121.9999999999997
 30
-15.0
 70
   192
  0
VERTEX
  5
2FF0
  8
0
 10
0.0
 20
0.0
 30
0.0
 70
   128
 71
     6
 72
     1
 73
    -2
  0
VERTEX
  5
2FF1
  8
0
 10
0.0
 20
0.0
 30
0.0
 70
   128
 71
     5
 72
    -6
 73
    -2
  0
VERTEX
  5
2FF2
  8
0
 10
0.0
 20
0.0
 30
0.0
 70
   128
 71
     3
 72
     4
 73
    -5
  0
VERTEX
  5
2FF3
  8
0
 10
0.0
 20
0.0
 30
0.0
 70
   128
 71
     2
 72
    -3
 73
    -5
  0
SEQEND
  5
30F6
  8
0
  0
POLYLINE
  5
2FF4
  8
0
 66
     1
 10
0.0
 20
0.0
 30
0.0
 70
    64
 71
     8
 72
     6
  0
VERTEX
  5
2FF5
  8
0
 10
-329.0200000000004
 20
-82.00000000000001
 30
-5.0
 70
   192
  0
VERTEX
  5
2FF6
  8
0
 10
-307.0200000000004
 20
-81.99999999999997
 30
-5.0
 70
   192
  0
VERTEX
  5
2FF7
  8
0
 10
-307.0200000000004
 20
-78.99999999999997
 30
-5.0
 70
   192
  0
VERTEX
  5
2FF8
  8
0
 10
-272.0200000000004
 20
-78.9999999999999
 30
-5.0
 70
   192
  0
VERTEX
  5
2FF9
  8
0
 10
-272.0200000000004
 20
-158.9999999999999
 30
-5.0
 70
   192
  0
VERTEX
  5
2FFA
  8
0
 10
-307.0200000000004
 20
-158.9999999999999
 30
-5.0
 70
   192
  0
VERTEX
  5
2FFB
  8
0
 10
-307.0200000000004
 20
-155.9999999999999
 30
-5.0
 70
   192
  0
VERTEX
  5
2FFC
  8
0
 10
-329.0200000000002
 20
-155.9999999999999
 30
-5.0
 70
   192
  0
VERTEX
  5
2FFD
  8
0
 10
0.0
 20
0.0
 30
0.0
 70
   128
 71
     5
 72
     6
 73
    -7
  0
VERTEX
  5
2FFE
  8
0
 10
0.0
 20
0.0
 30
0.0
 70
   128
 71
     8
 72
     1
 73
    -2
  0
VERTEX
  5
2FFF
  8
0
 10
0.0
 20
0.0
 30
0.0
 70
   128
 71
     7
 72
    -8
 73
    -2
  0
VERTEX
  5
3000
  8
0
 10
0.0
 20
0.0
 30
0.0
 70
   128
 71
     4
 72
    -5
 73
    -7
  0
VERTEX
  5
3001
  8
0
 10
0.0
 20
0.0
 30
0.0
 70
   128
 71
    -2
 72
    -4
 73
    -7
  0
VERTEX
  5
3002
  8
0
 10
0.0
 20
0.0
 30
0.0
 70
   128
 71
     2
 72
     3
 73
    -4
  0
SEQEND
  5
30F7
  8
0
  0
POLYLINE
  5
3003
  8
0
 66
     1
 10
0.0
 20
0.0
 30
0.0
 70
    64
 71
     4
 72
     2
  0
VERTEX
  5
3004
  8
0
 10
-332.0200000000002
 20
-158.9999999999999
 30
-2.0
 70
   192
  0
VERTEX
  5
3005
  8
0
 10
-332.0200000000002
 20
-158.9999999999999
 30
-15.0
 70
   192
  0
VERTEX
  5
3006
  8
0
 10
-332.0200000000004
 20
-79.00000000000001
 30
-15.0
 70
   192
  0
VERTEX
  5
3007
  8
0
 10
-332.0200000000004
 20
-79.00000000000001
 30
-2.0
 70
   192
  0
VERTEX
  5
3008
  8
0
 10
0.0
 20
0.0
 30
0.0
 70
   128
 71
     1
 72
     4
 73
    -3
  0
VERTEX
  5
3009
  8
0
 10
0.0
 20
0.0
 30
0.0
 70
   128
 71
    -1
 72
     3
 73
     2
  0
SEQEND
  5
30F8
  8
0
  0
POLYLINE
  5
300A
  8
0
 66
     1
 10
0.0
 20
0.0
 30
0.0
 70
    64
 71
     6
 72
     4
  0
VERTEX
  5
300B
  8
0
 10
-332.0200000000004
 20
-79.00000000000001
 30
-2.0
 70
   192
  0
VERTEX
  5
300C
  8
0
 10
-332.0200000000004
 20
-79.00000000000001
 30
-15.0
 70
   192
  0
VERTEX
  5
300D
  8
0
 10
-307.0200000000004
 20
-78.99999999999997
 30
-15.0
 70
   192
  0
VERTEX
  5
300E
  8
0
 10
-307.0200000000004
 20
-78.99999999999997
 30
-5.0
 70
   192
  0
VERTEX
  5
300F
  8
0
 10
-272.0200000000004
 20
-78.9999999999999
 30
-5.0
 70
   192
  0
VERTEX
  5
3010
  8
0
 10
-272.0200000000004
 20
-78.9999999999999
 30
-2.0
 70
   192
  0
VERTEX
  5
3011
  8
0
 10
0.0
 20
0.0
 30
0.0
 70
   128
 71
     4
 72
     3
 73
    -2
  0
VERTEX
  5
3012
  8
0
 10
0.0
 20
0.0
 30
0.0
 70
   128
 71
    -4
 72
     2
 73
    -1
  0
VERTEX
  5
3013
  8
0
 10
0.0
 20
0.0
 30
0.0
 70
   128
 71
     1
 72
     6
 73
    -5
  0
VERTEX
  5
3014
  8
0
 10
0.0
 20
0.0
 30
0.0
 70
   128
 71
    -1
 72
     5
 73
    -4
  0
SEQEND
  5
30F9
  8
0
  0
POLYLINE
  5
3015
  8
0
 66
     1
 10
0.0
 20
0.0
 30
0.0
 70
    64
 71
     4
 72
     2
  0
VERTEX
  5
3016
  8
0
 10
-272.0200000000004
 20
-78.9999999999999
 30
-2.0
 70
   192
  0
VERTEX
  5
3017
  8
0
 10
-272.0200000000004
 20
-158.9999999999999
 30
-2.0
 70
   192
  0
VERTEX
  5
3018
  8
0
 10
-272.0200000000004
 20
-158.9999999999999
 30
-5.0
 70
   192
  0
VERTEX
  5
3019
  8
0
 10
-272.0200000000004
 20
-78.9999999999999
 30
-5.0
 70
   192
  0
VERTEX
  5
301A
  8
0
 10
0.0
 20
0.0
 30
0.0
 70
   128
 71
     3
 72
     4
 73
    -1
  0
VERTEX
  5
301B
  8
0
 10
0.0
 20
0.0
 30
0.0
 70
   128
 71
     2
 72
    -3
 73
     1
  0
SEQEND
  5
30FA
  8
0
  0
POLYLINE
  5
301C
  8
0
 66
     1
 10
0.0
 20
0.0
 30
0.0
 70
    64
 71
     6
 72
     4
  0
VERTEX
  5
301D
  8
0
 10
-272.0200000000004
 20
-158.9999999999999
 30
-2.0
 70
   192
  0
VERTEX
  5
301E
  8
0
 10
-332.0200000000002
 20
-158.9999999999999
 30
-2.0
 70
   192
  0
VERTEX
  5
301F
  8
0
 10
-332.0200000000002
 20
-158.9999999999999
 30
-15.0
 70
   192
  0
VERTEX
  5
3020
  8
0
 10
-307.0200000000004
 20
-158.9999999999999
 30
-15.0
 70
   192
  0
VERTEX
  5
3021
  8
0
 10
-307.0200000000004
 20
-158.9999999999999
 30
-5.0
 70
   192
  0
VERTEX
  5
3022
  8
0
 10
-272.0200000000004
 20
-158.9999999999999
 30
-5.0
 70
   192
  0
VERTEX
  5
3023
  8
0
 10
0.0
 20
0.0
 30
0.0
 70
   128
 71
     3
 72
     4
 73
    -5
  0
VERTEX
  5
3024
  8
0
 10
0.0
 20
0.0
 30
0.0
 70
   128
 71
     2
 72
    -3
 73
    -5
  0
VERTEX
  5
3025
  8
0
 10
0.0
 20
0.0
 30
0.0
 70
   128
 71
     6
 72
     1
 73
    -2
  0
VERTEX
  5
3026
  8
0
 10
0.0
 20
0.0
 30
0.0
 70
   128
 71
     5
 72
    -6
 73
    -2
  0
SEQEND
  5
30FB
  8
0
  0
POLYLINE
  5
3027
  8
0
 66
     1
 10
0.0
 20
0.0
 30
0.0
 70
    64
 71
     4
 72
     2
  0
VERTEX
  5
3028
  8
0
 10
-332.0200000000004
 20
-79.00000000000001
 30
-2.0
 70
   192
  0
VERTEX
  5
3029
  8
0
 10
-272.0200000000004
 20
-78.9999999999999
 30
-2.0
 70
   192
  0
VERTEX
  5
302A
  8
0
 10
-272.0200000000004
 20
-158.9999999999999
 30
-2.0
 70
   192
  0
VERTEX
  5
302B
  8
0
 10
-332.0200000000002
 20
-158.9999999999999
 30
-2.0
 70
   192
  0
VERTEX
  5
302C
  8
0
 10
0.0
 20
0.0
 30
0.0
 70
   128
 71
     1
 72
     4
 73
    -3
  0
VERTEX
  5
302D
  8
0
 10
0.0
 20
0.0
 30
0.0
 70
   128
 71
    -1
 72
     3
 73
     2
  0
SEQEND
  5
30FC
  8
0
  0
POLYLINE
  5
302E
  8
0
 66
     1
 10
0.0
 20
0.0
 30
0.0
 70
    64
 71
     4
 72
     2
  0
VERTEX
  5
302F
  8
0
 10
-327.0200000000004
 20
-116.0000000000002
 30
-12.0
 70
   192
  0
VERTEX
  5
3030
  8
0
 10
-327.0200000000004
 20
-121.9999999999997
 30
-12.0
 70
   192
  0
VERTEX
  5
3031
  8
0
 10
-327.0200000000004
 20
-121.9999999999997
 30
-15.0
 70
   192
  0
VERTEX
  5
3032
  8
0
 10
-327.0200000000004
 20
-116.0000000000002
 30
-15.0
 70
   192
  0
VERTEX
  5
3033
  8
0
 10
0.0
 20
0.0
 30
0.0
 70
   128
 71
     3
 72
     4
 73
    -1
  0
VERTEX
  5
3034
  8
0
 10
0.0
 20
0.0
 30
0.0
 70
   128
 71
     2
 72
    -3
 73
     1
  0
SEQEND
  5
30FD
  8
0
  0
POLYLINE
  5
3035
  8
0
 66
     1
 10
0.0
 20
0.0
 30
0.0
 70
    64
 71
     4
 72
     2
  0
VERTEX
  5
3036
  8
0
 10
-327.0200000000005
 20
-121.9999999999997
 30
-12.0
 70
   192
  0
VERTEX
  5
3037
  8
0
 10
-307.0200000000004
 20
-121.9999999999997
 30
-12.0
 70
   192
  0
VERTEX
  5
3038
  8
0
 10
-307.0200000000004
 20
-121.9999999999997
 30
-15.0
 70
   192
  0
VERTEX
  5
3039
  8
0
 10
-327.0200000000005
 20
-121.9999999999997
 30
-15.0
 70
   192
  0
VERTEX
  5
303A
  8
0
 10
0.0
 20
0.0
 30
0.0
 70
   128
 71
     3
 72
     4
 73
    -1
  0
VERTEX
  5
303B
  8
0
 10
0.0
 20
0.0
 30
0.0
 70
   128
 71
     2
 72
    -3
 73
     1
  0
SEQEND
  5
30FE
  8
0
  0
POLYLINE
  5
303C
  8
0
 66
     1
 10
0.0
 20
0.0
 30
0.0
 70
    64
 71
     6
 72
     4
  0
VERTEX
  5
303D
  8
0
 10
-307.0200000000004
 20
-81.99999999999997
 30
-12.0
 70
   192
  0
VERTEX
  5
303E
  8
0
 10
-307.0200000000004
 20
-116.0000000000002
 30
-12.0
 70
   192
  0
VERTEX
  5
303F
  8
0
 10
-307.0200000000004
 20
-116.0000000000002
 30
-15.0
 70
   192
  0
VERTEX
  5
3040
  8
0
 10
-307.0200000000004
 20
-78.99999999999997
 30
-15.0
 70
   192
  0
VERTEX
  5
3041
  8
0
 10
-307.0200000000004
 20
-78.99999999999997
 30
-5.0
 70
   192
  0
VERTEX
  5
3042
  8
0
 10
-307.0200000000004
 20
-81.99999999999997
 30
-5.0
 70
   192
  0
VERTEX
  5
3043
  8
0
 10
0.0
 20
0.0
 30
0.0
 70
   128
 71
     5
 72
     6
 73
    -1
  0
VERTEX
  5
3044
  8
0
 10
0.0
 20
0.0
 30
0.0
 70
   128
 71
     4
 72
    -5
 73
    -1
  0
VERTEX
  5
3045
  8
0
 10
0.0
 20
0.0
 30
0.0
 70
   128
 71
     2
 72
     3
 73
    -4
  0
VERTEX
  5
3046
  8
0
 10
0.0
 20
0.0
 30
0.0
 70
   128
 71
     1
 72
    -2
 73
    -4
  0
SEQEND
  5
30FF
  8
0
  0
POLYLINE
  5
3047
  8
0
 66
     1
 10
0.0
 20
0.0
 30
0.0
 70
    64
 71
     4
 72
     2
  0
VERTEX
  5
3048
  8
0
 10
-307.0200000000004
 20
-116.0000000000002
 30
-12.0
 70
   192
  0
VERTEX
  5
3049
  8
0
 10
-327.0200000000004
 20
-116.0000000000002
 30
-12.0
 70
   192
  0
VERTEX
  5
304A
  8
0
 10
-327.0200000000004
 20
-116.0000000000002
 30
-15.0
 70
   192
  0
VERTEX
  5
304B
  8
0
 10
-307.0200000000004
 20
-116.0000000000002
 30
-15.0
 70
   192
  0
VERTEX
  5
304C
  8
0
 10
0.0
 20
0.0
 30
0.0
 70
   128
 71
     3
 72
     4
 73
    -1
  0
VERTEX
  5
304D
  8
0
 10
0.0
 20
0.0
 30
0.0
 70
   128
 71
     2
 72
    -3
 73
     1
  0
SEQEND
  5
3100
  8
0
  0
POLYLINE
  5
304E
  8
0
 66
     1
 10
0.0
 20
0.0
 30
0.0
 70
    64
 71
     8
 72
     6
  0
VERTEX
  5
304F
  8
0
 10
-327.0200000000004
 20
-116.0000000000002
 30
-15.0
 70
   192
  0
VERTEX
  5
3050
  8
0
 10
-327.0200000000004
 20
-121.9999999999997
 30
-15.0
 70
   192
  0
VERTEX
  5
3051
  8
0
 10
-307.0200000000004
 20
-121.9999999999997
 30
-15.0
 70
   192
  0
VERTEX
  5
3052
  8
0
 10
-307.0200000000004
 20
-158.9999999999999
 30
-15.0
 70
   192
  0
VERTEX
  5
3053
  8
0
 10
-332.0200000000003
 20
-158.9999999999999
 30
-15.0
 70
   192
  0
VERTEX
  5
3054
  8
0
 10
-332.0200000000004
 20
-79.00000000000003
 30
-15.0
 70
   192
  0
VERTEX
  5
3055
  8
0
 10
-307.0200000000004
 20
-78.99999999999997
 30
-15.0
 70
   192
  0
VERTEX
  5
3056
  8
0
 10
-307.0200000000004
 20
-116.0000000000002
 30
-15.0
 70
   192
  0
VERTEX
  5
3057
  8
0
 10
0.0
 20
0.0
 30
0.0
 70
   128
 71
     7
 72
     8
 73
    -1
  0
VERTEX
  5
3058
  8
0
 10
0.0
 20
0.0
 30
0.0
 70
   128
 71
     6
 72
    -7
 73
    -1
  0
VERTEX
  5
3059
  8
0
 10
0.0
 20
0.0
 30
0.0
 70
   128
 71
    -6
 72
     1
 73
    -2
  0
VERTEX
  5
305A
  8
0
 10
0.0
 20
0.0
 30
0.0
 70
   128
 71
     5
 72
    -6
 73
    -2
  0
VERTEX
  5
305B
  8
0
 10
0.0
 20
0.0
 30
0.0
 70
   128
 71
     3
 72
     4
 73
    -5
  0
VERTEX
  5
305C
  8
0
 10
0.0
 20
0.0
 30
0.0
 70
   128
 71
     2
 72
    -3
 73
    -5
  0
SEQEND
  5
3101
  8
0
  0
POLYLINE
  5
305D
  8
0
 66
     1
 10
0.0
 20
0.0
 30
0.0
 70
    64
 71
     4
 72
     2
  0
VERTEX
  5
305E
  8
0
 10
-329.0200000000004
 20
-82.00000000000001
 30
-5.0
 70
   192
  0
VERTEX
  5
305F
  8
0
 10
-329.0200000000002
 20
-155.9999999999999
 30
-5.0
 70
   192
  0
VERTEX
  5
3060
  8
0
 10
-329.0200000000002
 20
-155.9999999999999
 30
-12.0
 70
   192
  0
VERTEX
  5
3061
  8
0
 10
-329.0200000000004
 20
-82.00000000000001
 30
-12.0
 70
   192
  0
VERTEX
  5
3062
  8
0
 10
0.0
 20
0.0
 30
0.0
 70
   128
 71
     3
 72
     4
 73
    -1
  0
VERTEX
  5
3063
  8
0
 10
0.0
 20
0.0
 30
0.0
 70
   128
 71
     2
 72
    -3
 73
     1
  0
SEQEND
  5
3102
  8
0
  0
POLYLINE
  5
3064
  8
0
 66
     1
 10
0.0
 20
0.0
 30
0.0
 70
    64
 71
     4
 72
     2
  0
VERTEX
  5
3065
  8
0
 10
-307.0200000000004
 20
-81.99999999999997
 30
-5.0
 70
   192
  0
VERTEX
  5
3066
  8
0
 10
-329.0200000000004
 20
-82.00000000000001
 30
-5.0
 70
   192
  0
VERTEX
  5
3067
  8
0
 10
-329.0200000000004
 20
-82.00000000000001
 30
-12.0
 70
   192
  0
VERTEX
  5
3068
  8
0
 10
-307.0200000000004
 20
-81.99999999999997
 30
-12.0
 70
   192
  0
VERTEX
  5
3069
  8
0
 10
0.0
 20
0.0
 30
0.0
 70
   128
 71
     3
 72
     4
 73
    -1
  0
VERTEX
  5
306A
  8
0
 10
0.0
 20
0.0
 30
0.0
 70
   128
 71
     2
 72
    -3
 73
     1
  0
SEQEND
  5
3103
  8
0
  0
POLYLINE
  5
306B
  8
0
 66
     1
 10
0.0
 20
0.0
 30
0.0
 70
    64
 71
     4
 72
     2
  0
VERTEX
  5
306C
  8
0
 10
-307.0200000000004
 20
-155.9999999999999
 30
-5.0
 70
   192
  0
VERTEX
  5
306D
  8
0
 10
-329.0200000000002
 20
-155.9999999999999
 30
-5.0
 70
   192
  0
VERTEX
  5
306E
  8
0
 10
-329.0200000000002
 20
-155.9999999999999
 30
-12.0
 70
   192
  0
VERTEX
  5
306F
  8
0
 10
-307.0200000000004
 20
-155.9999999999999
 30
-12.0
 70
   192
  0
VERTEX
  5
3070
  8
0
 10
0.0
 20
0.0
 30
0.0
 70
   128
 71
     1
 72
     4
 73
    -3
  0
VERTEX
  5
3071
  8
0
 10
0.0
 20
0.0
 30
0.0
 70
   128
 71
    -1
 72
     3
 73
     2
  0
SEQEND
  5
3104
  8
0
  0
POLYLINE
  5
3072
  8
0
 66
     1
 10
0.0
 20
0.0
 30
0.0
 70
    64
 71
     8
 72
     6
  0
VERTEX
  5
3073
  8
0
 10
-327.0200000000005
 20
-121.9999999999997
 30
-12.0
 70
   192
  0
VERTEX
  5
3074
  8
0
 10
-307.0200000000004
 20
-121.9999999999997
 30
-12.0
 70
   192
  0
VERTEX
  5
3075
  8
0
 10
-307.0200000000004
 20
-155.9999999999999
 30
-12.0
 70
   192
  0
VERTEX
  5
3076
  8
0
 10
-329.0200000000002
 20
-155.9999999999999
 30
-12.0
 70
   192
  0
VERTEX
  5
3077
  8
0
 10
-329.0200000000004
 20
-82.00000000000001
 30
-12.0
 70
   192
  0
VERTEX
  5
3078
  8
0
 10
-307.0200000000004
 20
-81.99999999999997
 30
-12.0
 70
   192
  0
VERTEX
  5
3079
  8
0
 10
-307.0200000000004
 20
-116.0000000000002
 30
-12.0
 70
   192
  0
VERTEX
  5
307A
  8
0
 10
-327.0200000000004
 20
-116.0000000000002
 30
-12.0
 70
   192
  0
VERTEX
  5
307B
  8
0
 10
0.0
 20
0.0
 30
0.0
 70
   128
 71
     8
 72
     7
 73
    -6
  0
VERTEX
  5
307C
  8
0
 10
0.0
 20
0.0
 30
0.0
 70
   128
 71
    -8
 72
     6
 73
    -5
  0
VERTEX
  5
307D
  8
0
 10
0.0
 20
0.0
 30
0.0
 70
   128
 71
    -5
 72
     1
 73
    -8
  0
VERTEX
  5
307E
  8
0
 10
0.0
 20
0.0
 30
0.0
 70
   128
 71
     5
 72
    -4
 73
    -1
  0
VERTEX
  5
307F
  8
0
 10
0.0
 20
0.0
 30
0.0
 70
   128
 71
     4
 72
     3
 73
    -2
  0
VERTEX
  5
3080
  8
0
 10
0.0
 20
0.0
 30
0.0
 70
   128
 71
    -4
 72
     2
 73
    -1
  0
SEQEND
  5
3105
  8
0
  0
ENDBLK
  5
30F5
  8
0
  0
ENDSEC
  0
SECTION
  2
ENTITIES
  0
INSERT
  5
244A
  8
0
  2
*X1
 10
0.0
 20
0.0
 30
0.0
  0
INSERT
  5
244B
  8
0
  2
*X2
 10
0.0
 20
0.0
 30
0.0
  0
INSERT
  5
244C
  8
0
  2
*X3
 10
0.0
 20
0.0
 30
0.0
  0
INSERT
  5
244D
  8
0
  2
*X4
 10
0.0
 20
0.0
 30
0.0
  0
INSERT
  5
244E
  8
0
  2
*X5
 10
0.0
 20
0.0
 30
0.0
  0
INSERT
  5
244F
  8
0
  2
*X6
 10
0.0
 20
0.0
 30
0.0
  0
INSERT
  5
2450
  8
0
  2
*X7
 10
0.0
 20
0.0
 30
0.0
  0
ENDSEC
  0
EOF
