  0
SECTION
  2
HEADER
  9
$ACADVER
  1
AC1009
  9
$DWGCODEPAGE
  3
ansi_1250
  9
$INSBASE
 10
0.0
 20
0.0
 30
0.0
  9
$EXTMIN
 10
-500.0
 20
-250.0000000000001
 30
-20.00000000000007
  9
$EXTMAX
 10
500.0
 20
250.0000000000001
 30
0.0000000000000711
  9
$LIMMIN
 10
0.0
 20
0.0
  9
$LIMMAX
 10
420.0
 20
297.0
  9
$ORTHOMODE
 70
     0
  9
$REGENMODE
 70
     1
  9
$FILLMODE
 70
     1
  9
$QTEXTMODE
 70
     0
  9
$MIRRTEXT
 70
     0
  9
$DRAGMODE
 70
     2
  9
$LTSCALE
 40
1.0
  9
$OSMODE
 70
   511
  9
$ATTMODE
 70
     1
  9
$TEXTSIZE
 40
2.5
  9
$TRACEWID
 40
1.0
  9
$TEXTSTYLE
  7
STANDARD
  9
$CLAYER
  8
0
  9
$CELTYPE
  6
BYLAYER
  9
$CECOLOR
 62
   256
  9
$DIMSCALE
 40
1.0
  9
$DIMASZ
 40
2.5
  9
$DIMEXO
 40
0.625
  9
$DIMDLI
 40
3.75
  9
$DIMRND
 40
0.0
  9
$DIMDLE
 40
0.0
  9
$DIMEXE
 40
1.25
  9
$DIMTP
 40
0.0
  9
$DIMTM
 40
0.0
  9
$DIMTXT
 40
2.5
  9
$DIMCEN
 40
-2.5
  9
$DIMTSZ
 40
0.0
  9
$DIMTOL
 70
     0
  9
$DIMLIM
 70
     0
  9
$DIMTIH
 70
     0
  9
$DIMTOH
 70
     0
  9
$DIMSE1
 70
     0
  9
$DIMSE2
 70
     0
  9
$DIMTAD
 70
     1
  9
$DIMZIN
 70
     8
  9
$DIMBLK
  1

  9
$DIMASO
 70
     1
  9
$DIMSHO
 70
     1
  9
$DIMPOST
  1

  9
$DIMAPOST
  1

  9
$DIMALT
 70
     0
  9
$DIMALTD
 70
     3
  9
$DIMALTF
 40
0.03937007874016
  9
$DIMLFAC
 40
1.0
  9
$DIMTOFL
 70
     1
  9
$DIMTVP
 40
0.0
  9
$DIMTIX
 70
     0
  9
$DIMSOXD
 70
     0
  9
$DIMSAH
 70
     0
  9
$DIMBLK1
  1

  9
$DIMBLK2
  1

  9
$DIMSTYLE
  2
ISO-25
  9
$DIMCLRD
 70
     0
  9
$DIMCLRE
 70
     0
  9
$DIMCLRT
 70
     0
  9
$DIMTFAC
 40
1.0
  9
$DIMGAP
 40
0.625
  9
$LUNITS
 70
     2
  9
$LUPREC
 70
     3
  9
$SKETCHINC
 40
1.0
  9
$FILLETRAD
 40
10.0
  9
$AUNITS
 70
     0
  9
$AUPREC
 70
     0
  9
$MENU
  1
.
  9
$ELEVATION
 40
0.0
  9
$PELEVATION
 40
0.0
  9
$THICKNESS
 40
0.0
  9
$LIMCHECK
 70
     0
  9
$CHAMFERA
 40
10.0
  9
$CHAMFERB
 40
10.0
  9
$SKPOLY
 70
     0
  9
$TDCREATE
 40
2455022.720692848
  9
$TDUPDATE
 40
2460535.569762558
  9
$TDINDWG
 40
0.0016765394
  9
$TDUSRTIMER
 40
0.0016765394
  9
$USRTIMER
 70
     1
  9
$ANGBASE
 50
0.0
  9
$ANGDIR
 70
     0
  9
$PDMODE
 70
     0
  9
$PDSIZE
 40
0.0
  9
$PLINEWID
 40
0.0
  9
$COORDS
 70
     1
  9
$SPLFRAME
 70
     0
  9
$SPLINETYPE
 70
     6
  9
$SPLINESEGS
 70
     8
  9
$ATTDIA
 70
     0
  9
$ATTREQ
 70
     1
  9
$HANDLING
 70
     1
  9
$HANDSEED
  5
3DC2
  9
$SURFTAB1
 70
     6
  9
$SURFTAB2
 70
     6
  9
$SURFTYPE
 70
     6
  9
$SURFU
 70
     6
  9
$SURFV
 70
     6
  9
$UCSNAME
  2

  9
$UCSORG
 10
0.0
 20
0.0
 30
0.0
  9
$UCSXDIR
 10
1.0
 20
0.0
 30
0.0
  9
$UCSYDIR
 10
0.0
 20
1.0
 30
0.0
  9
$PUCSNAME
  2

  9
$PUCSORG
 10
0.0
 20
0.0
 30
0.0
  9
$PUCSXDIR
 10
1.0
 20
0.0
 30
0.0
  9
$PUCSYDIR
 10
0.0
 20
1.0
 30
0.0
  9
$USERI1
 70
     0
  9
$USERI2
 70
     0
  9
$USERI3
 70
     0
  9
$USERI4
 70
     0
  9
$USERI5
 70
     0
  9
$USERR1
 40
0.0
  9
$USERR2
 40
0.0
  9
$USERR3
 40
0.0
  9
$USERR4
 40
0.0
  9
$USERR5
 40
0.0
  9
$WORLDVIEW
 70
     1
  9
$SHADEDGE
 70
     3
  9
$SHADEDIF
 70
    70
  9
$TILEMODE
 70
     1
  9
$MAXACTVP
 70
    64
  9
$PLIMCHECK
 70
     0
  9
$PEXTMIN
 10
1.000000000000000E+20
 20
1.000000000000000E+20
 30
1.000000000000000E+20
  9
$PEXTMAX
 10
-1.000000000000000E+20
 20
-1.000000000000000E+20
 30
-1.000000000000000E+20
  9
$PLIMMIN
 10
0.0
 20
0.0
  9
$PLIMMAX
 10
0.0
 20
0.0
  9
$UNITMODE
 70
     0
  9
$VISRETAIN
 70
     1
  9
$PLINEGEN
 70
     0
  9
$PSLTSCALE
 70
     1
  0
ENDSEC
  0
SECTION
  2
TABLES
  0
TABLE
  2
VPORT
 70
     1
  0
VPORT
  2
*ACTIVE
 70
     0
 10
0.0
 20
0.0
 11
1.0
 21
1.0
 12
-94.88447817080794
 22
-62.94654482311037
 13
0.0
 23
0.0
 14
10.0
 24
10.0
 15
10.0
 25
10.0
 16
0.5773502691896226
 26
0.5773502691896226
 36
0.5773502691896226
 17
-134.1869158878504
 27
-0.0000000000000284
 37
0.0
 40
516.352437778694
 41
1.961089494163424
 42
50.0
 43
0.0
 44
0.0
 50
0.0
 51
0.0
 71
    16
 72
  1000
 73
     1
 74
     3
 75
     0
 76
     0
 77
     0
 78
     0
  0
ENDTAB
  0
TABLE
  2
LTYPE
 70
     1
  0
LTYPE
  2
CONTINUOUS
 70
     0
  3
Solid line
 72
    65
 73
     0
 40
0.0
  0
ENDTAB
  0
TABLE
  2
LAYER
 70
     1
  0
LAYER
  2
0
 70
     0
 62
     7
  6
CONTINUOUS
  0
ENDTAB
  0
TABLE
  2
STYLE
 70
     2
  0
STYLE
  2
STANDARD
 70
     0
 40
0.0
 41
1.0
 50
0.0
 71
     0
 42
2.5
  3
arial.ttf
  4

  0
STYLE
  2
ANNOTATIVE
 70
     0
 40
0.0
 41
1.0
 50
0.0
 71
     0
 42
2.5
  3
arial.ttf
  4

  0
ENDTAB
  0
TABLE
  2
VIEW
 70
     0
  0
ENDTAB
  0
TABLE
  2
UCS
 70
     0
  0
ENDTAB
  0
TABLE
  2
APPID
 70
     2
  0
APPID
  2
ACAD
 70
     0
  0
APPID
  2
ACADANNOTATIVE
 70
     0
  0
ENDTAB
  0
TABLE
  2
DIMSTYLE
 70
     2
  0
DIMSTYLE
  2
ISO-25
 70
     0
  3

  4

  5

  6

  7

 40
1.0
 41
2.5
 42
0.625
 43
3.75
 44
1.25
 45
0.0
 46
0.0
 47
0.0
 48
0.0
140
2.5
141
-2.5
142
0.0
143
0.03937007874016
144
1.0
145
0.0
146
1.0
147
0.625
 71
     0
 72
     0
 73
     0
 74
     0
 75
     0
 76
     0
 77
     1
 78
     8
170
     0
171
     3
172
     1
173
     0
174
     0
175
     0
176
     0
177
     0
178
     0
  0
DIMSTYLE
  2
ANNOTATIVE
 70
     0
  3

  4

  5

  6

  7

 40
0.0
 41
2.5
 42
0.625
 43
3.75
 44
1.25
 45
0.0
 46
0.0
 47
0.0
 48
0.0
140
2.5
141
-2.5
142
0.0
143
0.03937007874016
144
1.0
145
0.0
146
1.0
147
0.625
 71
     0
 72
     0
 73
     0
 74
     0
 75
     0
 76
     0
 77
     1
 78
     8
170
     0
171
     3
172
     1
173
     0
174
     0
175
     0
176
     0
177
     0
178
     0
  0
ENDTAB
  0
ENDSEC
  0
SECTION
  2
BLOCKS
  0
BLOCK
  8
0
  2
$MODEL_SPACE
 70
     0
 10
0.0
 20
0.0
 30
0.0
  3
$MODEL_SPACE
  1

  0
ENDBLK
  5
21
  8
0
  0
BLOCK
 67
     1
  8
0
  2
$PAPER_SPACE
 70
     0
 10
0.0
 20
0.0
 30
0.0
  3
$PAPER_SPACE
  1

  0
ENDBLK
  5
1D
 67
     1
  8
0
  0
BLOCK
  8
0
  2
*X1
 70
     1
 10
0.0
 20
0.0
 30
0.0
  3
*X1
  1

  0
POLYLINE
  5
376C
  8
0
 66
     1
 10
0.0
 20
0.0
 30
0.0
 70
    64
 71
     8
 72
     6
  0
VERTEX
  5
376D
  8
0
 10
493.3012701892219
 20
225.0000000000001
 30
0.0
 70
   192
  0
VERTEX
  5
376E
  8
0
 10
493.3012701892219
 20
225.0000000000001
 30
-2.0
 70
   192
  0
VERTEX
  5
376F
  8
0
 10
475.0
 20
243.301270189222
 30
-2.0
 70
   192
  0
VERTEX
  5
3770
  8
0
 10
475.0
 20
243.301270189222
 30
0.0
 70
   192
  0
VERTEX
  5
3771
  8
0
 10
500.0
 20
200.0000000000001
 30
0.0
 70
   192
  0
VERTEX
  5
3772
  8
0
 10
500.0
 20
200.0000000000001
 30
-2.0
 70
   192
  0
VERTEX
  5
3773
  8
0
 10
450.0
 20
250.0000000000001
 30
-2.0
 70
   192
  0
VERTEX
  5
3774
  8
0
 10
450.0
 20
250.0000000000001
 30
0.0
 70
   192
  0
VERTEX
  5
3775
  8
0
 10
0.0
 20
0.0
 30
0.0
 70
   128
 71
     1
 72
     2
 73
    -3
  0
VERTEX
  5
3776
  8
0
 10
0.0
 20
0.0
 30
0.0
 70
   128
 71
    -1
 72
     3
 73
     4
  0
VERTEX
  5
3777
  8
0
 10
0.0
 20
0.0
 30
0.0
 70
   128
 71
     5
 72
     6
 73
    -2
  0
VERTEX
  5
3778
  8
0
 10
0.0
 20
0.0
 30
0.0
 70
   128
 71
    -5
 72
     2
 73
     1
  0
VERTEX
  5
3779
  8
0
 10
0.0
 20
0.0
 30
0.0
 70
   128
 71
     4
 72
     3
 73
    -7
  0
VERTEX
  5
377A
  8
0
 10
0.0
 20
0.0
 30
0.0
 70
   128
 71
    -4
 72
     7
 73
     8
  0
SEQEND
  5
3D3F
  8
0
  0
POLYLINE
  5
377B
  8
0
 66
     1
 10
0.0
 20
0.0
 30
0.0
 70
    64
 71
     4
 72
     2
  0
VERTEX
  5
377C
  8
0
 10
500.0
 20
200.0000000000001
 30
0.0
 70
   192
  0
VERTEX
  5
377D
  8
0
 10
500.0
 20
-199.9999999999999
 30
0.0
 70
   192
  0
VERTEX
  5
377E
  8
0
 10
500.0
 20
-199.9999999999999
 30
-2.0
 70
   192
  0
VERTEX
  5
377F
  8
0
 10
500.0
 20
200.0000000000001
 30
-2.0
 70
   192
  0
VERTEX
  5
3780
  8
0
 10
0.0
 20
0.0
 30
0.0
 70
   128
 71
     3
 72
     4
 73
    -1
  0
VERTEX
  5
3781
  8
0
 10
0.0
 20
0.0
 30
0.0
 70
   128
 71
     2
 72
    -3
 73
     1
  0
SEQEND
  5
3D40
  8
0
  0
POLYLINE
  5
3782
  8
0
 66
     1
 10
0.0
 20
0.0
 30
0.0
 70
    64
 71
     8
 72
     6
  0
VERTEX
  5
3783
  8
0
 10
475.0
 20
-243.3012701892219
 30
0.0
 70
   192
  0
VERTEX
  5
3784
  8
0
 10
475.0
 20
-243.3012701892219
 30
-2.0
 70
   192
  0
VERTEX
  5
3785
  8
0
 10
493.3012701892219
 20
-224.9999999999999
 30
-2.0
 70
   192
  0
VERTEX
  5
3786
  8
0
 10
493.3012701892219
 20
-224.9999999999999
 30
0.0
 70
   192
  0
VERTEX
  5
3787
  8
0
 10
450.0
 20
-249.9999999999999
 30
0.0
 70
   192
  0
VERTEX
  5
3788
  8
0
 10
450.0
 20
-249.9999999999999
 30
-2.0
 70
   192
  0
VERTEX
  5
3789
  8
0
 10
500.0
 20
-199.9999999999999
 30
-2.0
 70
   192
  0
VERTEX
  5
378A
  8
0
 10
500.0
 20
-199.9999999999999
 30
0.0
 70
   192
  0
VERTEX
  5
378B
  8
0
 10
0.0
 20
0.0
 30
0.0
 70
   128
 71
     1
 72
     2
 73
    -3
  0
VERTEX
  5
378C
  8
0
 10
0.0
 20
0.0
 30
0.0
 70
   128
 71
    -1
 72
     3
 73
     4
  0
VERTEX
  5
378D
  8
0
 10
0.0
 20
0.0
 30
0.0
 70
   128
 71
     5
 72
     6
 73
    -2
  0
VERTEX
  5
378E
  8
0
 10
0.0
 20
0.0
 30
0.0
 70
   128
 71
    -5
 72
     2
 73
     1
  0
VERTEX
  5
378F
  8
0
 10
0.0
 20
0.0
 30
0.0
 70
   128
 71
     4
 72
     3
 73
    -7
  0
VERTEX
  5
3790
  8
0
 10
0.0
 20
0.0
 30
0.0
 70
   128
 71
    -4
 72
     7
 73
     8
  0
SEQEND
  5
3D41
  8
0
  0
POLYLINE
  5
3791
  8
0
 66
     1
 10
0.0
 20
0.0
 30
0.0
 70
    64
 71
     4
 72
     2
  0
VERTEX
  5
3792
  8
0
 10
450.0
 20
-249.9999999999999
 30
0.0
 70
   192
  0
VERTEX
  5
3793
  8
0
 10
450.0
 20
-249.9999999999999
 30
-2.0
 70
   192
  0
VERTEX
  5
3794
  8
0
 10
-450.0000000000001
 20
-250.0000000000001
 30
-2.0
 70
   192
  0
VERTEX
  5
3795
  8
0
 10
-450.0
 20
-250.0000000000001
 30
0.0
 70
   192
  0
VERTEX
  5
3796
  8
0
 10
0.0
 20
0.0
 30
0.0
 70
   128
 71
     1
 72
     4
 73
    -3
  0
VERTEX
  5
3797
  8
0
 10
0.0
 20
0.0
 30
0.0
 70
   128
 71
    -1
 72
     3
 73
     2
  0
SEQEND
  5
3D42
  8
0
  0
POLYLINE
  5
3798
  8
0
 66
     1
 10
0.0
 20
0.0
 30
0.0
 70
    64
 71
     8
 72
     6
  0
VERTEX
  5
3799
  8
0
 10
-493.301270189222
 20
-225.0
 30
0.0
 70
   192
  0
VERTEX
  5
379A
  8
0
 10
-493.301270189222
 20
-225.0
 30
-2.0
 70
   192
  0
VERTEX
  5
379B
  8
0
 10
-475.0
 20
-243.301270189222
 30
-2.0
 70
   192
  0
VERTEX
  5
379C
  8
0
 10
-475.0
 20
-243.301270189222
 30
0.0
 70
   192
  0
VERTEX
  5
379D
  8
0
 10
-500.0
 20
-200.0000000000001
 30
0.0
 70
   192
  0
VERTEX
  5
379E
  8
0
 10
-500.0
 20
-200.0000000000001
 30
-2.0
 70
   192
  0
VERTEX
  5
379F
  8
0
 10
-450.0000000000001
 20
-250.0000000000001
 30
-2.0
 70
   192
  0
VERTEX
  5
37A0
  8
0
 10
-450.0000000000001
 20
-250.0000000000001
 30
0.0
 70
   192
  0
VERTEX
  5
37A1
  8
0
 10
0.0
 20
0.0
 30
0.0
 70
   128
 71
     1
 72
     2
 73
    -3
  0
VERTEX
  5
37A2
  8
0
 10
0.0
 20
0.0
 30
0.0
 70
   128
 71
    -1
 72
     3
 73
     4
  0
VERTEX
  5
37A3
  8
0
 10
0.0
 20
0.0
 30
0.0
 70
   128
 71
     5
 72
     6
 73
    -2
  0
VERTEX
  5
37A4
  8
0
 10
0.0
 20
0.0
 30
0.0
 70
   128
 71
    -5
 72
     2
 73
     1
  0
VERTEX
  5
37A5
  8
0
 10
0.0
 20
0.0
 30
0.0
 70
   128
 71
     4
 72
     3
 73
    -7
  0
VERTEX
  5
37A6
  8
0
 10
0.0
 20
0.0
 30
0.0
 70
   128
 71
    -4
 72
     7
 73
     8
  0
SEQEND
  5
3D43
  8
0
  0
POLYLINE
  5
37A7
  8
0
 66
     1
 10
0.0
 20
0.0
 30
0.0
 70
    64
 71
     4
 72
     2
  0
VERTEX
  5
37A8
  8
0
 10
-500.0
 20
-200.0000000000001
 30
0.0
 70
   192
  0
VERTEX
  5
37A9
  8
0
 10
-500.0
 20
-200.0000000000001
 30
-2.0
 70
   192
  0
VERTEX
  5
37AA
  8
0
 10
-500.0
 20
199.9999999999999
 30
-2.0
 70
   192
  0
VERTEX
  5
37AB
  8
0
 10
-500.0
 20
199.9999999999999
 30
0.0
 70
   192
  0
VERTEX
  5
37AC
  8
0
 10
0.0
 20
0.0
 30
0.0
 70
   128
 71
     1
 72
     4
 73
    -3
  0
VERTEX
  5
37AD
  8
0
 10
0.0
 20
0.0
 30
0.0
 70
   128
 71
    -1
 72
     3
 73
     2
  0
SEQEND
  5
3D44
  8
0
  0
POLYLINE
  5
37AE
  8
0
 66
     1
 10
0.0
 20
0.0
 30
0.0
 70
    64
 71
     8
 72
     6
  0
VERTEX
  5
37AF
  8
0
 10
-475.0
 20
243.3012701892219
 30
0.0
 70
   192
  0
VERTEX
  5
37B0
  8
0
 10
-475.0
 20
243.3012701892219
 30
-2.0
 70
   192
  0
VERTEX
  5
37B1
  8
0
 10
-493.3012701892219
 20
224.9999999999999
 30
-2.0
 70
   192
  0
VERTEX
  5
37B2
  8
0
 10
-493.3012701892219
 20
224.9999999999999
 30
0.0
 70
   192
  0
VERTEX
  5
37B3
  8
0
 10
-450.0
 20
249.9999999999999
 30
0.0
 70
   192
  0
VERTEX
  5
37B4
  8
0
 10
-450.0
 20
249.9999999999999
 30
-2.0
 70
   192
  0
VERTEX
  5
37B5
  8
0
 10
-500.0
 20
199.9999999999999
 30
-2.0
 70
   192
  0
VERTEX
  5
37B6
  8
0
 10
-500.0
 20
199.9999999999999
 30
0.0
 70
   192
  0
VERTEX
  5
37B7
  8
0
 10
0.0
 20
0.0
 30
0.0
 70
   128
 71
     1
 72
     2
 73
    -3
  0
VERTEX
  5
37B8
  8
0
 10
0.0
 20
0.0
 30
0.0
 70
   128
 71
    -1
 72
     3
 73
     4
  0
VERTEX
  5
37B9
  8
0
 10
0.0
 20
0.0
 30
0.0
 70
   128
 71
     5
 72
     6
 73
    -2
  0
VERTEX
  5
37BA
  8
0
 10
0.0
 20
0.0
 30
0.0
 70
   128
 71
    -5
 72
     2
 73
     1
  0
VERTEX
  5
37BB
  8
0
 10
0.0
 20
0.0
 30
0.0
 70
   128
 71
     4
 72
     3
 73
    -7
  0
VERTEX
  5
37BC
  8
0
 10
0.0
 20
0.0
 30
0.0
 70
   128
 71
    -4
 72
     7
 73
     8
  0
SEQEND
  5
3D45
  8
0
  0
POLYLINE
  5
37BD
  8
0
 66
     1
 10
0.0
 20
0.0
 30
0.0
 70
    64
 71
     4
 72
     2
  0
VERTEX
  5
37BE
  8
0
 10
-450.0
 20
249.9999999999999
 30
0.0
 70
   192
  0
VERTEX
  5
37BF
  8
0
 10
450.0
 20
250.0000000000001
 30
0.0
 70
   192
  0
VERTEX
  5
37C0
  8
0
 10
450.0
 20
250.0000000000001
 30
-2.0
 70
   192
  0
VERTEX
  5
37C1
  8
0
 10
-450.0
 20
249.9999999999999
 30
-2.0
 70
   192
  0
VERTEX
  5
37C2
  8
0
 10
0.0
 20
0.0
 30
0.0
 70
   128
 71
     3
 72
     4
 73
    -1
  0
VERTEX
  5
37C3
  8
0
 10
0.0
 20
0.0
 30
0.0
 70
   128
 71
     2
 72
    -3
 73
     1
  0
SEQEND
  5
3D46
  8
0
  0
POLYLINE
  5
37C4
  8
0
 66
     1
 10
0.0
 20
0.0
 30
0.0
 70
    64
 71
    16
 72
    14
  0
VERTEX
  5
37C5
  8
0
 10
450.0
 20
250.0000000000001
 30
-2.0
 70
   192
  0
VERTEX
  5
37C6
  8
0
 10
-450.0
 20
249.9999999999999
 30
-2.0
 70
   192
  0
VERTEX
  5
37C7
  8
0
 10
-475.0
 20
243.3012701892219
 30
-2.0
 70
   192
  0
VERTEX
  5
37C8
  8
0
 10
-493.3012701892219
 20
224.9999999999999
 30
-2.0
 70
   192
  0
VERTEX
  5
37C9
  8
0
 10
-500.0
 20
199.9999999999999
 30
-2.0
 70
   192
  0
VERTEX
  5
37CA
  8
0
 10
-500.0
 20
-200.0000000000001
 30
-2.0
 70
   192
  0
VERTEX
  5
37CB
  8
0
 10
-493.301270189222
 20
-225.0
 30
-2.0
 70
   192
  0
VERTEX
  5
37CC
  8
0
 10
-475.0
 20
-243.301270189222
 30
-2.0
 70
   192
  0
VERTEX
  5
37CD
  8
0
 10
-450.0
 20
-250.0000000000001
 30
-2.0
 70
   192
  0
VERTEX
  5
37CE
  8
0
 10
450.0
 20
-249.9999999999999
 30
-2.0
 70
   192
  0
VERTEX
  5
37CF
  8
0
 10
475.0
 20
-243.3012701892219
 30
-2.0
 70
   192
  0
VERTEX
  5
37D0
  8
0
 10
493.3012701892219
 20
-224.9999999999999
 30
-2.0
 70
   192
  0
VERTEX
  5
37D1
  8
0
 10
500.0
 20
-199.9999999999999
 30
-2.0
 70
   192
  0
VERTEX
  5
37D2
  8
0
 10
500.0
 20
200.0000000000001
 30
-2.0
 70
   192
  0
VERTEX
  5
37D3
  8
0
 10
493.3012701892219
 20
225.0000000000001
 30
-2.0
 70
   192
  0
VERTEX
  5
37D4
  8
0
 10
475.0
 20
243.301270189222
 30
-2.0
 70
   192
  0
VERTEX
  5
37D5
  8
0
 10
0.0
 20
0.0
 30
0.0
 70
   128
 71
     1
 72
    16
 73
   -15
  0
VERTEX
  5
37D6
  8
0
 10
0.0
 20
0.0
 30
0.0
 70
   128
 71
    -1
 72
    15
 73
   -14
  0
VERTEX
  5
37D7
  8
0
 10
0.0
 20
0.0
 30
0.0
 70
   128
 71
    -1
 72
    14
 73
   -13
  0
VERTEX
  5
37D8
  8
0
 10
0.0
 20
0.0
 30
0.0
 70
   128
 71
    -1
 72
    13
 73
   -12
  0
VERTEX
  5
37D9
  8
0
 10
0.0
 20
0.0
 30
0.0
 70
   128
 71
    -1
 72
    12
 73
   -11
  0
VERTEX
  5
37DA
  8
0
 10
0.0
 20
0.0
 30
0.0
 70
   128
 71
    -1
 72
    11
 73
   -10
  0
VERTEX
  5
37DB
  8
0
 10
0.0
 20
0.0
 30
0.0
 70
   128
 71
    -1
 72
    10
 73
    -9
  0
VERTEX
  5
37DC
  8
0
 10
0.0
 20
0.0
 30
0.0
 70
   128
 71
    -1
 72
     9
 73
    -8
  0
VERTEX
  5
37DD
  8
0
 10
0.0
 20
0.0
 30
0.0
 70
   128
 71
    -1
 72
     8
 73
    -7
  0
VERTEX
  5
37DE
  8
0
 10
0.0
 20
0.0
 30
0.0
 70
   128
 71
    -1
 72
     7
 73
    -6
  0
VERTEX
  5
37DF
  8
0
 10
0.0
 20
0.0
 30
0.0
 70
   128
 71
    -1
 72
     6
 73
    -5
  0
VERTEX
  5
37E0
  8
0
 10
0.0
 20
0.0
 30
0.0
 70
   128
 71
    -1
 72
     5
 73
    -4
  0
VERTEX
  5
37E1
  8
0
 10
0.0
 20
0.0
 30
0.0
 70
   128
 71
    -1
 72
     4
 73
    -3
  0
VERTEX
  5
37E2
  8
0
 10
0.0
 20
0.0
 30
0.0
 70
   128
 71
    -1
 72
     3
 73
     2
  0
SEQEND
  5
3D47
  8
0
  0
POLYLINE
  5
37E3
  8
0
 66
     1
 10
0.0
 20
0.0
 30
0.0
 70
    64
 71
    32
 72
    32
  0
VERTEX
  5
37E4
  8
0
 10
500.0
 20
200.0000000000001
 30
0.0
 70
   192
  0
VERTEX
  5
37E5
  8
0
 10
493.3012701892219
 20
225.0000000000001
 30
0.0
 70
   192
  0
VERTEX
  5
37E6
  8
0
 10
475.0
 20
243.301270189222
 30
0.0
 70
   192
  0
VERTEX
  5
37E7
  8
0
 10
450.0
 20
250.0000000000001
 30
0.0
 70
   192
  0
VERTEX
  5
37E8
  8
0
 10
-450.0
 20
249.9999999999999
 30
0.0
 70
   192
  0
VERTEX
  5
37E9
  8
0
 10
-475.0
 20
243.3012701892219
 30
0.0
 70
   192
  0
VERTEX
  5
37EA
  8
0
 10
-493.3012701892219
 20
224.9999999999999
 30
0.0
 70
   192
  0
VERTEX
  5
37EB
  8
0
 10
-500.0
 20
199.9999999999999
 30
0.0
 70
   192
  0
VERTEX
  5
37EC
  8
0
 10
-500.0
 20
-200.0000000000001
 30
0.0
 70
   192
  0
VERTEX
  5
37ED
  8
0
 10
-493.301270189222
 20
-225.0
 30
0.0
 70
   192
  0
VERTEX
  5
37EE
  8
0
 10
-475.0
 20
-243.301270189222
 30
0.0
 70
   192
  0
VERTEX
  5
37EF
  8
0
 10
-450.0000000000001
 20
-250.0000000000001
 30
0.0
 70
   192
  0
VERTEX
  5
37F0
  8
0
 10
450.0
 20
-249.9999999999999
 30
0.0
 70
   192
  0
VERTEX
  5
37F1
  8
0
 10
475.0
 20
-243.3012701892219
 30
0.0
 70
   192
  0
VERTEX
  5
37F2
  8
0
 10
493.3012701892219
 20
-224.9999999999999
 30
0.0
 70
   192
  0
VERTEX
  5
37F3
  8
0
 10
500.0
 20
-199.9999999999999
 30
0.0
 70
   192
  0
VERTEX
  5
37F4
  8
0
 10
480.0000000000001
 20
200.0000000000001
 30
0.0
 70
   192
  0
VERTEX
  5
37F5
  8
0
 10
480.0000000000001
 20
-199.9999999999999
 30
0.0
 70
   192
  0
VERTEX
  5
37F6
  8
0
 10
475.9807621135332
 20
-215.0
 30
0.0
 70
   192
  0
VERTEX
  5
37F7
  8
0
 10
465.0
 20
-225.9807621135331
 30
0.0
 70
   192
  0
VERTEX
  5
37F8
  8
0
 10
450.0
 20
-230.0
 30
0.0
 70
   192
  0
VERTEX
  5
37F9
  8
0
 10
-450.0000000000001
 20
-230.0000000000001
 30
0.0
 70
   192
  0
VERTEX
  5
37FA
  8
0
 10
-465.0
 20
-225.9807621135332
 30
0.0
 70
   192
  0
VERTEX
  5
37FB
  8
0
 10
-475.9807621135332
 20
-215.0
 30
0.0
 70
   192
  0
VERTEX
  5
37FC
  8
0
 10
-480.0
 20
-200.0000000000001
 30
0.0
 70
   192
  0
VERTEX
  5
37FD
  8
0
 10
-480.0000000000001
 20
199.9999999999999
 30
0.0
 70
   192
  0
VERTEX
  5
37FE
  8
0
 10
-475.9807621135332
 20
215.0
 30
0.0
 70
   192
  0
VERTEX
  5
37FF
  8
0
 10
-465.0
 20
225.9807621135331
 30
0.0
 70
   192
  0
VERTEX
  5
3800
  8
0
 10
-450.0
 20
230.0
 30
0.0
 70
   192
  0
VERTEX
  5
3801
  8
0
 10
450.0
 20
230.0000000000001
 30
0.0
 70
   192
  0
VERTEX
  5
3802
  8
0
 10
465.0
 20
225.9807621135332
 30
0.0
 70
   192
  0
VERTEX
  5
3803
  8
0
 10
475.9807621135332
 20
215.0
 30
0.0
 70
   192
  0
VERTEX
  5
3804
  8
0
 10
0.0
 20
0.0
 30
0.0
 70
   128
 71
    -2
 72
    17
 73
   -18
  0
VERTEX
  5
3805
  8
0
 10
0.0
 20
0.0
 30
0.0
 70
   128
 71
     1
 72
    -2
 73
   -18
  0
VERTEX
  5
3806
  8
0
 10
0.0
 20
0.0
 30
0.0
 70
   128
 71
    16
 72
    -1
 73
   -18
  0
VERTEX
  5
3807
  8
0
 10
0.0
 20
0.0
 30
0.0
 70
   128
 71
    15
 72
   -16
 73
   -18
  0
VERTEX
  5
3808
  8
0
 10
0.0
 20
0.0
 30
0.0
 70
   128
 71
    18
 72
   -19
 73
   -15
  0
VERTEX
  5
3809
  8
0
 10
0.0
 20
0.0
 30
0.0
 70
   128
 71
   -20
 72
    14
 73
   -15
  0
VERTEX
  5
380A
  8
0
 10
0.0
 20
0.0
 30
0.0
 70
   128
 71
    19
 72
   -20
 73
   -15
  0
VERTEX
  5
380B
  8
0
 10
0.0
 20
0.0
 30
0.0
 70
   128
 71
    20
 72
   -21
 73
   -14
  0
VERTEX
  5
380C
  8
0
 10
0.0
 20
0.0
 30
0.0
 70
   128
 71
    12
 72
    13
 73
   -14
  0
VERTEX
  5
380D
  8
0
 10
0.0
 20
0.0
 30
0.0
 70
   128
 71
    11
 72
   -12
 73
   -14
  0
VERTEX
  5
380E
  8
0
 10
0.0
 20
0.0
 30
0.0
 70
   128
 71
   -22
 72
   -11
 73
   -14
  0
VERTEX
  5
380F
  8
0
 10
0.0
 20
0.0
 30
0.0
 70
   128
 71
    21
 72
   -22
 73
   -14
  0
VERTEX
  5
3810
  8
0
 10
0.0
 20
0.0
 30
0.0
 70
   128
 71
    22
 72
   -23
 73
   -11
  0
VERTEX
  5
3811
  8
0
 10
0.0
 20
0.0
 30
0.0
 70
   128
 71
   -24
 72
    10
 73
   -11
  0
VERTEX
  5
3812
  8
0
 10
0.0
 20
0.0
 30
0.0
 70
   128
 71
    23
 72
   -24
 73
   -11
  0
VERTEX
  5
3813
  8
0
 10
0.0
 20
0.0
 30
0.0
 70
   128
 71
    24
 72
   -25
 73
   -10
  0
VERTEX
  5
3814
  8
0
 10
0.0
 20
0.0
 30
0.0
 70
   128
 71
     8
 72
     9
 73
   -10
  0
VERTEX
  5
3815
  8
0
 10
0.0
 20
0.0
 30
0.0
 70
   128
 71
     7
 72
    -8
 73
   -10
  0
VERTEX
  5
3816
  8
0
 10
0.0
 20
0.0
 30
0.0
 70
   128
 71
   -26
 72
    -7
 73
   -10
  0
VERTEX
  5
3817
  8
0
 10
0.0
 20
0.0
 30
0.0
 70
   128
 71
    25
 72
   -26
 73
   -10
  0
VERTEX
  5
3818
  8
0
 10
0.0
 20
0.0
 30
0.0
 70
   128
 71
    26
 72
   -27
 73
    -7
  0
VERTEX
  5
3819
  8
0
 10
0.0
 20
0.0
 30
0.0
 70
   128
 71
   -28
 72
     6
 73
    -7
  0
VERTEX
  5
381A
  8
0
 10
0.0
 20
0.0
 30
0.0
 70
   128
 71
    27
 72
   -28
 73
    -7
  0
VERTEX
  5
381B
  8
0
 10
0.0
 20
0.0
 30
0.0
 70
   128
 71
    28
 72
   -29
 73
    -6
  0
VERTEX
  5
381C
  8
0
 10
0.0
 20
0.0
 30
0.0
 70
   128
 71
     4
 72
     5
 73
    -6
  0
VERTEX
  5
381D
  8
0
 10
0.0
 20
0.0
 30
0.0
 70
   128
 71
     3
 72
    -4
 73
    -6
  0
VERTEX
  5
381E
  8
0
 10
0.0
 20
0.0
 30
0.0
 70
   128
 71
   -30
 72
    -3
 73
    -6
  0
VERTEX
  5
381F
  8
0
 10
0.0
 20
0.0
 30
0.0
 70
   128
 71
    29
 72
   -30
 73
    -6
  0
VERTEX
  5
3820
  8
0
 10
0.0
 20
0.0
 30
0.0
 70
   128
 71
    30
 72
   -31
 73
    -3
  0
VERTEX
  5
3821
  8
0
 10
0.0
 20
0.0
 30
0.0
 70
   128
 71
   -32
 72
     2
 73
    -3
  0
VERTEX
  5
3822
  8
0
 10
0.0
 20
0.0
 30
0.0
 70
   128
 71
    31
 72
   -32
 73
    -3
  0
VERTEX
  5
3823
  8
0
 10
0.0
 20
0.0
 30
0.0
 70
   128
 71
    32
 72
   -17
 73
    -2
  0
SEQEND
  5
3D48
  8
0
  0
POLYLINE
  5
3824
  8
0
 66
     1
 10
0.0
 20
0.0
 30
0.0
 70
    64
 71
     4
 72
     2
  0
VERTEX
  5
3825
  8
0
 10
480.0000000000001
 20
-199.9999999999999
 30
0.0
 70
   192
  0
VERTEX
  5
3826
  8
0
 10
480.0000000000001
 20
-199.9999999999999
 30
-0.5
 70
   192
  0
VERTEX
  5
3827
  8
0
 10
480.0
 20
200.0000000000001
 30
-0.5
 70
   192
  0
VERTEX
  5
3828
  8
0
 10
480.0000000000001
 20
200.0000000000001
 30
0.0
 70
   192
  0
VERTEX
  5
3829
  8
0
 10
0.0
 20
0.0
 30
0.0
 70
   128
 71
     1
 72
     4
 73
    -3
  0
VERTEX
  5
382A
  8
0
 10
0.0
 20
0.0
 30
0.0
 70
   128
 71
    -1
 72
     3
 73
     2
  0
SEQEND
  5
3D49
  8
0
  0
POLYLINE
  5
382B
  8
0
 66
     1
 10
0.0
 20
0.0
 30
0.0
 70
    64
 71
     8
 72
     6
  0
VERTEX
  5
382C
  8
0
 10
475.9807621135332
 20
-215.0
 30
-0.5
 70
   192
  0
VERTEX
  5
382D
  8
0
 10
465.0
 20
-225.9807621135331
 30
-0.5
 70
   192
  0
VERTEX
  5
382E
  8
0
 10
465.0
 20
-225.9807621135331
 30
0.0
 70
   192
  0
VERTEX
  5
382F
  8
0
 10
475.9807621135332
 20
-215.0
 30
0.0
 70
   192
  0
VERTEX
  5
3830
  8
0
 10
450.0
 20
-230.0
 30
-0.5
 70
   192
  0
VERTEX
  5
3831
  8
0
 10
450.0
 20
-230.0
 30
0.0
 70
   192
  0
VERTEX
  5
3832
  8
0
 10
480.0000000000001
 20
-199.9999999999999
 30
-0.5
 70
   192
  0
VERTEX
  5
3833
  8
0
 10
480.0
 20
-199.9999999999999
 30
0.0
 70
   192
  0
VERTEX
  5
3834
  8
0
 10
0.0
 20
0.0
 30
0.0
 70
   128
 71
     1
 72
     2
 73
    -3
  0
VERTEX
  5
3835
  8
0
 10
0.0
 20
0.0
 30
0.0
 70
   128
 71
     4
 72
    -1
 73
     3
  0
VERTEX
  5
3836
  8
0
 10
0.0
 20
0.0
 30
0.0
 70
   128
 71
     2
 72
     5
 73
    -6
  0
VERTEX
  5
3837
  8
0
 10
0.0
 20
0.0
 30
0.0
 70
   128
 71
     3
 72
    -2
 73
     6
  0
VERTEX
  5
3838
  8
0
 10
0.0
 20
0.0
 30
0.0
 70
   128
 71
     7
 72
     1
 73
    -4
  0
VERTEX
  5
3839
  8
0
 10
0.0
 20
0.0
 30
0.0
 70
   128
 71
     8
 72
    -7
 73
     4
  0
SEQEND
  5
3D4A
  8
0
  0
POLYLINE
  5
383A
  8
0
 66
     1
 10
0.0
 20
0.0
 30
0.0
 70
    64
 71
     4
 72
     2
  0
VERTEX
  5
383B
  8
0
 10
-450.0000000000001
 20
-230.0000000000001
 30
0.0
 70
   192
  0
VERTEX
  5
383C
  8
0
 10
450.0
 20
-229.9999999999999
 30
0.0
 70
   192
  0
VERTEX
  5
383D
  8
0
 10
450.0
 20
-229.9999999999999
 30
-0.5
 70
   192
  0
VERTEX
  5
383E
  8
0
 10
-450.0000000000001
 20
-230.0000000000001
 30
-0.5
 70
   192
  0
VERTEX
  5
383F
  8
0
 10
0.0
 20
0.0
 30
0.0
 70
   128
 71
     3
 72
     4
 73
    -1
  0
VERTEX
  5
3840
  8
0
 10
0.0
 20
0.0
 30
0.0
 70
   128
 71
     2
 72
    -3
 73
     1
  0
SEQEND
  5
3D4B
  8
0
  0
POLYLINE
  5
3841
  8
0
 66
     1
 10
0.0
 20
0.0
 30
0.0
 70
    64
 71
     8
 72
     6
  0
VERTEX
  5
3842
  8
0
 10
-465.0
 20
-225.9807621135332
 30
-0.5
 70
   192
  0
VERTEX
  5
3843
  8
0
 10
-475.9807621135332
 20
-215.0
 30
-0.5
 70
   192
  0
VERTEX
  5
3844
  8
0
 10
-475.9807621135332
 20
-215.0
 30
0.0
 70
   192
  0
VERTEX
  5
3845
  8
0
 10
-465.0
 20
-225.9807621135332
 30
0.0
 70
   192
  0
VERTEX
  5
3846
  8
0
 10
-480.0
 20
-200.0000000000001
 30
-0.5
 70
   192
  0
VERTEX
  5
3847
  8
0
 10
-480.0
 20
-200.0000000000001
 30
0.0
 70
   192
  0
VERTEX
  5
3848
  8
0
 10
-450.0000000000001
 20
-230.0000000000001
 30
-0.5
 70
   192
  0
VERTEX
  5
3849
  8
0
 10
-450.0000000000001
 20
-230.0
 30
0.0
 70
   192
  0
VERTEX
  5
384A
  8
0
 10
0.0
 20
0.0
 30
0.0
 70
   128
 71
     1
 72
     2
 73
    -3
  0
VERTEX
  5
384B
  8
0
 10
0.0
 20
0.0
 30
0.0
 70
   128
 71
     4
 72
    -1
 73
     3
  0
VERTEX
  5
384C
  8
0
 10
0.0
 20
0.0
 30
0.0
 70
   128
 71
     2
 72
     5
 73
    -6
  0
VERTEX
  5
384D
  8
0
 10
0.0
 20
0.0
 30
0.0
 70
   128
 71
     3
 72
    -2
 73
     6
  0
VERTEX
  5
384E
  8
0
 10
0.0
 20
0.0
 30
0.0
 70
   128
 71
     7
 72
     1
 73
    -4
  0
VERTEX
  5
384F
  8
0
 10
0.0
 20
0.0
 30
0.0
 70
   128
 71
     8
 72
    -7
 73
     4
  0
SEQEND
  5
3D4C
  8
0
  0
POLYLINE
  5
3850
  8
0
 66
     1
 10
0.0
 20
0.0
 30
0.0
 70
    64
 71
     4
 72
     2
  0
VERTEX
  5
3851
  8
0
 10
-480.0000000000001
 20
199.9999999999999
 30
0.0
 70
   192
  0
VERTEX
  5
3852
  8
0
 10
-480.0000000000001
 20
-200.0000000000001
 30
0.0
 70
   192
  0
VERTEX
  5
3853
  8
0
 10
-480.0
 20
-200.0000000000001
 30
-0.5
 70
   192
  0
VERTEX
  5
3854
  8
0
 10
-480.0000000000001
 20
199.9999999999999
 30
-0.5
 70
   192
  0
VERTEX
  5
3855
  8
0
 10
0.0
 20
0.0
 30
0.0
 70
   128
 71
     3
 72
     4
 73
    -1
  0
VERTEX
  5
3856
  8
0
 10
0.0
 20
0.0
 30
0.0
 70
   128
 71
     2
 72
    -3
 73
     1
  0
SEQEND
  5
3D4D
  8
0
  0
POLYLINE
  5
3857
  8
0
 66
     1
 10
0.0
 20
0.0
 30
0.0
 70
    64
 71
     8
 72
     6
  0
VERTEX
  5
3858
  8
0
 10
-475.9807621135332
 20
215.0
 30
-0.5
 70
   192
  0
VERTEX
  5
3859
  8
0
 10
-465.0
 20
225.9807621135331
 30
-0.5
 70
   192
  0
VERTEX
  5
385A
  8
0
 10
-465.0
 20
225.9807621135331
 30
0.0
 70
   192
  0
VERTEX
  5
385B
  8
0
 10
-475.9807621135332
 20
215.0
 30
0.0
 70
   192
  0
VERTEX
  5
385C
  8
0
 10
-450.0
 20
230.0
 30
-0.5
 70
   192
  0
VERTEX
  5
385D
  8
0
 10
-450.0
 20
230.0
 30
0.0
 70
   192
  0
VERTEX
  5
385E
  8
0
 10
-480.0000000000001
 20
199.9999999999999
 30
-0.5
 70
   192
  0
VERTEX
  5
385F
  8
0
 10
-480.0
 20
199.9999999999999
 30
0.0
 70
   192
  0
VERTEX
  5
3860
  8
0
 10
0.0
 20
0.0
 30
0.0
 70
   128
 71
     1
 72
     2
 73
    -3
  0
VERTEX
  5
3861
  8
0
 10
0.0
 20
0.0
 30
0.0
 70
   128
 71
     4
 72
    -1
 73
     3
  0
VERTEX
  5
3862
  8
0
 10
0.0
 20
0.0
 30
0.0
 70
   128
 71
     2
 72
     5
 73
    -6
  0
VERTEX
  5
3863
  8
0
 10
0.0
 20
0.0
 30
0.0
 70
   128
 71
     3
 72
    -2
 73
     6
  0
VERTEX
  5
3864
  8
0
 10
0.0
 20
0.0
 30
0.0
 70
   128
 71
     7
 72
     1
 73
    -4
  0
VERTEX
  5
3865
  8
0
 10
0.0
 20
0.0
 30
0.0
 70
   128
 71
     8
 72
    -7
 73
     4
  0
SEQEND
  5
3D4E
  8
0
  0
POLYLINE
  5
3866
  8
0
 66
     1
 10
0.0
 20
0.0
 30
0.0
 70
    64
 71
     4
 72
     2
  0
VERTEX
  5
3867
  8
0
 10
450.0
 20
230.0000000000001
 30
0.0
 70
   192
  0
VERTEX
  5
3868
  8
0
 10
450.0
 20
230.0000000000001
 30
-0.5
 70
   192
  0
VERTEX
  5
3869
  8
0
 10
-450.0
 20
229.9999999999999
 30
-0.5
 70
   192
  0
VERTEX
  5
386A
  8
0
 10
-450.0
 20
229.9999999999999
 30
0.0
 70
   192
  0
VERTEX
  5
386B
  8
0
 10
0.0
 20
0.0
 30
0.0
 70
   128
 71
     1
 72
     4
 73
    -3
  0
VERTEX
  5
386C
  8
0
 10
0.0
 20
0.0
 30
0.0
 70
   128
 71
    -1
 72
     3
 73
     2
  0
SEQEND
  5
3D4F
  8
0
  0
POLYLINE
  5
386D
  8
0
 66
     1
 10
0.0
 20
0.0
 30
0.0
 70
    64
 71
     8
 72
     6
  0
VERTEX
  5
386E
  8
0
 10
458.6602540378444
 20
205.0
 30
0.0
 70
   192
  0
VERTEX
  5
386F
  8
0
 10
458.6602540378444
 20
205.0
 30
-0.5
 70
   192
  0
VERTEX
  5
3870
  8
0
 10
455.0
 20
208.6602540378444
 30
-0.5
 70
   192
  0
VERTEX
  5
3871
  8
0
 10
455.0
 20
208.6602540378444
 30
0.0
 70
   192
  0
VERTEX
  5
3872
  8
0
 10
459.9999999999999
 20
200.0000000000001
 30
0.0
 70
   192
  0
VERTEX
  5
3873
  8
0
 10
459.9999999999999
 20
200.0000000000001
 30
-0.5
 70
   192
  0
VERTEX
  5
3874
  8
0
 10
450.0
 20
210.0
 30
-0.5
 70
   192
  0
VERTEX
  5
3875
  8
0
 10
450.0
 20
210.0000000000001
 30
0.0
 70
   192
  0
VERTEX
  5
3876
  8
0
 10
0.0
 20
0.0
 30
0.0
 70
   128
 71
     1
 72
     2
 73
    -3
  0
VERTEX
  5
3877
  8
0
 10
0.0
 20
0.0
 30
0.0
 70
   128
 71
    -1
 72
     3
 73
     4
  0
VERTEX
  5
3878
  8
0
 10
0.0
 20
0.0
 30
0.0
 70
   128
 71
     5
 72
     6
 73
    -2
  0
VERTEX
  5
3879
  8
0
 10
0.0
 20
0.0
 30
0.0
 70
   128
 71
    -5
 72
     2
 73
     1
  0
VERTEX
  5
387A
  8
0
 10
0.0
 20
0.0
 30
0.0
 70
   128
 71
     4
 72
     3
 73
    -7
  0
VERTEX
  5
387B
  8
0
 10
0.0
 20
0.0
 30
0.0
 70
   128
 71
    -4
 72
     7
 73
     8
  0
SEQEND
  5
3D50
  8
0
  0
POLYLINE
  5
387C
  8
0
 66
     1
 10
0.0
 20
0.0
 30
0.0
 70
    64
 71
     4
 72
     2
  0
VERTEX
  5
387D
  8
0
 10
-450.0
 20
210.0
 30
0.0
 70
   192
  0
VERTEX
  5
387E
  8
0
 10
450.0
 20
210.0000000000001
 30
0.0
 70
   192
  0
VERTEX
  5
387F
  8
0
 10
450.0
 20
210.0000000000001
 30
-0.5
 70
   192
  0
VERTEX
  5
3880
  8
0
 10
-450.0
 20
210.0
 30
-0.5
 70
   192
  0
VERTEX
  5
3881
  8
0
 10
0.0
 20
0.0
 30
0.0
 70
   128
 71
     3
 72
     4
 73
    -1
  0
VERTEX
  5
3882
  8
0
 10
0.0
 20
0.0
 30
0.0
 70
   128
 71
     2
 72
    -3
 73
     1
  0
SEQEND
  5
3D51
  8
0
  0
POLYLINE
  5
3883
  8
0
 66
     1
 10
0.0
 20
0.0
 30
0.0
 70
    64
 71
     8
 72
     6
  0
VERTEX
  5
3884
  8
0
 10
-455.0
 20
208.6602540378443
 30
0.0
 70
   192
  0
VERTEX
  5
3885
  8
0
 10
-455.0
 20
208.6602540378443
 30
-0.5
 70
   192
  0
VERTEX
  5
3886
  8
0
 10
-458.6602540378444
 20
204.9999999999999
 30
-0.5
 70
   192
  0
VERTEX
  5
3887
  8
0
 10
-458.6602540378444
 20
204.9999999999999
 30
0.0
 70
   192
  0
VERTEX
  5
3888
  8
0
 10
-450.0
 20
209.9999999999999
 30
0.0
 70
   192
  0
VERTEX
  5
3889
  8
0
 10
-450.0
 20
210.0
 30
-0.5
 70
   192
  0
VERTEX
  5
388A
  8
0
 10
-460.0
 20
199.9999999999999
 30
-0.5
 70
   192
  0
VERTEX
  5
388B
  8
0
 10
-460.0000000000001
 20
199.9999999999999
 30
0.0
 70
   192
  0
VERTEX
  5
388C
  8
0
 10
0.0
 20
0.0
 30
0.0
 70
   128
 71
     1
 72
     2
 73
    -3
  0
VERTEX
  5
388D
  8
0
 10
0.0
 20
0.0
 30
0.0
 70
   128
 71
    -1
 72
     3
 73
     4
  0
VERTEX
  5
388E
  8
0
 10
0.0
 20
0.0
 30
0.0
 70
   128
 71
     5
 72
     6
 73
    -2
  0
VERTEX
  5
388F
  8
0
 10
0.0
 20
0.0
 30
0.0
 70
   128
 71
    -5
 72
     2
 73
     1
  0
VERTEX
  5
3890
  8
0
 10
0.0
 20
0.0
 30
0.0
 70
   128
 71
     4
 72
     3
 73
    -7
  0
VERTEX
  5
3891
  8
0
 10
0.0
 20
0.0
 30
0.0
 70
   128
 71
    -4
 72
     7
 73
     8
  0
SEQEND
  5
3D52
  8
0
  0
POLYLINE
  5
3892
  8
0
 66
     1
 10
0.0
 20
0.0
 30
0.0
 70
    64
 71
     4
 72
     2
  0
VERTEX
  5
3893
  8
0
 10
-459.9999999999999
 20
-200.0000000000001
 30
0.0
 70
   192
  0
VERTEX
  5
3894
  8
0
 10
-460.0
 20
-200.0000000000001
 30
-0.5
 70
   192
  0
VERTEX
  5
3895
  8
0
 10
-460.0000000000001
 20
199.9999999999999
 30
-0.5
 70
   192
  0
VERTEX
  5
3896
  8
0
 10
-460.0
 20
199.9999999999999
 30
0.0
 70
   192
  0
VERTEX
  5
3897
  8
0
 10
0.0
 20
0.0
 30
0.0
 70
   128
 71
     1
 72
     4
 73
    -3
  0
VERTEX
  5
3898
  8
0
 10
0.0
 20
0.0
 30
0.0
 70
   128
 71
    -1
 72
     3
 73
     2
  0
SEQEND
  5
3D53
  8
0
  0
POLYLINE
  5
3899
  8
0
 66
     1
 10
0.0
 20
0.0
 30
0.0
 70
    64
 71
     8
 72
     6
  0
VERTEX
  5
389A
  8
0
 10
-458.6602540378444
 20
-205.0
 30
0.0
 70
   192
  0
VERTEX
  5
389B
  8
0
 10
-458.6602540378444
 20
-205.0
 30
-0.5
 70
   192
  0
VERTEX
  5
389C
  8
0
 10
-455.0
 20
-208.6602540378444
 30
-0.5
 70
   192
  0
VERTEX
  5
389D
  8
0
 10
-455.0
 20
-208.6602540378444
 30
0.0
 70
   192
  0
VERTEX
  5
389E
  8
0
 10
-459.9999999999999
 20
-200.0000000000001
 30
0.0
 70
   192
  0
VERTEX
  5
389F
  8
0
 10
-459.9999999999999
 20
-200.0000000000001
 30
-0.5
 70
   192
  0
VERTEX
  5
38A0
  8
0
 10
-450.0
 20
-210.0
 30
-0.5
 70
   192
  0
VERTEX
  5
38A1
  8
0
 10
-450.0
 20
-210.0000000000001
 30
0.0
 70
   192
  0
VERTEX
  5
38A2
  8
0
 10
0.0
 20
0.0
 30
0.0
 70
   128
 71
     1
 72
     2
 73
    -3
  0
VERTEX
  5
38A3
  8
0
 10
0.0
 20
0.0
 30
0.0
 70
   128
 71
    -1
 72
     3
 73
     4
  0
VERTEX
  5
38A4
  8
0
 10
0.0
 20
0.0
 30
0.0
 70
   128
 71
     5
 72
     6
 73
    -2
  0
VERTEX
  5
38A5
  8
0
 10
0.0
 20
0.0
 30
0.0
 70
   128
 71
    -5
 72
     2
 73
     1
  0
VERTEX
  5
38A6
  8
0
 10
0.0
 20
0.0
 30
0.0
 70
   128
 71
     4
 72
     3
 73
    -7
  0
VERTEX
  5
38A7
  8
0
 10
0.0
 20
0.0
 30
0.0
 70
   128
 71
    -4
 72
     7
 73
     8
  0
SEQEND
  5
3D54
  8
0
  0
POLYLINE
  5
38A8
  8
0
 66
     1
 10
0.0
 20
0.0
 30
0.0
 70
    64
 71
     4
 72
     2
  0
VERTEX
  5
38A9
  8
0
 10
450.0
 20
-210.0
 30
0.0
 70
   192
  0
VERTEX
  5
38AA
  8
0
 10
450.0
 20
-210.0
 30
-0.5
 70
   192
  0
VERTEX
  5
38AB
  8
0
 10
-450.0
 20
-210.0000000000001
 30
-0.5
 70
   192
  0
VERTEX
  5
38AC
  8
0
 10
-450.0
 20
-210.0000000000001
 30
0.0
 70
   192
  0
VERTEX
  5
38AD
  8
0
 10
0.0
 20
0.0
 30
0.0
 70
   128
 71
     1
 72
     4
 73
    -3
  0
VERTEX
  5
38AE
  8
0
 10
0.0
 20
0.0
 30
0.0
 70
   128
 71
    -1
 72
     3
 73
     2
  0
SEQEND
  5
3D55
  8
0
  0
POLYLINE
  5
38AF
  8
0
 66
     1
 10
0.0
 20
0.0
 30
0.0
 70
    64
 71
     8
 72
     6
  0
VERTEX
  5
38B0
  8
0
 10
455.0
 20
-208.6602540378443
 30
0.0
 70
   192
  0
VERTEX
  5
38B1
  8
0
 10
455.0
 20
-208.6602540378443
 30
-0.5
 70
   192
  0
VERTEX
  5
38B2
  8
0
 10
458.6602540378444
 20
-204.9999999999999
 30
-0.5
 70
   192
  0
VERTEX
  5
38B3
  8
0
 10
458.6602540378444
 20
-204.9999999999999
 30
0.0
 70
   192
  0
VERTEX
  5
38B4
  8
0
 10
450.0
 20
-209.9999999999999
 30
0.0
 70
   192
  0
VERTEX
  5
38B5
  8
0
 10
450.0
 20
-210.0
 30
-0.5
 70
   192
  0
VERTEX
  5
38B6
  8
0
 10
460.0
 20
-199.9999999999999
 30
-0.5
 70
   192
  0
VERTEX
  5
38B7
  8
0
 10
460.0000000000001
 20
-199.9999999999999
 30
0.0
 70
   192
  0
VERTEX
  5
38B8
  8
0
 10
0.0
 20
0.0
 30
0.0
 70
   128
 71
     1
 72
     2
 73
    -3
  0
VERTEX
  5
38B9
  8
0
 10
0.0
 20
0.0
 30
0.0
 70
   128
 71
    -1
 72
     3
 73
     4
  0
VERTEX
  5
38BA
  8
0
 10
0.0
 20
0.0
 30
0.0
 70
   128
 71
     5
 72
     6
 73
    -2
  0
VERTEX
  5
38BB
  8
0
 10
0.0
 20
0.0
 30
0.0
 70
   128
 71
    -5
 72
     2
 73
     1
  0
VERTEX
  5
38BC
  8
0
 10
0.0
 20
0.0
 30
0.0
 70
   128
 71
     4
 72
     3
 73
    -7
  0
VERTEX
  5
38BD
  8
0
 10
0.0
 20
0.0
 30
0.0
 70
   128
 71
    -4
 72
     7
 73
     8
  0
SEQEND
  5
3D56
  8
0
  0
POLYLINE
  5
38BE
  8
0
 66
     1
 10
0.0
 20
0.0
 30
0.0
 70
    64
 71
     4
 72
     2
  0
VERTEX
  5
38BF
  8
0
 10
460.0
 20
200.0000000000001
 30
0.0
 70
   192
  0
VERTEX
  5
38C0
  8
0
 10
460.0
 20
-199.9999999999999
 30
0.0
 70
   192
  0
VERTEX
  5
38C1
  8
0
 10
460.0000000000001
 20
-199.9999999999999
 30
-0.5
 70
   192
  0
VERTEX
  5
38C2
  8
0
 10
460.0
 20
200.0000000000001
 30
-0.5
 70
   192
  0
VERTEX
  5
38C3
  8
0
 10
0.0
 20
0.0
 30
0.0
 70
   128
 71
     3
 72
     4
 73
    -1
  0
VERTEX
  5
38C4
  8
0
 10
0.0
 20
0.0
 30
0.0
 70
   128
 71
     2
 72
    -3
 73
     1
  0
SEQEND
  5
3D57
  8
0
  0
POLYLINE
  5
38C5
  8
0
 66
     1
 10
0.0
 20
0.0
 30
0.0
 70
    64
 71
     8
 72
     6
  0
VERTEX
  5
38C6
  8
0
 10
465.0
 20
225.9807621135332
 30
-0.5
 70
   192
  0
VERTEX
  5
38C7
  8
0
 10
475.9807621135332
 20
215.0
 30
-0.5
 70
   192
  0
VERTEX
  5
38C8
  8
0
 10
475.9807621135332
 20
215.0
 30
0.0
 70
   192
  0
VERTEX
  5
38C9
  8
0
 10
465.0
 20
225.9807621135332
 30
0.0
 70
   192
  0
VERTEX
  5
38CA
  8
0
 10
480.0
 20
200.0000000000001
 30
-0.5
 70
   192
  0
VERTEX
  5
38CB
  8
0
 10
480.0
 20
200.0000000000001
 30
0.0
 70
   192
  0
VERTEX
  5
38CC
  8
0
 10
450.0
 20
230.0000000000001
 30
-0.5
 70
   192
  0
VERTEX
  5
38CD
  8
0
 10
450.0
 20
230.0
 30
0.0
 70
   192
  0
VERTEX
  5
38CE
  8
0
 10
0.0
 20
0.0
 30
0.0
 70
   128
 71
     1
 72
     2
 73
    -3
  0
VERTEX
  5
38CF
  8
0
 10
0.0
 20
0.0
 30
0.0
 70
   128
 71
     4
 72
    -1
 73
     3
  0
VERTEX
  5
38D0
  8
0
 10
0.0
 20
0.0
 30
0.0
 70
   128
 71
     2
 72
     5
 73
    -6
  0
VERTEX
  5
38D1
  8
0
 10
0.0
 20
0.0
 30
0.0
 70
   128
 71
     3
 72
    -2
 73
     6
  0
VERTEX
  5
38D2
  8
0
 10
0.0
 20
0.0
 30
0.0
 70
   128
 71
     7
 72
     1
 73
    -4
  0
VERTEX
  5
38D3
  8
0
 10
0.0
 20
0.0
 30
0.0
 70
   128
 71
     8
 72
    -7
 73
     4
  0
SEQEND
  5
3D58
  8
0
  0
POLYLINE
  5
38D4
  8
0
 66
     1
 10
0.0
 20
0.0
 30
0.0
 70
    64
 71
    32
 72
    32
  0
VERTEX
  5
38D5
  8
0
 10
480.0000000000001
 20
-199.9999999999999
 30
-0.5
 70
   192
  0
VERTEX
  5
38D6
  8
0
 10
480.0000000000001
 20
200.0000000000001
 30
-0.5
 70
   192
  0
VERTEX
  5
38D7
  8
0
 10
475.9807621135332
 20
215.0
 30
-0.5
 70
   192
  0
VERTEX
  5
38D8
  8
0
 10
465.0
 20
225.9807621135332
 30
-0.5
 70
   192
  0
VERTEX
  5
38D9
  8
0
 10
450.0
 20
230.0
 30
-0.5
 70
   192
  0
VERTEX
  5
38DA
  8
0
 10
-450.0
 20
229.9999999999999
 30
-0.5
 70
   192
  0
VERTEX
  5
38DB
  8
0
 10
-465.0
 20
225.9807621135331
 30
-0.5
 70
   192
  0
VERTEX
  5
38DC
  8
0
 10
-475.9807621135332
 20
215.0
 30
-0.5
 70
   192
  0
VERTEX
  5
38DD
  8
0
 10
-480.0
 20
199.9999999999999
 30
-0.5
 70
   192
  0
VERTEX
  5
38DE
  8
0
 10
-480.0000000000001
 20
-200.0000000000001
 30
-0.5
 70
   192
  0
VERTEX
  5
38DF
  8
0
 10
-475.9807621135332
 20
-215.0
 30
-0.5
 70
   192
  0
VERTEX
  5
38E0
  8
0
 10
-465.0
 20
-225.9807621135332
 30
-0.5
 70
   192
  0
VERTEX
  5
38E1
  8
0
 10
-450.0000000000001
 20
-230.0
 30
-0.5
 70
   192
  0
VERTEX
  5
38E2
  8
0
 10
450.0
 20
-229.9999999999999
 30
-0.5
 70
   192
  0
VERTEX
  5
38E3
  8
0
 10
465.0
 20
-225.9807621135331
 30
-0.5
 70
   192
  0
VERTEX
  5
38E4
  8
0
 10
475.9807621135332
 20
-215.0
 30
-0.5
 70
   192
  0
VERTEX
  5
38E5
  8
0
 10
450.0
 20
210.0
 30
-0.5
 70
   192
  0
VERTEX
  5
38E6
  8
0
 10
455.0
 20
208.6602540378444
 30
-0.5
 70
   192
  0
VERTEX
  5
38E7
  8
0
 10
458.6602540378444
 20
205.0
 30
-0.5
 70
   192
  0
VERTEX
  5
38E8
  8
0
 10
459.9999999999999
 20
200.0000000000001
 30
-0.5
 70
   192
  0
VERTEX
  5
38E9
  8
0
 10
460.0
 20
-199.9999999999999
 30
-0.5
 70
   192
  0
VERTEX
  5
38EA
  8
0
 10
458.6602540378444
 20
-204.9999999999999
 30
-0.5
 70
   192
  0
VERTEX
  5
38EB
  8
0
 10
455.0
 20
-208.6602540378443
 30
-0.5
 70
   192
  0
VERTEX
  5
38EC
  8
0
 10
450.0
 20
-209.9999999999999
 30
-0.5
 70
   192
  0
VERTEX
  5
38ED
  8
0
 10
-450.0
 20
-210.0000000000001
 30
-0.5
 70
   192
  0
VERTEX
  5
38EE
  8
0
 10
-455.0
 20
-208.6602540378444
 30
-0.5
 70
   192
  0
VERTEX
  5
38EF
  8
0
 10
-458.6602540378444
 20
-205.0
 30
-0.5
 70
   192
  0
VERTEX
  5
38F0
  8
0
 10
-459.9999999999999
 20
-200.0000000000001
 30
-0.5
 70
   192
  0
VERTEX
  5
38F1
  8
0
 10
-460.0
 20
199.9999999999999
 30
-0.5
 70
   192
  0
VERTEX
  5
38F2
  8
0
 10
-458.6602540378444
 20
204.9999999999999
 30
-0.5
 70
   192
  0
VERTEX
  5
38F3
  8
0
 10
-455.0
 20
208.6602540378443
 30
-0.5
 70
   192
  0
VERTEX
  5
38F4
  8
0
 10
-450.0
 20
209.9999999999999
 30
-0.5
 70
   192
  0
VERTEX
  5
38F5
  8
0
 10
0.0
 20
0.0
 30
0.0
 70
   128
 71
    -3
 72
    17
 73
   -18
  0
VERTEX
  5
38F6
  8
0
 10
0.0
 20
0.0
 30
0.0
 70
   128
 71
    18
 72
   -19
 73
    -3
  0
VERTEX
  5
38F7
  8
0
 10
0.0
 20
0.0
 30
0.0
 70
   128
 71
    19
 72
   -20
 73
    -3
  0
VERTEX
  5
38F8
  8
0
 10
0.0
 20
0.0
 30
0.0
 70
   128
 71
     1
 72
     2
 73
    -3
  0
VERTEX
  5
38F9
  8
0
 10
0.0
 20
0.0
 30
0.0
 70
   128
 71
    16
 72
    -1
 73
    -3
  0
VERTEX
  5
38FA
  8
0
 10
0.0
 20
0.0
 30
0.0
 70
   128
 71
   -21
 72
   -16
 73
    -3
  0
VERTEX
  5
38FB
  8
0
 10
0.0
 20
0.0
 30
0.0
 70
   128
 71
    20
 72
   -21
 73
    -3
  0
VERTEX
  5
38FC
  8
0
 10
0.0
 20
0.0
 30
0.0
 70
   128
 71
    21
 72
   -22
 73
   -16
  0
VERTEX
  5
38FD
  8
0
 10
0.0
 20
0.0
 30
0.0
 70
   128
 71
    22
 72
   -23
 73
   -16
  0
VERTEX
  5
38FE
  8
0
 10
0.0
 20
0.0
 30
0.0
 70
   128
 71
    23
 72
   -24
 73
   -16
  0
VERTEX
  5
38FF
  8
0
 10
0.0
 20
0.0
 30
0.0
 70
   128
 71
    14
 72
    15
 73
   -16
  0
VERTEX
  5
3900
  8
0
 10
0.0
 20
0.0
 30
0.0
 70
   128
 71
    13
 72
   -14
 73
   -16
  0
VERTEX
  5
3901
  8
0
 10
0.0
 20
0.0
 30
0.0
 70
   128
 71
    12
 72
   -13
 73
   -16
  0
VERTEX
  5
3902
  8
0
 10
0.0
 20
0.0
 30
0.0
 70
   128
 71
   -25
 72
   -12
 73
   -16
  0
VERTEX
  5
3903
  8
0
 10
0.0
 20
0.0
 30
0.0
 70
   128
 71
    24
 72
   -25
 73
   -16
  0
VERTEX
  5
3904
  8
0
 10
0.0
 20
0.0
 30
0.0
 70
   128
 71
    25
 72
   -26
 73
   -12
  0
VERTEX
  5
3905
  8
0
 10
0.0
 20
0.0
 30
0.0
 70
   128
 71
    26
 72
   -27
 73
   -12
  0
VERTEX
  5
3906
  8
0
 10
0.0
 20
0.0
 30
0.0
 70
   128
 71
    27
 72
   -28
 73
   -12
  0
VERTEX
  5
3907
  8
0
 10
0.0
 20
0.0
 30
0.0
 70
   128
 71
    10
 72
    11
 73
   -12
  0
VERTEX
  5
3908
  8
0
 10
0.0
 20
0.0
 30
0.0
 70
   128
 71
     9
 72
   -10
 73
   -12
  0
VERTEX
  5
3909
  8
0
 10
0.0
 20
0.0
 30
0.0
 70
   128
 71
     8
 72
    -9
 73
   -12
  0
VERTEX
  5
390A
  8
0
 10
0.0
 20
0.0
 30
0.0
 70
   128
 71
   -29
 72
    -8
 73
   -12
  0
VERTEX
  5
390B
  8
0
 10
0.0
 20
0.0
 30
0.0
 70
   128
 71
    28
 72
   -29
 73
   -12
  0
VERTEX
  5
390C
  8
0
 10
0.0
 20
0.0
 30
0.0
 70
   128
 71
    29
 72
   -30
 73
    -8
  0
VERTEX
  5
390D
  8
0
 10
0.0
 20
0.0
 30
0.0
 70
   128
 71
    30
 72
   -31
 73
    -8
  0
VERTEX
  5
390E
  8
0
 10
0.0
 20
0.0
 30
0.0
 70
   128
 71
    31
 72
   -32
 73
    -8
  0
VERTEX
  5
390F
  8
0
 10
0.0
 20
0.0
 30
0.0
 70
   128
 71
     6
 72
     7
 73
    -8
  0
VERTEX
  5
3910
  8
0
 10
0.0
 20
0.0
 30
0.0
 70
   128
 71
     5
 72
    -6
 73
    -8
  0
VERTEX
  5
3911
  8
0
 10
0.0
 20
0.0
 30
0.0
 70
   128
 71
     4
 72
    -5
 73
    -8
  0
VERTEX
  5
3912
  8
0
 10
0.0
 20
0.0
 30
0.0
 70
   128
 71
     3
 72
    -4
 73
    -8
  0
VERTEX
  5
3913
  8
0
 10
0.0
 20
0.0
 30
0.0
 70
   128
 71
   -17
 72
    -3
 73
    -8
  0
VERTEX
  5
3914
  8
0
 10
0.0
 20
0.0
 30
0.0
 70
   128
 71
    32
 72
   -17
 73
    -8
  0
SEQEND
  5
3D59
  8
0
  0
POLYLINE
  5
3915
  8
0
 66
     1
 10
0.0
 20
0.0
 30
0.0
 70
    64
 71
    16
 72
    14
  0
VERTEX
  5
3916
  8
0
 10
460.0
 20
-199.9999999999999
 30
0.0
 70
   192
  0
VERTEX
  5
3917
  8
0
 10
460.0
 20
200.0000000000001
 30
0.0
 70
   192
  0
VERTEX
  5
3918
  8
0
 10
458.6602540378444
 20
205.0
 30
0.0
 70
   192
  0
VERTEX
  5
3919
  8
0
 10
455.0
 20
208.6602540378444
 30
0.0
 70
   192
  0
VERTEX
  5
391A
  8
0
 10
450.0
 20
210.0
 30
0.0
 70
   192
  0
VERTEX
  5
391B
  8
0
 10
-450.0
 20
210.0
 30
0.0
 70
   192
  0
VERTEX
  5
391C
  8
0
 10
-455.0
 20
208.6602540378443
 30
0.0
 70
   192
  0
VERTEX
  5
391D
  8
0
 10
-458.6602540378444
 20
204.9999999999999
 30
0.0
 70
   192
  0
VERTEX
  5
391E
  8
0
 10
-460.0
 20
199.9999999999999
 30
0.0
 70
   192
  0
VERTEX
  5
391F
  8
0
 10
-460.0
 20
-200.0000000000001
 30
0.0
 70
   192
  0
VERTEX
  5
3920
  8
0
 10
-458.6602540378444
 20
-205.0
 30
0.0
 70
   192
  0
VERTEX
  5
3921
  8
0
 10
-455.0
 20
-208.6602540378444
 30
0.0
 70
   192
  0
VERTEX
  5
3922
  8
0
 10
-450.0
 20
-210.0
 30
0.0
 70
   192
  0
VERTEX
  5
3923
  8
0
 10
450.0
 20
-210.0
 30
0.0
 70
   192
  0
VERTEX
  5
3924
  8
0
 10
455.0
 20
-208.6602540378443
 30
0.0
 70
   192
  0
VERTEX
  5
3925
  8
0
 10
458.6602540378444
 20
-204.9999999999999
 30
0.0
 70
   192
  0
VERTEX
  5
3926
  8
0
 10
0.0
 20
0.0
 30
0.0
 70
   128
 71
    15
 72
    16
 73
    -1
  0
VERTEX
  5
3927
  8
0
 10
0.0
 20
0.0
 30
0.0
 70
   128
 71
    14
 72
   -15
 73
    -1
  0
VERTEX
  5
3928
  8
0
 10
0.0
 20
0.0
 30
0.0
 70
   128
 71
    13
 72
   -14
 73
    -1
  0
VERTEX
  5
3929
  8
0
 10
0.0
 20
0.0
 30
0.0
 70
   128
 71
    12
 72
   -13
 73
    -1
  0
VERTEX
  5
392A
  8
0
 10
0.0
 20
0.0
 30
0.0
 70
   128
 71
    11
 72
   -12
 73
    -1
  0
VERTEX
  5
392B
  8
0
 10
0.0
 20
0.0
 30
0.0
 70
   128
 71
    10
 72
   -11
 73
    -1
  0
VERTEX
  5
392C
  8
0
 10
0.0
 20
0.0
 30
0.0
 70
   128
 71
     9
 72
   -10
 73
    -1
  0
VERTEX
  5
392D
  8
0
 10
0.0
 20
0.0
 30
0.0
 70
   128
 71
     8
 72
    -9
 73
    -1
  0
VERTEX
  5
392E
  8
0
 10
0.0
 20
0.0
 30
0.0
 70
   128
 71
     7
 72
    -8
 73
    -1
  0
VERTEX
  5
392F
  8
0
 10
0.0
 20
0.0
 30
0.0
 70
   128
 71
     6
 72
    -7
 73
    -1
  0
VERTEX
  5
3930
  8
0
 10
0.0
 20
0.0
 30
0.0
 70
   128
 71
     5
 72
    -6
 73
    -1
  0
VERTEX
  5
3931
  8
0
 10
0.0
 20
0.0
 30
0.0
 70
   128
 71
     4
 72
    -5
 73
    -1
  0
VERTEX
  5
3932
  8
0
 10
0.0
 20
0.0
 30
0.0
 70
   128
 71
     3
 72
    -4
 73
    -1
  0
VERTEX
  5
3933
  8
0
 10
0.0
 20
0.0
 30
0.0
 70
   128
 71
     2
 72
    -3
 73
     1
  0
SEQEND
  5
3D5A
  8
0
  0
ENDBLK
  5
3D3E
  8
0
  0
BLOCK
  8
0
  2
*X2
 70
     1
 10
0.0
 20
0.0
 30
0.0
  3
*X2
  1

  0
POLYLINE
  5
3935
  8
0
 66
     1
 10
0.0
 20
0.0
 30
0.0
 70
    64
 71
     6
 72
     4
  0
VERTEX
  5
3936
  8
0
 10
-285.0000000000003
 20
120.0000000000002
 30
-12.0
 70
   192
  0
VERTEX
  5
3937
  8
0
 10
-319.0000000000005
 20
119.9999999999998
 30
-12.0
 70
   192
  0
VERTEX
  5
3938
  8
0
 10
-319.0000000000004
 20
119.9999999999998
 30
-5.0
 70
   192
  0
VERTEX
  5
3939
  8
0
 10
-322.0000000000005
 20
119.9999999999997
 30
-5.0
 70
   192
  0
VERTEX
  5
393A
  8
0
 10
-322.0000000000004
 20
119.9999999999997
 30
-15.0
 70
   192
  0
VERTEX
  5
393B
  8
0
 10
-285.0000000000003
 20
120.0000000000002
 30
-15.0
 70
   192
  0
VERTEX
  5
393C
  8
0
 10
0.0
 20
0.0
 30
0.0
 70
   128
 71
     6
 72
     1
 73
    -2
  0
VERTEX
  5
393D
  8
0
 10
0.0
 20
0.0
 30
0.0
 70
   128
 71
     5
 72
    -6
 73
    -2
  0
VERTEX
  5
393E
  8
0
 10
0.0
 20
0.0
 30
0.0
 70
   128
 71
     3
 72
     4
 73
    -5
  0
VERTEX
  5
393F
  8
0
 10
0.0
 20
0.0
 30
0.0
 70
   128
 71
     2
 72
    -3
 73
    -5
  0
SEQEND
  5
3D5D
  8
0
  0
POLYLINE
  5
3940
  8
0
 66
     1
 10
0.0
 20
0.0
 30
0.0
 70
    64
 71
     6
 72
     4
  0
VERTEX
  5
3941
  8
0
 10
-322.0000000000003
 20
84.99999999999972
 30
-2.0
 70
   192
  0
VERTEX
  5
3942
  8
0
 10
-322.0000000000005
 20
144.9999999999997
 30
-2.0
 70
   192
  0
VERTEX
  5
3943
  8
0
 10
-322.0000000000005
 20
144.9999999999997
 30
-15.0
 70
   192
  0
VERTEX
  5
3944
  8
0
 10
-322.0000000000004
 20
119.9999999999997
 30
-15.0
 70
   192
  0
VERTEX
  5
3945
  8
0
 10
-322.0000000000004
 20
119.9999999999997
 30
-5.0
 70
   192
  0
VERTEX
  5
3946
  8
0
 10
-322.0000000000003
 20
84.99999999999972
 30
-5.0
 70
   192
  0
VERTEX
  5
3947
  8
0
 10
0.0
 20
0.0
 30
0.0
 70
   128
 71
     3
 72
     4
 73
    -5
  0
VERTEX
  5
3948
  8
0
 10
0.0
 20
0.0
 30
0.0
 70
   128
 71
     2
 72
    -3
 73
    -5
  0
VERTEX
  5
3949
  8
0
 10
0.0
 20
0.0
 30
0.0
 70
   128
 71
     6
 72
     1
 73
    -2
  0
VERTEX
  5
394A
  8
0
 10
0.0
 20
0.0
 30
0.0
 70
   128
 71
     5
 72
    -6
 73
    -2
  0
SEQEND
  5
3D5E
  8
0
  0
POLYLINE
  5
394B
  8
0
 66
     1
 10
0.0
 20
0.0
 30
0.0
 70
    64
 71
     4
 72
     2
  0
VERTEX
  5
394C
  8
0
 10
-322.0000000000005
 20
144.9999999999997
 30
-2.0
 70
   192
  0
VERTEX
  5
394D
  8
0
 10
-322.0000000000005
 20
144.9999999999997
 30
-15.0
 70
   192
  0
VERTEX
  5
394E
  8
0
 10
-242.0000000000005
 20
145.0
 30
-15.0
 70
   192
  0
VERTEX
  5
394F
  8
0
 10
-242.0000000000005
 20
145.0
 30
-2.0
 70
   192
  0
VERTEX
  5
3950
  8
0
 10
0.0
 20
0.0
 30
0.0
 70
   128
 71
     1
 72
     4
 73
    -3
  0
VERTEX
  5
3951
  8
0
 10
0.0
 20
0.0
 30
0.0
 70
   128
 71
    -1
 72
     3
 73
     2
  0
SEQEND
  5
3D5F
  8
0
  0
POLYLINE
  5
3952
  8
0
 66
     1
 10
0.0
 20
0.0
 30
0.0
 70
    64
 71
     6
 72
     4
  0
VERTEX
  5
3953
  8
0
 10
-242.0000000000005
 20
145.0
 30
-2.0
 70
   192
  0
VERTEX
  5
3954
  8
0
 10
-242.0000000000005
 20
145.0
 30
-15.0
 70
   192
  0
VERTEX
  5
3955
  8
0
 10
-242.0000000000004
 20
120.0
 30
-15.0
 70
   192
  0
VERTEX
  5
3956
  8
0
 10
-242.0000000000004
 20
120.0
 30
-5.0
 70
   192
  0
VERTEX
  5
3957
  8
0
 10
-242.0000000000003
 20
84.99999999999999
 30
-5.0
 70
   192
  0
VERTEX
  5
3958
  8
0
 10
-242.0000000000003
 20
84.99999999999999
 30
-2.0
 70
   192
  0
VERTEX
  5
3959
  8
0
 10
0.0
 20
0.0
 30
0.0
 70
   128
 71
     4
 72
     3
 73
    -2
  0
VERTEX
  5
395A
  8
0
 10
0.0
 20
0.0
 30
0.0
 70
   128
 71
    -4
 72
     2
 73
    -1
  0
VERTEX
  5
395B
  8
0
 10
0.0
 20
0.0
 30
0.0
 70
   128
 71
     1
 72
     6
 73
    -5
  0
VERTEX
  5
395C
  8
0
 10
0.0
 20
0.0
 30
0.0
 70
   128
 71
    -1
 72
     5
 73
    -4
  0
SEQEND
  5
3D60
  8
0
  0
POLYLINE
  5
395D
  8
0
 66
     1
 10
0.0
 20
0.0
 30
0.0
 70
    64
 71
     4
 72
     2
  0
VERTEX
  5
395E
  8
0
 10
-242.0000000000003
 20
85.0
 30
-2.0
 70
   192
  0
VERTEX
  5
395F
  8
0
 10
-322.0000000000003
 20
84.99999999999972
 30
-2.0
 70
   192
  0
VERTEX
  5
3960
  8
0
 10
-322.0000000000003
 20
84.99999999999972
 30
-5.0
 70
   192
  0
VERTEX
  5
3961
  8
0
 10
-242.0000000000003
 20
85.0
 30
-5.0
 70
   192
  0
VERTEX
  5
3962
  8
0
 10
0.0
 20
0.0
 30
0.0
 70
   128
 71
     3
 72
     4
 73
    -1
  0
VERTEX
  5
3963
  8
0
 10
0.0
 20
0.0
 30
0.0
 70
   128
 71
     2
 72
    -3
 73
     1
  0
SEQEND
  5
3D61
  8
0
  0
POLYLINE
  5
3964
  8
0
 66
     1
 10
0.0
 20
0.0
 30
0.0
 70
    64
 71
     8
 72
     6
  0
VERTEX
  5
3965
  8
0
 10
-245.0000000000005
 20
142.0
 30
-5.0
 70
   192
  0
VERTEX
  5
3966
  8
0
 10
-319.0000000000005
 20
141.9999999999997
 30
-5.0
 70
   192
  0
VERTEX
  5
3967
  8
0
 10
-319.0000000000005
 20
119.9999999999998
 30
-5.0
 70
   192
  0
VERTEX
  5
3968
  8
0
 10
-322.0000000000004
 20
119.9999999999997
 30
-5.0
 70
   192
  0
VERTEX
  5
3969
  8
0
 10
-322.0000000000003
 20
84.99999999999972
 30
-5.0
 70
   192
  0
VERTEX
  5
396A
  8
0
 10
-242.0000000000003
 20
84.99999999999999
 30
-5.0
 70
   192
  0
VERTEX
  5
396B
  8
0
 10
-242.0000000000004
 20
120.0
 30
-5.0
 70
   192
  0
VERTEX
  5
396C
  8
0
 10
-245.0000000000004
 20
120.0
 30
-5.0
 70
   192
  0
VERTEX
  5
396D
  8
0
 10
0.0
 20
0.0
 30
0.0
 70
   128
 71
     8
 72
     7
 73
    -6
  0
VERTEX
  5
396E
  8
0
 10
0.0
 20
0.0
 30
0.0
 70
   128
 71
     3
 72
     2
 73
    -1
  0
VERTEX
  5
396F
  8
0
 10
0.0
 20
0.0
 30
0.0
 70
   128
 71
    -3
 72
     1
 73
    -8
  0
VERTEX
  5
3970
  8
0
 10
0.0
 20
0.0
 30
0.0
 70
   128
 71
    -8
 72
     6
 73
    -5
  0
VERTEX
  5
3971
  8
0
 10
0.0
 20
0.0
 30
0.0
 70
   128
 71
    -8
 72
    -5
 73
    -3
  0
VERTEX
  5
3972
  8
0
 10
0.0
 20
0.0
 30
0.0
 70
   128
 71
     5
 72
     4
 73
    -3
  0
SEQEND
  5
3D62
  8
0
  0
POLYLINE
  5
3973
  8
0
 66
     1
 10
0.0
 20
0.0
 30
0.0
 70
    64
 71
     4
 72
     2
  0
VERTEX
  5
3974
  8
0
 10
-322.0000000000005
 20
144.9999999999997
 30
-2.0
 70
   192
  0
VERTEX
  5
3975
  8
0
 10
-322.0000000000003
 20
84.99999999999972
 30
-2.0
 70
   192
  0
VERTEX
  5
3976
  8
0
 10
-242.0000000000003
 20
85.0
 30
-2.0
 70
   192
  0
VERTEX
  5
3977
  8
0
 10
-242.0000000000005
 20
145.0
 30
-2.0
 70
   192
  0
VERTEX
  5
3978
  8
0
 10
0.0
 20
0.0
 30
0.0
 70
   128
 71
     3
 72
     4
 73
    -1
  0
VERTEX
  5
3979
  8
0
 10
0.0
 20
0.0
 30
0.0
 70
   128
 71
     2
 72
    -3
 73
     1
  0
SEQEND
  5
3D63
  8
0
  0
POLYLINE
  5
397A
  8
0
 66
     1
 10
0.0
 20
0.0
 30
0.0
 70
    64
 71
     4
 72
     2
  0
VERTEX
  5
397B
  8
0
 10
-279.0000000000005
 20
139.9999999999999
 30
-12.0
 70
   192
  0
VERTEX
  5
397C
  8
0
 10
-285.0000000000002
 20
139.9999999999995
 30
-12.0
 70
   192
  0
VERTEX
  5
397D
  8
0
 10
-285.0000000000002
 20
139.9999999999995
 30
-15.0
 70
   192
  0
VERTEX
  5
397E
  8
0
 10
-279.0000000000005
 20
139.9999999999999
 30
-15.0
 70
   192
  0
VERTEX
  5
397F
  8
0
 10
0.0
 20
0.0
 30
0.0
 70
   128
 71
     3
 72
     4
 73
    -1
  0
VERTEX
  5
3980
  8
0
 10
0.0
 20
0.0
 30
0.0
 70
   128
 71
     2
 72
    -3
 73
     1
  0
SEQEND
  5
3D64
  8
0
  0
POLYLINE
  5
3981
  8
0
 66
     1
 10
0.0
 20
0.0
 30
0.0
 70
    64
 71
     4
 72
     2
  0
VERTEX
  5
3982
  8
0
 10
-285.0000000000002
 20
139.9999999999995
 30
-12.0
 70
   192
  0
VERTEX
  5
3983
  8
0
 10
-285.0000000000003
 20
120.0000000000002
 30
-12.0
 70
   192
  0
VERTEX
  5
3984
  8
0
 10
-285.0000000000003
 20
120.0000000000002
 30
-15.0
 70
   192
  0
VERTEX
  5
3985
  8
0
 10
-285.0000000000002
 20
139.9999999999995
 30
-15.0
 70
   192
  0
VERTEX
  5
3986
  8
0
 10
0.0
 20
0.0
 30
0.0
 70
   128
 71
     3
 72
     4
 73
    -1
  0
VERTEX
  5
3987
  8
0
 10
0.0
 20
0.0
 30
0.0
 70
   128
 71
     2
 72
    -3
 73
     1
  0
SEQEND
  5
3D65
  8
0
  0
POLYLINE
  5
3988
  8
0
 66
     1
 10
0.0
 20
0.0
 30
0.0
 70
    64
 71
     6
 72
     4
  0
VERTEX
  5
3989
  8
0
 10
-245.0000000000004
 20
120.0
 30
-5.0
 70
   192
  0
VERTEX
  5
398A
  8
0
 10
-245.0000000000004
 20
120.0
 30
-12.0
 70
   192
  0
VERTEX
  5
398B
  8
0
 10
-279.0000000000003
 20
120.0000000000001
 30
-12.0
 70
   192
  0
VERTEX
  5
398C
  8
0
 10
-279.0000000000003
 20
120.0000000000001
 30
-15.0
 70
   192
  0
VERTEX
  5
398D
  8
0
 10
-242.0000000000004
 20
120.0
 30
-15.0
 70
   192
  0
VERTEX
  5
398E
  8
0
 10
-242.0000000000004
 20
120.0
 30
-5.0
 70
   192
  0
VERTEX
  5
398F
  8
0
 10
0.0
 20
0.0
 30
0.0
 70
   128
 71
     6
 72
     1
 73
    -2
  0
VERTEX
  5
3990
  8
0
 10
0.0
 20
0.0
 30
0.0
 70
   128
 71
     5
 72
    -6
 73
    -2
  0
VERTEX
  5
3991
  8
0
 10
0.0
 20
0.0
 30
0.0
 70
   128
 71
     3
 72
     4
 73
    -5
  0
VERTEX
  5
3992
  8
0
 10
0.0
 20
0.0
 30
0.0
 70
   128
 71
     2
 72
    -3
 73
    -5
  0
SEQEND
  5
3D66
  8
0
  0
POLYLINE
  5
3993
  8
0
 66
     1
 10
0.0
 20
0.0
 30
0.0
 70
    64
 71
     4
 72
     2
  0
VERTEX
  5
3994
  8
0
 10
-279.0000000000004
 20
120.0000000000001
 30
-12.0
 70
   192
  0
VERTEX
  5
3995
  8
0
 10
-279.0000000000006
 20
139.9999999999999
 30
-12.0
 70
   192
  0
VERTEX
  5
3996
  8
0
 10
-279.0000000000005
 20
139.9999999999999
 30
-15.0
 70
   192
  0
VERTEX
  5
3997
  8
0
 10
-279.0000000000004
 20
120.0000000000001
 30
-15.0
 70
   192
  0
VERTEX
  5
3998
  8
0
 10
0.0
 20
0.0
 30
0.0
 70
   128
 71
     3
 72
     4
 73
    -1
  0
VERTEX
  5
3999
  8
0
 10
0.0
 20
0.0
 30
0.0
 70
   128
 71
     2
 72
    -3
 73
     1
  0
SEQEND
  5
3D67
  8
0
  0
POLYLINE
  5
399A
  8
0
 66
     1
 10
0.0
 20
0.0
 30
0.0
 70
    64
 71
     8
 72
     6
  0
VERTEX
  5
399B
  8
0
 10
-279.0000000000005
 20
139.9999999999999
 30
-15.0
 70
   192
  0
VERTEX
  5
399C
  8
0
 10
-285.0000000000002
 20
139.9999999999995
 30
-15.0
 70
   192
  0
VERTEX
  5
399D
  8
0
 10
-285.0000000000003
 20
120.0000000000002
 30
-15.0
 70
   192
  0
VERTEX
  5
399E
  8
0
 10
-322.0000000000005
 20
119.9999999999997
 30
-15.0
 70
   192
  0
VERTEX
  5
399F
  8
0
 10
-322.0000000000005
 20
144.9999999999997
 30
-15.0
 70
   192
  0
VERTEX
  5
39A0
  8
0
 10
-242.0000000000005
 20
145.0
 30
-15.0
 70
   192
  0
VERTEX
  5
39A1
  8
0
 10
-242.0000000000004
 20
120.0
 30
-15.0
 70
   192
  0
VERTEX
  5
39A2
  8
0
 10
-279.0000000000003
 20
120.0000000000001
 30
-15.0
 70
   192
  0
VERTEX
  5
39A3
  8
0
 10
0.0
 20
0.0
 30
0.0
 70
   128
 71
     7
 72
     8
 73
    -1
  0
VERTEX
  5
39A4
  8
0
 10
0.0
 20
0.0
 30
0.0
 70
   128
 71
     6
 72
    -7
 73
    -1
  0
VERTEX
  5
39A5
  8
0
 10
0.0
 20
0.0
 30
0.0
 70
   128
 71
    -6
 72
     1
 73
    -2
  0
VERTEX
  5
39A6
  8
0
 10
0.0
 20
0.0
 30
0.0
 70
   128
 71
     5
 72
    -6
 73
    -2
  0
VERTEX
  5
39A7
  8
0
 10
0.0
 20
0.0
 30
0.0
 70
   128
 71
     3
 72
     4
 73
    -5
  0
VERTEX
  5
39A8
  8
0
 10
0.0
 20
0.0
 30
0.0
 70
   128
 71
     2
 72
    -3
 73
    -5
  0
SEQEND
  5
3D68
  8
0
  0
POLYLINE
  5
39A9
  8
0
 66
     1
 10
0.0
 20
0.0
 30
0.0
 70
    64
 71
     4
 72
     2
  0
VERTEX
  5
39AA
  8
0
 10
-319.0000000000004
 20
119.9999999999998
 30
-5.0
 70
   192
  0
VERTEX
  5
39AB
  8
0
 10
-319.0000000000005
 20
141.9999999999997
 30
-5.0
 70
   192
  0
VERTEX
  5
39AC
  8
0
 10
-319.0000000000005
 20
141.9999999999997
 30
-12.0
 70
   192
  0
VERTEX
  5
39AD
  8
0
 10
-319.0000000000004
 20
119.9999999999998
 30
-12.0
 70
   192
  0
VERTEX
  5
39AE
  8
0
 10
0.0
 20
0.0
 30
0.0
 70
   128
 71
     1
 72
     4
 73
    -3
  0
VERTEX
  5
39AF
  8
0
 10
0.0
 20
0.0
 30
0.0
 70
   128
 71
    -1
 72
     3
 73
     2
  0
SEQEND
  5
3D69
  8
0
  0
POLYLINE
  5
39B0
  8
0
 66
     1
 10
0.0
 20
0.0
 30
0.0
 70
    64
 71
     4
 72
     2
  0
VERTEX
  5
39B1
  8
0
 10
-245.0000000000005
 20
142.0
 30
-5.0
 70
   192
  0
VERTEX
  5
39B2
  8
0
 10
-319.0000000000005
 20
141.9999999999997
 30
-5.0
 70
   192
  0
VERTEX
  5
39B3
  8
0
 10
-319.0000000000005
 20
141.9999999999997
 30
-12.0
 70
   192
  0
VERTEX
  5
39B4
  8
0
 10
-245.0000000000005
 20
142.0
 30
-12.0
 70
   192
  0
VERTEX
  5
39B5
  8
0
 10
0.0
 20
0.0
 30
0.0
 70
   128
 71
     3
 72
     4
 73
    -1
  0
VERTEX
  5
39B6
  8
0
 10
0.0
 20
0.0
 30
0.0
 70
   128
 71
     2
 72
    -3
 73
     1
  0
SEQEND
  5
3D6A
  8
0
  0
POLYLINE
  5
39B7
  8
0
 66
     1
 10
0.0
 20
0.0
 30
0.0
 70
    64
 71
     4
 72
     2
  0
VERTEX
  5
39B8
  8
0
 10
-245.0000000000004
 20
120.0
 30
-5.0
 70
   192
  0
VERTEX
  5
39B9
  8
0
 10
-245.0000000000005
 20
142.0
 30
-5.0
 70
   192
  0
VERTEX
  5
39BA
  8
0
 10
-245.0000000000005
 20
142.0
 30
-12.0
 70
   192
  0
VERTEX
  5
39BB
  8
0
 10
-245.0000000000004
 20
120.0
 30
-12.0
 70
   192
  0
VERTEX
  5
39BC
  8
0
 10
0.0
 20
0.0
 30
0.0
 70
   128
 71
     3
 72
     4
 73
    -1
  0
VERTEX
  5
39BD
  8
0
 10
0.0
 20
0.0
 30
0.0
 70
   128
 71
     2
 72
    -3
 73
     1
  0
SEQEND
  5
3D6B
  8
0
  0
POLYLINE
  5
39BE
  8
0
 66
     1
 10
0.0
 20
0.0
 30
0.0
 70
    64
 71
     8
 72
     6
  0
VERTEX
  5
39BF
  8
0
 10
-285.0000000000002
 20
139.9999999999995
 30
-12.0
 70
   192
  0
VERTEX
  5
39C0
  8
0
 10
-285.0000000000003
 20
120.0000000000002
 30
-12.0
 70
   192
  0
VERTEX
  5
39C1
  8
0
 10
-319.0000000000004
 20
119.9999999999998
 30
-12.0
 70
   192
  0
VERTEX
  5
39C2
  8
0
 10
-319.0000000000005
 20
141.9999999999997
 30
-12.0
 70
   192
  0
VERTEX
  5
39C3
  8
0
 10
-245.0000000000005
 20
142.0
 30
-12.0
 70
   192
  0
VERTEX
  5
39C4
  8
0
 10
-245.0000000000004
 20
120.0
 30
-12.0
 70
   192
  0
VERTEX
  5
39C5
  8
0
 10
-279.0000000000004
 20
120.0000000000001
 30
-12.0
 70
   192
  0
VERTEX
  5
39C6
  8
0
 10
-279.0000000000005
 20
139.9999999999999
 30
-12.0
 70
   192
  0
VERTEX
  5
39C7
  8
0
 10
0.0
 20
0.0
 30
0.0
 70
   128
 71
     8
 72
     7
 73
    -6
  0
VERTEX
  5
39C8
  8
0
 10
0.0
 20
0.0
 30
0.0
 70
   128
 71
    -8
 72
     6
 73
    -5
  0
VERTEX
  5
39C9
  8
0
 10
0.0
 20
0.0
 30
0.0
 70
   128
 71
    -5
 72
     1
 73
    -8
  0
VERTEX
  5
39CA
  8
0
 10
0.0
 20
0.0
 30
0.0
 70
   128
 71
     5
 72
    -4
 73
    -1
  0
VERTEX
  5
39CB
  8
0
 10
0.0
 20
0.0
 30
0.0
 70
   128
 71
     4
 72
     3
 73
    -2
  0
VERTEX
  5
39CC
  8
0
 10
0.0
 20
0.0
 30
0.0
 70
   128
 71
    -4
 72
     2
 73
    -1
  0
SEQEND
  5
3D6C
  8
0
  0
ENDBLK
  5
3D5C
  8
0
  0
BLOCK
  8
0
  2
*X3
 70
     1
 10
0.0
 20
0.0
 30
0.0
  3
*X3
  1

  0
POLYLINE
  5
39CE
  8
0
 66
     1
 10
0.0
 20
0.0
 30
0.0
 70
    64
 71
     8
 72
     6
  0
VERTEX
  5
39CF
  8
0
 10
241.9999999999996
 20
120.0000000000001
 30
-5.0
 70
   192
  0
VERTEX
  5
39D0
  8
0
 10
241.9999999999997
 20
85.00000000000169
 30
-5.0
 70
   192
  0
VERTEX
  5
39D1
  8
0
 10
321.9999999999996
 20
85.000000000002
 30
-5.0
 70
   192
  0
VERTEX
  5
39D2
  8
0
 10
321.9999999999995
 20
119.9999999999998
 30
-5.0
 70
   192
  0
VERTEX
  5
39D3
  8
0
 10
318.9999999999995
 20
119.9999999999998
 30
-5.0
 70
   192
  0
VERTEX
  5
39D4
  8
0
 10
318.9999999999994
 20
142.000000000002
 30
-5.0
 70
   192
  0
VERTEX
  5
39D5
  8
0
 10
244.9999999999995
 20
142.0000000000017
 30
-5.0
 70
   192
  0
VERTEX
  5
39D6
  8
0
 10
244.9999999999996
 20
120.0000000000001
 30
-5.0
 70
   192
  0
VERTEX
  5
39D7
  8
0
 10
0.0
 20
0.0
 30
0.0
 70
   128
 71
     5
 72
    -4
 73
    -8
  0
VERTEX
  5
39D8
  8
0
 10
0.0
 20
0.0
 30
0.0
 70
   128
 71
     8
 72
     7
 73
    -6
  0
VERTEX
  5
39D9
  8
0
 10
0.0
 20
0.0
 30
0.0
 70
   128
 71
    -8
 72
     6
 73
    -5
  0
VERTEX
  5
39DA
  8
0
 10
0.0
 20
0.0
 30
0.0
 70
   128
 71
     4
 72
     3
 73
    -2
  0
VERTEX
  5
39DB
  8
0
 10
0.0
 20
0.0
 30
0.0
 70
   128
 71
    -4
 72
    -2
 73
    -8
  0
VERTEX
  5
39DC
  8
0
 10
0.0
 20
0.0
 30
0.0
 70
   128
 71
     2
 72
     1
 73
    -8
  0
SEQEND
  5
3D6F
  8
0
  0
POLYLINE
  5
39DD
  8
0
 66
     1
 10
0.0
 20
0.0
 30
0.0
 70
    64
 71
     6
 72
     4
  0
VERTEX
  5
39DE
  8
0
 10
241.9999999999997
 20
85.00000000000169
 30
-2.0
 70
   192
  0
VERTEX
  5
39DF
  8
0
 10
241.9999999999995
 20
145.0000000000017
 30
-2.0
 70
   192
  0
VERTEX
  5
39E0
  8
0
 10
241.9999999999995
 20
145.0000000000017
 30
-15.0
 70
   192
  0
VERTEX
  5
39E1
  8
0
 10
241.9999999999996
 20
120.0000000000001
 30
-15.0
 70
   192
  0
VERTEX
  5
39E2
  8
0
 10
241.9999999999996
 20
120.0000000000001
 30
-5.0
 70
   192
  0
VERTEX
  5
39E3
  8
0
 10
241.9999999999997
 20
85.00000000000169
 30
-5.0
 70
   192
  0
VERTEX
  5
39E4
  8
0
 10
0.0
 20
0.0
 30
0.0
 70
   128
 71
     3
 72
     4
 73
    -5
  0
VERTEX
  5
39E5
  8
0
 10
0.0
 20
0.0
 30
0.0
 70
   128
 71
     2
 72
    -3
 73
    -5
  0
VERTEX
  5
39E6
  8
0
 10
0.0
 20
0.0
 30
0.0
 70
   128
 71
     6
 72
     1
 73
    -2
  0
VERTEX
  5
39E7
  8
0
 10
0.0
 20
0.0
 30
0.0
 70
   128
 71
     5
 72
    -6
 73
    -2
  0
SEQEND
  5
3D70
  8
0
  0
POLYLINE
  5
39E8
  8
0
 66
     1
 10
0.0
 20
0.0
 30
0.0
 70
    64
 71
     4
 72
     2
  0
VERTEX
  5
39E9
  8
0
 10
241.9999999999995
 20
145.0000000000017
 30
-2.0
 70
   192
  0
VERTEX
  5
39EA
  8
0
 10
241.9999999999995
 20
145.0000000000017
 30
-15.0
 70
   192
  0
VERTEX
  5
39EB
  8
0
 10
321.9999999999994
 20
145.000000000002
 30
-15.0
 70
   192
  0
VERTEX
  5
39EC
  8
0
 10
321.9999999999994
 20
145.000000000002
 30
-2.0
 70
   192
  0
VERTEX
  5
39ED
  8
0
 10
0.0
 20
0.0
 30
0.0
 70
   128
 71
     1
 72
     4
 73
    -3
  0
VERTEX
  5
39EE
  8
0
 10
0.0
 20
0.0
 30
0.0
 70
   128
 71
    -1
 72
     3
 73
     2
  0
SEQEND
  5
3D71
  8
0
  0
POLYLINE
  5
39EF
  8
0
 66
     1
 10
0.0
 20
0.0
 30
0.0
 70
    64
 71
     6
 72
     4
  0
VERTEX
  5
39F0
  8
0
 10
321.9999999999994
 20
145.000000000002
 30
-2.0
 70
   192
  0
VERTEX
  5
39F1
  8
0
 10
321.9999999999994
 20
145.000000000002
 30
-15.0
 70
   192
  0
VERTEX
  5
39F2
  8
0
 10
321.9999999999995
 20
119.9999999999998
 30
-15.0
 70
   192
  0
VERTEX
  5
39F3
  8
0
 10
321.9999999999995
 20
120.0
 30
-5.0
 70
   192
  0
VERTEX
  5
39F4
  8
0
 10
321.9999999999996
 20
85.000000000002
 30
-5.0
 70
   192
  0
VERTEX
  5
39F5
  8
0
 10
321.9999999999996
 20
85.000000000002
 30
-2.0
 70
   192
  0
VERTEX
  5
39F6
  8
0
 10
0.0
 20
0.0
 30
0.0
 70
   128
 71
     4
 72
     3
 73
    -2
  0
VERTEX
  5
39F7
  8
0
 10
0.0
 20
0.0
 30
0.0
 70
   128
 71
    -4
 72
     2
 73
    -1
  0
VERTEX
  5
39F8
  8
0
 10
0.0
 20
0.0
 30
0.0
 70
   128
 71
     1
 72
     6
 73
    -5
  0
VERTEX
  5
39F9
  8
0
 10
0.0
 20
0.0
 30
0.0
 70
   128
 71
    -1
 72
     5
 73
    -4
  0
SEQEND
  5
3D72
  8
0
  0
POLYLINE
  5
39FA
  8
0
 66
     1
 10
0.0
 20
0.0
 30
0.0
 70
    64
 71
     4
 72
     2
  0
VERTEX
  5
39FB
  8
0
 10
321.9999999999996
 20
85.000000000002
 30
-2.0
 70
   192
  0
VERTEX
  5
39FC
  8
0
 10
241.9999999999997
 20
85.00000000000169
 30
-2.0
 70
   192
  0
VERTEX
  5
39FD
  8
0
 10
241.9999999999997
 20
85.00000000000169
 30
-5.0
 70
   192
  0
VERTEX
  5
39FE
  8
0
 10
321.9999999999996
 20
85.000000000002
 30
-5.0
 70
   192
  0
VERTEX
  5
39FF
  8
0
 10
0.0
 20
0.0
 30
0.0
 70
   128
 71
     3
 72
     4
 73
    -1
  0
VERTEX
  5
3A00
  8
0
 10
0.0
 20
0.0
 30
0.0
 70
   128
 71
     2
 72
    -3
 73
     1
  0
SEQEND
  5
3D73
  8
0
  0
POLYLINE
  5
3A01
  8
0
 66
     1
 10
0.0
 20
0.0
 30
0.0
 70
    64
 71
     4
 72
     2
  0
VERTEX
  5
3A02
  8
0
 10
241.9999999999995
 20
145.0000000000017
 30
-2.0
 70
   192
  0
VERTEX
  5
3A03
  8
0
 10
241.9999999999997
 20
85.00000000000169
 30
-2.0
 70
   192
  0
VERTEX
  5
3A04
  8
0
 10
321.9999999999996
 20
85.000000000002
 30
-2.0
 70
   192
  0
VERTEX
  5
3A05
  8
0
 10
321.9999999999994
 20
145.000000000002
 30
-2.0
 70
   192
  0
VERTEX
  5
3A06
  8
0
 10
0.0
 20
0.0
 30
0.0
 70
   128
 71
     3
 72
     4
 73
    -1
  0
VERTEX
  5
3A07
  8
0
 10
0.0
 20
0.0
 30
0.0
 70
   128
 71
     2
 72
    -3
 73
     1
  0
SEQEND
  5
3D74
  8
0
  0
POLYLINE
  5
3A08
  8
0
 66
     1
 10
0.0
 20
0.0
 30
0.0
 70
    64
 71
     4
 72
     2
  0
VERTEX
  5
3A09
  8
0
 10
279.0000000000008
 20
139.9999999999996
 30
-15.0
 70
   192
  0
VERTEX
  5
3A0A
  8
0
 10
279.0000000000003
 20
120.0000000000002
 30
-15.0
 70
   192
  0
VERTEX
  5
3A0B
  8
0
 10
279.0000000000003
 20
120.0000000000002
 30
-12.0
 70
   192
  0
VERTEX
  5
3A0C
  8
0
 10
279.0000000000008
 20
139.9999999999996
 30
-12.0
 70
   192
  0
VERTEX
  5
3A0D
  8
0
 10
0.0
 20
0.0
 30
0.0
 70
   128
 71
     1
 72
     4
 73
    -3
  0
VERTEX
  5
3A0E
  8
0
 10
0.0
 20
0.0
 30
0.0
 70
   128
 71
    -1
 72
     3
 73
     2
  0
SEQEND
  5
3D75
  8
0
  0
POLYLINE
  5
3A0F
  8
0
 66
     1
 10
0.0
 20
0.0
 30
0.0
 70
    64
 71
     6
 72
     4
  0
VERTEX
  5
3A10
  8
0
 10
279.0000000000003
 20
120.0000000000002
 30
-12.0
 70
   192
  0
VERTEX
  5
3A11
  8
0
 10
279.0000000000003
 20
120.0000000000002
 30
-15.0
 70
   192
  0
VERTEX
  5
3A12
  8
0
 10
241.9999999999996
 20
120.0000000000001
 30
-15.0
 70
   192
  0
VERTEX
  5
3A13
  8
0
 10
241.9999999999996
 20
120.0
 30
-5.0
 70
   192
  0
VERTEX
  5
3A14
  8
0
 10
244.9999999999996
 20
120.0000000000001
 30
-5.0
 70
   192
  0
VERTEX
  5
3A15
  8
0
 10
244.9999999999996
 20
120.0000000000001
 30
-12.0
 70
   192
  0
VERTEX
  5
3A16
  8
0
 10
0.0
 20
0.0
 30
0.0
 70
   128
 71
     6
 72
     5
 73
    -4
  0
VERTEX
  5
3A17
  8
0
 10
0.0
 20
0.0
 30
0.0
 70
   128
 71
    -6
 72
     4
 73
    -3
  0
VERTEX
  5
3A18
  8
0
 10
0.0
 20
0.0
 30
0.0
 70
   128
 71
     3
 72
     2
 73
    -1
  0
VERTEX
  5
3A19
  8
0
 10
0.0
 20
0.0
 30
0.0
 70
   128
 71
    -3
 72
     1
 73
    -6
  0
SEQEND
  5
3D76
  8
0
  0
POLYLINE
  5
3A1A
  8
0
 66
     1
 10
0.0
 20
0.0
 30
0.0
 70
    64
 71
     6
 72
     4
  0
VERTEX
  5
3A1B
  8
0
 10
318.9999999999995
 20
119.9999999999998
 30
-5.0
 70
   192
  0
VERTEX
  5
3A1C
  8
0
 10
321.9999999999995
 20
119.9999999999998
 30
-5.0
 70
   192
  0
VERTEX
  5
3A1D
  8
0
 10
321.9999999999995
 20
119.9999999999998
 30
-15.0
 70
   192
  0
VERTEX
  5
3A1E
  8
0
 10
285.0000000000004
 20
120.0000000000002
 30
-15.0
 70
   192
  0
VERTEX
  5
3A1F
  8
0
 10
285.0000000000004
 20
120.0000000000002
 30
-12.0
 70
   192
  0
VERTEX
  5
3A20
  8
0
 10
318.9999999999995
 20
119.9999999999998
 30
-12.0
 70
   192
  0
VERTEX
  5
3A21
  8
0
 10
0.0
 20
0.0
 30
0.0
 70
   128
 71
     6
 72
     5
 73
    -4
  0
VERTEX
  5
3A22
  8
0
 10
0.0
 20
0.0
 30
0.0
 70
   128
 71
    -6
 72
     4
 73
    -3
  0
VERTEX
  5
3A23
  8
0
 10
0.0
 20
0.0
 30
0.0
 70
   128
 71
     3
 72
     2
 73
    -1
  0
VERTEX
  5
3A24
  8
0
 10
0.0
 20
0.0
 30
0.0
 70
   128
 71
    -3
 72
     1
 73
    -6
  0
SEQEND
  5
3D77
  8
0
  0
POLYLINE
  5
3A25
  8
0
 66
     1
 10
0.0
 20
0.0
 30
0.0
 70
    64
 71
     4
 72
     2
  0
VERTEX
  5
3A26
  8
0
 10
285.0000000000005
 20
120.0000000000002
 30
-15.0
 70
   192
  0
VERTEX
  5
3A27
  8
0
 10
285.0000000000002
 20
139.9999999999996
 30
-15.0
 70
   192
  0
VERTEX
  5
3A28
  8
0
 10
285.0000000000002
 20
139.9999999999996
 30
-12.0
 70
   192
  0
VERTEX
  5
3A29
  8
0
 10
285.0000000000004
 20
120.0000000000002
 30
-12.0
 70
   192
  0
VERTEX
  5
3A2A
  8
0
 10
0.0
 20
0.0
 30
0.0
 70
   128
 71
     1
 72
     4
 73
    -3
  0
VERTEX
  5
3A2B
  8
0
 10
0.0
 20
0.0
 30
0.0
 70
   128
 71
    -1
 72
     3
 73
     2
  0
SEQEND
  5
3D78
  8
0
  0
POLYLINE
  5
3A2C
  8
0
 66
     1
 10
0.0
 20
0.0
 30
0.0
 70
    64
 71
     4
 72
     2
  0
VERTEX
  5
3A2D
  8
0
 10
285.0000000000002
 20
139.9999999999996
 30
-15.0
 70
   192
  0
VERTEX
  5
3A2E
  8
0
 10
279.0000000000008
 20
139.9999999999996
 30
-15.0
 70
   192
  0
VERTEX
  5
3A2F
  8
0
 10
279.0000000000008
 20
139.9999999999997
 30
-12.0
 70
   192
  0
VERTEX
  5
3A30
  8
0
 10
285.0000000000002
 20
139.9999999999996
 30
-12.0
 70
   192
  0
VERTEX
  5
3A31
  8
0
 10
0.0
 20
0.0
 30
0.0
 70
   128
 71
     1
 72
     4
 73
    -3
  0
VERTEX
  5
3A32
  8
0
 10
0.0
 20
0.0
 30
0.0
 70
   128
 71
    -1
 72
     3
 73
     2
  0
SEQEND
  5
3D79
  8
0
  0
POLYLINE
  5
3A33
  8
0
 66
     1
 10
0.0
 20
0.0
 30
0.0
 70
    64
 71
     8
 72
     6
  0
VERTEX
  5
3A34
  8
0
 10
279.0000000000008
 20
139.9999999999996
 30
-15.0
 70
   192
  0
VERTEX
  5
3A35
  8
0
 10
279.0000000000003
 20
120.0000000000002
 30
-15.0
 70
   192
  0
VERTEX
  5
3A36
  8
0
 10
241.9999999999996
 20
120.0
 30
-15.0
 70
   192
  0
VERTEX
  5
3A37
  8
0
 10
241.9999999999995
 20
145.0000000000017
 30
-15.0
 70
   192
  0
VERTEX
  5
3A38
  8
0
 10
321.9999999999994
 20
145.000000000002
 30
-15.0
 70
   192
  0
VERTEX
  5
3A39
  8
0
 10
321.9999999999995
 20
119.9999999999998
 30
-15.0
 70
   192
  0
VERTEX
  5
3A3A
  8
0
 10
285.0000000000004
 20
120.0000000000002
 30
-15.0
 70
   192
  0
VERTEX
  5
3A3B
  8
0
 10
285.0000000000002
 20
139.9999999999996
 30
-15.0
 70
   192
  0
VERTEX
  5
3A3C
  8
0
 10
0.0
 20
0.0
 30
0.0
 70
   128
 71
     6
 72
     7
 73
    -8
  0
VERTEX
  5
3A3D
  8
0
 10
0.0
 20
0.0
 30
0.0
 70
   128
 71
     5
 72
    -6
 73
    -8
  0
VERTEX
  5
3A3E
  8
0
 10
0.0
 20
0.0
 30
0.0
 70
   128
 71
    -1
 72
     4
 73
    -5
  0
VERTEX
  5
3A3F
  8
0
 10
0.0
 20
0.0
 30
0.0
 70
   128
 71
     8
 72
    -1
 73
    -5
  0
VERTEX
  5
3A40
  8
0
 10
0.0
 20
0.0
 30
0.0
 70
   128
 71
     2
 72
     3
 73
    -4
  0
VERTEX
  5
3A41
  8
0
 10
0.0
 20
0.0
 30
0.0
 70
   128
 71
     1
 72
    -2
 73
    -4
  0
SEQEND
  5
3D7A
  8
0
  0
POLYLINE
  5
3A42
  8
0
 66
     1
 10
0.0
 20
0.0
 30
0.0
 70
    64
 71
     4
 72
     2
  0
VERTEX
  5
3A43
  8
0
 10
244.9999999999996
 20
120.0000000000001
 30
-5.0
 70
   192
  0
VERTEX
  5
3A44
  8
0
 10
244.9999999999995
 20
142.0000000000017
 30
-5.0
 70
   192
  0
VERTEX
  5
3A45
  8
0
 10
244.9999999999995
 20
142.0000000000017
 30
-12.0
 70
   192
  0
VERTEX
  5
3A46
  8
0
 10
244.9999999999996
 20
120.0000000000001
 30
-12.0
 70
   192
  0
VERTEX
  5
3A47
  8
0
 10
0.0
 20
0.0
 30
0.0
 70
   128
 71
     1
 72
     4
 73
    -3
  0
VERTEX
  5
3A48
  8
0
 10
0.0
 20
0.0
 30
0.0
 70
   128
 71
    -1
 72
     3
 73
     2
  0
SEQEND
  5
3D7B
  8
0
  0
POLYLINE
  5
3A49
  8
0
 66
     1
 10
0.0
 20
0.0
 30
0.0
 70
    64
 71
     4
 72
     2
  0
VERTEX
  5
3A4A
  8
0
 10
318.9999999999994
 20
142.000000000002
 30
-5.0
 70
   192
  0
VERTEX
  5
3A4B
  8
0
 10
244.9999999999995
 20
142.0000000000017
 30
-5.0
 70
   192
  0
VERTEX
  5
3A4C
  8
0
 10
244.9999999999995
 20
142.0000000000017
 30
-12.0
 70
   192
  0
VERTEX
  5
3A4D
  8
0
 10
318.9999999999994
 20
142.0000000000019
 30
-12.0
 70
   192
  0
VERTEX
  5
3A4E
  8
0
 10
0.0
 20
0.0
 30
0.0
 70
   128
 71
     3
 72
     4
 73
    -1
  0
VERTEX
  5
3A4F
  8
0
 10
0.0
 20
0.0
 30
0.0
 70
   128
 71
     2
 72
    -3
 73
     1
  0
SEQEND
  5
3D7C
  8
0
  0
POLYLINE
  5
3A50
  8
0
 66
     1
 10
0.0
 20
0.0
 30
0.0
 70
    64
 71
     4
 72
     2
  0
VERTEX
  5
3A51
  8
0
 10
318.9999999999995
 20
119.9999999999998
 30
-5.0
 70
   192
  0
VERTEX
  5
3A52
  8
0
 10
318.9999999999994
 20
142.000000000002
 30
-5.0
 70
   192
  0
VERTEX
  5
3A53
  8
0
 10
318.9999999999994
 20
142.000000000002
 30
-12.0
 70
   192
  0
VERTEX
  5
3A54
  8
0
 10
318.9999999999995
 20
119.9999999999998
 30
-12.0
 70
   192
  0
VERTEX
  5
3A55
  8
0
 10
0.0
 20
0.0
 30
0.0
 70
   128
 71
     3
 72
     4
 73
    -1
  0
VERTEX
  5
3A56
  8
0
 10
0.0
 20
0.0
 30
0.0
 70
   128
 71
     2
 72
    -3
 73
     1
  0
SEQEND
  5
3D7D
  8
0
  0
POLYLINE
  5
3A57
  8
0
 66
     1
 10
0.0
 20
0.0
 30
0.0
 70
    64
 71
     8
 72
     6
  0
VERTEX
  5
3A58
  8
0
 10
279.0000000000003
 20
120.0000000000002
 30
-12.0
 70
   192
  0
VERTEX
  5
3A59
  8
0
 10
244.9999999999996
 20
120.0000000000001
 30
-12.0
 70
   192
  0
VERTEX
  5
3A5A
  8
0
 10
244.9999999999995
 20
142.0000000000017
 30
-12.0
 70
   192
  0
VERTEX
  5
3A5B
  8
0
 10
318.9999999999994
 20
142.000000000002
 30
-12.0
 70
   192
  0
VERTEX
  5
3A5C
  8
0
 10
318.9999999999995
 20
119.9999999999998
 30
-12.0
 70
   192
  0
VERTEX
  5
3A5D
  8
0
 10
285.0000000000005
 20
120.0000000000002
 30
-12.0
 70
   192
  0
VERTEX
  5
3A5E
  8
0
 10
285.0000000000002
 20
139.9999999999996
 30
-12.0
 70
   192
  0
VERTEX
  5
3A5F
  8
0
 10
279.0000000000008
 20
139.9999999999996
 30
-12.0
 70
   192
  0
VERTEX
  5
3A60
  8
0
 10
0.0
 20
0.0
 30
0.0
 70
   128
 71
     7
 72
     6
 73
    -5
  0
VERTEX
  5
3A61
  8
0
 10
0.0
 20
0.0
 30
0.0
 70
   128
 71
    -7
 72
     5
 73
    -4
  0
VERTEX
  5
3A62
  8
0
 10
0.0
 20
0.0
 30
0.0
 70
   128
 71
    -4
 72
     8
 73
    -7
  0
VERTEX
  5
3A63
  8
0
 10
0.0
 20
0.0
 30
0.0
 70
   128
 71
     4
 72
    -3
 73
    -8
  0
VERTEX
  5
3A64
  8
0
 10
0.0
 20
0.0
 30
0.0
 70
   128
 71
     3
 72
     2
 73
    -1
  0
VERTEX
  5
3A65
  8
0
 10
0.0
 20
0.0
 30
0.0
 70
   128
 71
    -3
 72
     1
 73
    -8
  0
SEQEND
  5
3D7E
  8
0
  0
ENDBLK
  5
3D6E
  8
0
  0
BLOCK
  8
0
  2
*X4
 70
     1
 10
0.0
 20
0.0
 30
0.0
  3
*X4
  1

  0
POLYLINE
  5
3A67
  8
0
 66
     1
 10
0.0
 20
0.0
 30
0.0
 70
    64
 71
    10
 72
     8
  0
VERTEX
  5
3A68
  8
0
 10
404.9999999999999
 20
-23.49999999999998
 30
-7.0
 70
   192
  0
VERTEX
  5
3A69
  8
0
 10
404.9999999999999
 20
-16.5
 30
-7.0
 70
   192
  0
VERTEX
  5
3A6A
  8
0
 10
399.9999999999998
 20
-16.5
 30
-7.0
 70
   192
  0
VERTEX
  5
3A6B
  8
0
 10
399.9999999999998
 20
-23.49999999999998
 30
-7.0
 70
   192
  0
VERTEX
  5
3A6C
  8
0
 10
399.9999999999998
 20
-19.99999999999999
 30
-3.500000000000006
 70
   192
  0
VERTEX
  5
3A6D
  8
0
 10
404.9999999999999
 20
-19.99999999999999
 30
-3.500000000000006
 70
   192
  0
VERTEX
  5
3A6E
  8
0
 10
399.9999999999998
 20
-22.4748737341529
 30
-4.525126265847089
 70
   192
  0
VERTEX
  5
3A6F
  8
0
 10
404.9999999999999
 20
-22.4748737341529
 30
-4.525126265847089
 70
   192
  0
VERTEX
  5
3A70
  8
0
 10
399.9999999999998
 20
-17.52512626584708
 30
-4.525126265847089
 70
   192
  0
VERTEX
  5
3A71
  8
0
 10
404.9999999999999
 20
-17.52512626584708
 30
-4.525126265847089
 70
   192
  0
VERTEX
  5
3A72
  8
0
 10
0.0
 20
0.0
 30
0.0
 70
   128
 71
     7
 72
     4
 73
    -1
  0
VERTEX
  5
3A73
  8
0
 10
0.0
 20
0.0
 30
0.0
 70
   128
 71
    -7
 72
     1
 73
     8
  0
VERTEX
  5
3A74
  8
0
 10
0.0
 20
0.0
 30
0.0
 70
   128
 71
     6
 72
     5
 73
    -7
  0
VERTEX
  5
3A75
  8
0
 10
0.0
 20
0.0
 30
0.0
 70
   128
 71
    -6
 72
     7
 73
     8
  0
VERTEX
  5
3A76
  8
0
 10
0.0
 20
0.0
 30
0.0
 70
   128
 71
    10
 72
     9
 73
    -5
  0
VERTEX
  5
3A77
  8
0
 10
0.0
 20
0.0
 30
0.0
 70
   128
 71
   -10
 72
     5
 73
     6
  0
VERTEX
  5
3A78
  8
0
 10
0.0
 20
0.0
 30
0.0
 70
   128
 71
     2
 72
     3
 73
    -9
  0
VERTEX
  5
3A79
  8
0
 10
0.0
 20
0.0
 30
0.0
 70
   128
 71
    -2
 72
     9
 73
    10
  0
SEQEND
  5
3D81
  8
0
  0
POLYLINE
  5
3A7A
  8
0
 66
     1
 10
0.0
 20
0.0
 30
0.0
 70
    64
 71
     8
 72
     6
  0
VERTEX
  5
3A7B
  8
0
 10
395.0
 20
-148.6602540378443
 30
-2.0
 70
   192
  0
VERTEX
  5
3A7C
  8
0
 10
395.0
 20
-148.6602540378443
 30
-12.0
 70
   192
  0
VERTEX
  5
3A7D
  8
0
 10
398.6602540378444
 20
-144.9999999999999
 30
-12.0
 70
   192
  0
VERTEX
  5
3A7E
  8
0
 10
398.6602540378444
 20
-144.9999999999999
 30
-2.0
 70
   192
  0
VERTEX
  5
3A7F
  8
0
 10
390.0
 20
-149.9999999999999
 30
-2.0
 70
   192
  0
VERTEX
  5
3A80
  8
0
 10
390.0
 20
-149.9999999999999
 30
-12.0
 70
   192
  0
VERTEX
  5
3A81
  8
0
 10
400.0
 20
-139.9999999999999
 30
-12.0
 70
   192
  0
VERTEX
  5
3A82
  8
0
 10
399.9999999999999
 20
-139.9999999999999
 30
-2.0
 70
   192
  0
VERTEX
  5
3A83
  8
0
 10
0.0
 20
0.0
 30
0.0
 70
   128
 71
     1
 72
     2
 73
    -3
  0
VERTEX
  5
3A84
  8
0
 10
0.0
 20
0.0
 30
0.0
 70
   128
 71
    -1
 72
     3
 73
     4
  0
VERTEX
  5
3A85
  8
0
 10
0.0
 20
0.0
 30
0.0
 70
   128
 71
     5
 72
     6
 73
    -2
  0
VERTEX
  5
3A86
  8
0
 10
0.0
 20
0.0
 30
0.0
 70
   128
 71
    -5
 72
     2
 73
     1
  0
VERTEX
  5
3A87
  8
0
 10
0.0
 20
0.0
 30
0.0
 70
   128
 71
     4
 72
     3
 73
    -7
  0
VERTEX
  5
3A88
  8
0
 10
0.0
 20
0.0
 30
0.0
 70
   128
 71
    -4
 72
     7
 73
     8
  0
SEQEND
  5
3D82
  8
0
  0
POLYLINE
  5
3A89
  8
0
 66
     1
 10
0.0
 20
0.0
 30
0.0
 70
    64
 71
     4
 72
     2
  0
VERTEX
  5
3A8A
  8
0
 10
390.0
 20
-149.9999999999999
 30
-2.0
 70
   192
  0
VERTEX
  5
3A8B
  8
0
 10
390.0
 20
-149.9999999999999
 30
-12.0
 70
   192
  0
VERTEX
  5
3A8C
  8
0
 10
209.9999999999999
 20
-149.9999999999999
 30
-12.0
 70
   192
  0
VERTEX
  5
3A8D
  8
0
 10
209.9999999999999
 20
-149.9999999999999
 30
-2.0
 70
   192
  0
VERTEX
  5
3A8E
  8
0
 10
0.0
 20
0.0
 30
0.0
 70
   128
 71
     1
 72
     4
 73
    -3
  0
VERTEX
  5
3A8F
  8
0
 10
0.0
 20
0.0
 30
0.0
 70
   128
 71
    -1
 72
     3
 73
     2
  0
SEQEND
  5
3D83
  8
0
  0
POLYLINE
  5
3A90
  8
0
 66
     1
 10
0.0
 20
0.0
 30
0.0
 70
    64
 71
     8
 72
     6
  0
VERTEX
  5
3A91
  8
0
 10
201.3397459621556
 20
-144.9999999999999
 30
-2.0
 70
   192
  0
VERTEX
  5
3A92
  8
0
 10
201.3397459621556
 20
-144.9999999999999
 30
-12.0
 70
   192
  0
VERTEX
  5
3A93
  8
0
 10
204.9999999999999
 20
-148.6602540378443
 30
-12.0
 70
   192
  0
VERTEX
  5
3A94
  8
0
 10
204.9999999999999
 20
-148.6602540378443
 30
-2.0
 70
   192
  0
VERTEX
  5
3A95
  8
0
 10
200.0
 20
-139.9999999999999
 30
-2.0
 70
   192
  0
VERTEX
  5
3A96
  8
0
 10
199.9999999999999
 20
-139.9999999999999
 30
-12.0
 70
   192
  0
VERTEX
  5
3A97
  8
0
 10
209.9999999999999
 20
-149.9999999999999
 30
-12.0
 70
   192
  0
VERTEX
  5
3A98
  8
0
 10
209.9999999999999
 20
-149.9999999999999
 30
-2.0
 70
   192
  0
VERTEX
  5
3A99
  8
0
 10
0.0
 20
0.0
 30
0.0
 70
   128
 71
     1
 72
     2
 73
    -3
  0
VERTEX
  5
3A9A
  8
0
 10
0.0
 20
0.0
 30
0.0
 70
   128
 71
    -1
 72
     3
 73
     4
  0
VERTEX
  5
3A9B
  8
0
 10
0.0
 20
0.0
 30
0.0
 70
   128
 71
     5
 72
     6
 73
    -2
  0
VERTEX
  5
3A9C
  8
0
 10
0.0
 20
0.0
 30
0.0
 70
   128
 71
    -5
 72
     2
 73
     1
  0
VERTEX
  5
3A9D
  8
0
 10
0.0
 20
0.0
 30
0.0
 70
   128
 71
     4
 72
     3
 73
    -7
  0
VERTEX
  5
3A9E
  8
0
 10
0.0
 20
0.0
 30
0.0
 70
   128
 71
    -4
 72
     7
 73
     8
  0
SEQEND
  5
3D84
  8
0
  0
POLYLINE
  5
3A9F
  8
0
 66
     1
 10
0.0
 20
0.0
 30
0.0
 70
    64
 71
     4
 72
     2
  0
VERTEX
  5
3AA0
  8
0
 10
199.9999999999999
 20
-139.9999999999999
 30
-2.0
 70
   192
  0
VERTEX
  5
3AA1
  8
0
 10
199.9999999999999
 20
-139.9999999999999
 30
-12.0
 70
   192
  0
VERTEX
  5
3AA2
  8
0
 10
199.9999999999999
 20
20.00000000000002
 30
-12.0
 70
   192
  0
VERTEX
  5
3AA3
  8
0
 10
199.9999999999999
 20
20.00000000000002
 30
-2.0
 70
   192
  0
VERTEX
  5
3AA4
  8
0
 10
0.0
 20
0.0
 30
0.0
 70
   128
 71
     1
 72
     4
 73
    -3
  0
VERTEX
  5
3AA5
  8
0
 10
0.0
 20
0.0
 30
0.0
 70
   128
 71
    -1
 72
     3
 73
     2
  0
SEQEND
  5
3D85
  8
0
  0
POLYLINE
  5
3AA6
  8
0
 66
     1
 10
0.0
 20
0.0
 30
0.0
 70
    64
 71
     8
 72
     6
  0
VERTEX
  5
3AA7
  8
0
 10
205.0
 20
28.66025403784441
 30
-2.0
 70
   192
  0
VERTEX
  5
3AA8
  8
0
 10
205.0
 20
28.66025403784441
 30
-12.0
 70
   192
  0
VERTEX
  5
3AA9
  8
0
 10
201.3397459621556
 20
25.00000000000002
 30
-12.0
 70
   192
  0
VERTEX
  5
3AAA
  8
0
 10
201.3397459621556
 20
25.00000000000002
 30
-2.0
 70
   192
  0
VERTEX
  5
3AAB
  8
0
 10
210.0
 20
30.00000000000003
 30
-2.0
 70
   192
  0
VERTEX
  5
3AAC
  8
0
 10
210.0
 20
30.00000000000002
 30
-12.0
 70
   192
  0
VERTEX
  5
3AAD
  8
0
 10
200.0
 20
20.00000000000002
 30
-12.0
 70
   192
  0
VERTEX
  5
3AAE
  8
0
 10
199.9999999999999
 20
20.00000000000002
 30
-2.0
 70
   192
  0
VERTEX
  5
3AAF
  8
0
 10
0.0
 20
0.0
 30
0.0
 70
   128
 71
     1
 72
     2
 73
    -3
  0
VERTEX
  5
3AB0
  8
0
 10
0.0
 20
0.0
 30
0.0
 70
   128
 71
    -1
 72
     3
 73
     4
  0
VERTEX
  5
3AB1
  8
0
 10
0.0
 20
0.0
 30
0.0
 70
   128
 71
     5
 72
     6
 73
    -2
  0
VERTEX
  5
3AB2
  8
0
 10
0.0
 20
0.0
 30
0.0
 70
   128
 71
    -5
 72
     2
 73
     1
  0
VERTEX
  5
3AB3
  8
0
 10
0.0
 20
0.0
 30
0.0
 70
   128
 71
     4
 72
     3
 73
    -7
  0
VERTEX
  5
3AB4
  8
0
 10
0.0
 20
0.0
 30
0.0
 70
   128
 71
    -4
 72
     7
 73
     8
  0
SEQEND
  5
3D86
  8
0
  0
POLYLINE
  5
3AB5
  8
0
 66
     1
 10
0.0
 20
0.0
 30
0.0
 70
    64
 71
     4
 72
     2
  0
VERTEX
  5
3AB6
  8
0
 10
210.0
 20
30.00000000000002
 30
-2.0
 70
   192
  0
VERTEX
  5
3AB7
  8
0
 10
210.0
 20
30.00000000000002
 30
-12.0
 70
   192
  0
VERTEX
  5
3AB8
  8
0
 10
390.0
 20
29.99999999999999
 30
-12.0
 70
   192
  0
VERTEX
  5
3AB9
  8
0
 10
390.0
 20
30.00000000000002
 30
-2.0
 70
   192
  0
VERTEX
  5
3ABA
  8
0
 10
0.0
 20
0.0
 30
0.0
 70
   128
 71
     1
 72
     4
 73
    -3
  0
VERTEX
  5
3ABB
  8
0
 10
0.0
 20
0.0
 30
0.0
 70
   128
 71
    -1
 72
     3
 73
     2
  0
SEQEND
  5
3D87
  8
0
  0
POLYLINE
  5
3ABC
  8
0
 66
     1
 10
0.0
 20
0.0
 30
0.0
 70
    64
 71
     8
 72
     6
  0
VERTEX
  5
3ABD
  8
0
 10
398.6602540378444
 20
25.00000000000002
 30
-2.0
 70
   192
  0
VERTEX
  5
3ABE
  8
0
 10
398.6602540378444
 20
25.00000000000002
 30
-12.0
 70
   192
  0
VERTEX
  5
3ABF
  8
0
 10
395.0
 20
28.6602540378444
 30
-12.0
 70
   192
  0
VERTEX
  5
3AC0
  8
0
 10
395.0
 20
28.6602540378444
 30
-2.0
 70
   192
  0
VERTEX
  5
3AC1
  8
0
 10
400.0
 20
20.00000000000001
 30
-2.0
 70
   192
  0
VERTEX
  5
3AC2
  8
0
 10
399.9999999999999
 20
20.00000000000001
 30
-12.0
 70
   192
  0
VERTEX
  5
3AC3
  8
0
 10
390.0
 20
30.00000000000002
 30
-12.0
 70
   192
  0
VERTEX
  5
3AC4
  8
0
 10
390.0
 20
29.99999999999999
 30
-2.0
 70
   192
  0
VERTEX
  5
3AC5
  8
0
 10
0.0
 20
0.0
 30
0.0
 70
   128
 71
     1
 72
     2
 73
    -3
  0
VERTEX
  5
3AC6
  8
0
 10
0.0
 20
0.0
 30
0.0
 70
   128
 71
    -1
 72
     3
 73
     4
  0
VERTEX
  5
3AC7
  8
0
 10
0.0
 20
0.0
 30
0.0
 70
   128
 71
     5
 72
     6
 73
    -2
  0
VERTEX
  5
3AC8
  8
0
 10
0.0
 20
0.0
 30
0.0
 70
   128
 71
    -5
 72
     2
 73
     1
  0
VERTEX
  5
3AC9
  8
0
 10
0.0
 20
0.0
 30
0.0
 70
   128
 71
     4
 72
     3
 73
    -7
  0
VERTEX
  5
3ACA
  8
0
 10
0.0
 20
0.0
 30
0.0
 70
   128
 71
    -4
 72
     7
 73
     8
  0
SEQEND
  5
3D88
  8
0
  0
POLYLINE
  5
3ACB
  8
0
 66
     1
 10
0.0
 20
0.0
 30
0.0
 70
    64
 71
    12
 72
    12
  0
VERTEX
  5
3ACC
  8
0
 10
399.9999999999999
 20
20.00000000000001
 30
-2.0
 70
   192
  0
VERTEX
  5
3ACD
  8
0
 10
399.9999999999999
 20
20.00000000000001
 30
-12.0
 70
   192
  0
VERTEX
  5
3ACE
  8
0
 10
399.9999999999999
 20
-139.9999999999999
 30
-12.0
 70
   192
  0
VERTEX
  5
3ACF
  8
0
 10
399.9999999999999
 20
-139.9999999999999
 30
-2.0
 70
   192
  0
VERTEX
  5
3AD0
  8
0
 10
399.9999999999998
 20
-23.49999999999998
 30
-7.0
 70
   192
  0
VERTEX
  5
3AD1
  8
0
 10
399.9999999999998
 20
-22.4748737341529
 30
-9.474873734152911
 70
   192
  0
VERTEX
  5
3AD2
  8
0
 10
399.9999999999998
 20
-19.99999999999999
 30
-10.49999999999999
 70
   192
  0
VERTEX
  5
3AD3
  8
0
 10
399.9999999999998
 20
-17.52512626584708
 30
-9.474873734152911
 70
   192
  0
VERTEX
  5
3AD4
  8
0
 10
399.9999999999998
 20
-16.5
 30
-7.0
 70
   192
  0
VERTEX
  5
3AD5
  8
0
 10
399.9999999999998
 20
-17.52512626584708
 30
-4.525126265847089
 70
   192
  0
VERTEX
  5
3AD6
  8
0
 10
399.9999999999998
 20
-19.99999999999999
 30
-3.500000000000006
 70
   192
  0
VERTEX
  5
3AD7
  8
0
 10
399.9999999999998
 20
-22.4748737341529
 30
-4.525126265847089
 70
   192
  0
VERTEX
  5
3AD8
  8
0
 10
0.0
 20
0.0
 30
0.0
 70
   128
 71
     6
 72
    -5
 73
    -3
  0
VERTEX
  5
3AD9
  8
0
 10
0.0
 20
0.0
 30
0.0
 70
   128
 71
    -3
 72
     7
 73
    -6
  0
VERTEX
  5
3ADA
  8
0
 10
0.0
 20
0.0
 30
0.0
 70
   128
 71
     3
 72
    -2
 73
    -7
  0
VERTEX
  5
3ADB
  8
0
 10
0.0
 20
0.0
 30
0.0
 70
   128
 71
    -2
 72
     8
 73
    -7
  0
VERTEX
  5
3ADC
  8
0
 10
0.0
 20
0.0
 30
0.0
 70
   128
 71
     2
 72
    -1
 73
    -9
  0
VERTEX
  5
3ADD
  8
0
 10
0.0
 20
0.0
 30
0.0
 70
   128
 71
    -2
 72
     9
 73
    -8
  0
VERTEX
  5
3ADE
  8
0
 10
0.0
 20
0.0
 30
0.0
 70
   128
 71
    -1
 72
    10
 73
    -9
  0
VERTEX
  5
3ADF
  8
0
 10
0.0
 20
0.0
 30
0.0
 70
   128
 71
    -1
 72
    11
 73
   -10
  0
VERTEX
  5
3AE0
  8
0
 10
0.0
 20
0.0
 30
0.0
 70
   128
 71
   -11
 72
     1
 73
    -4
  0
VERTEX
  5
3AE1
  8
0
 10
0.0
 20
0.0
 30
0.0
 70
   128
 71
    -4
 72
    12
 73
   -11
  0
VERTEX
  5
3AE2
  8
0
 10
0.0
 20
0.0
 30
0.0
 70
   128
 71
     4
 72
    -3
 73
    -5
  0
VERTEX
  5
3AE3
  8
0
 10
0.0
 20
0.0
 30
0.0
 70
   128
 71
    -4
 72
     5
 73
   -12
  0
SEQEND
  5
3D89
  8
0
  0
POLYLINE
  5
3AE4
  8
0
 66
     1
 10
0.0
 20
0.0
 30
0.0
 70
    64
 71
    16
 72
    14
  0
VERTEX
  5
3AE5
  8
0
 10
400.0
 20
-139.9999999999999
 30
-12.0
 70
   192
  0
VERTEX
  5
3AE6
  8
0
 10
398.6602540378444
 20
-144.9999999999999
 30
-12.0
 70
   192
  0
VERTEX
  5
3AE7
  8
0
 10
395.0
 20
-148.6602540378443
 30
-12.0
 70
   192
  0
VERTEX
  5
3AE8
  8
0
 10
390.0
 20
-149.9999999999999
 30
-12.0
 70
   192
  0
VERTEX
  5
3AE9
  8
0
 10
209.9999999999999
 20
-149.9999999999999
 30
-12.0
 70
   192
  0
VERTEX
  5
3AEA
  8
0
 10
204.9999999999999
 20
-148.6602540378443
 30
-12.0
 70
   192
  0
VERTEX
  5
3AEB
  8
0
 10
201.3397459621556
 20
-144.9999999999999
 30
-12.0
 70
   192
  0
VERTEX
  5
3AEC
  8
0
 10
200.0
 20
-139.9999999999999
 30
-12.0
 70
   192
  0
VERTEX
  5
3AED
  8
0
 10
199.9999999999999
 20
20.00000000000002
 30
-12.0
 70
   192
  0
VERTEX
  5
3AEE
  8
0
 10
201.3397459621556
 20
25.00000000000002
 30
-12.0
 70
   192
  0
VERTEX
  5
3AEF
  8
0
 10
205.0
 20
28.66025403784441
 30
-12.0
 70
   192
  0
VERTEX
  5
3AF0
  8
0
 10
210.0
 20
30.00000000000003
 30
-12.0
 70
   192
  0
VERTEX
  5
3AF1
  8
0
 10
390.0
 20
30.00000000000002
 30
-12.0
 70
   192
  0
VERTEX
  5
3AF2
  8
0
 10
395.0
 20
28.6602540378444
 30
-12.0
 70
   192
  0
VERTEX
  5
3AF3
  8
0
 10
398.6602540378444
 20
25.00000000000002
 30
-12.0
 70
   192
  0
VERTEX
  5
3AF4
  8
0
 10
400.0
 20
20.00000000000001
 30
-12.0
 70
   192
  0
VERTEX
  5
3AF5
  8
0
 10
0.0
 20
0.0
 30
0.0
 70
   128
 71
    15
 72
    16
 73
    -1
  0
VERTEX
  5
3AF6
  8
0
 10
0.0
 20
0.0
 30
0.0
 70
   128
 71
    14
 72
   -15
 73
    -1
  0
VERTEX
  5
3AF7
  8
0
 10
0.0
 20
0.0
 30
0.0
 70
   128
 71
    13
 72
   -14
 73
    -1
  0
VERTEX
  5
3AF8
  8
0
 10
0.0
 20
0.0
 30
0.0
 70
   128
 71
    12
 72
   -13
 73
    -1
  0
VERTEX
  5
3AF9
  8
0
 10
0.0
 20
0.0
 30
0.0
 70
   128
 71
    11
 72
   -12
 73
    -1
  0
VERTEX
  5
3AFA
  8
0
 10
0.0
 20
0.0
 30
0.0
 70
   128
 71
    10
 72
   -11
 73
    -1
  0
VERTEX
  5
3AFB
  8
0
 10
0.0
 20
0.0
 30
0.0
 70
   128
 71
     9
 72
   -10
 73
    -1
  0
VERTEX
  5
3AFC
  8
0
 10
0.0
 20
0.0
 30
0.0
 70
   128
 71
     8
 72
    -9
 73
    -1
  0
VERTEX
  5
3AFD
  8
0
 10
0.0
 20
0.0
 30
0.0
 70
   128
 71
     7
 72
    -8
 73
    -1
  0
VERTEX
  5
3AFE
  8
0
 10
0.0
 20
0.0
 30
0.0
 70
   128
 71
     6
 72
    -7
 73
    -1
  0
VERTEX
  5
3AFF
  8
0
 10
0.0
 20
0.0
 30
0.0
 70
   128
 71
     5
 72
    -6
 73
    -1
  0
VERTEX
  5
3B00
  8
0
 10
0.0
 20
0.0
 30
0.0
 70
   128
 71
     4
 72
    -5
 73
    -1
  0
VERTEX
  5
3B01
  8
0
 10
0.0
 20
0.0
 30
0.0
 70
   128
 71
     3
 72
    -4
 73
    -1
  0
VERTEX
  5
3B02
  8
0
 10
0.0
 20
0.0
 30
0.0
 70
   128
 71
     2
 72
    -3
 73
     1
  0
SEQEND
  5
3D8A
  8
0
  0
POLYLINE
  5
3B03
  8
0
 66
     1
 10
0.0
 20
0.0
 30
0.0
 70
    64
 71
    16
 72
    14
  0
VERTEX
  5
3B04
  8
0
 10
390.0
 20
-149.9999999999999
 30
-2.0
 70
   192
  0
VERTEX
  5
3B05
  8
0
 10
209.9999999999999
 20
-149.9999999999999
 30
-2.0
 70
   192
  0
VERTEX
  5
3B06
  8
0
 10
204.9999999999999
 20
-148.6602540378443
 30
-2.0
 70
   192
  0
VERTEX
  5
3B07
  8
0
 10
201.3397459621556
 20
-144.9999999999999
 30
-2.0
 70
   192
  0
VERTEX
  5
3B08
  8
0
 10
199.9999999999999
 20
-139.9999999999999
 30
-2.0
 70
   192
  0
VERTEX
  5
3B09
  8
0
 10
200.0
 20
20.00000000000002
 30
-2.0
 70
   192
  0
VERTEX
  5
3B0A
  8
0
 10
201.3397459621556
 20
25.00000000000002
 30
-2.0
 70
   192
  0
VERTEX
  5
3B0B
  8
0
 10
205.0
 20
28.66025403784441
 30
-2.0
 70
   192
  0
VERTEX
  5
3B0C
  8
0
 10
210.0
 20
30.00000000000002
 30
-2.0
 70
   192
  0
VERTEX
  5
3B0D
  8
0
 10
390.0
 20
30.00000000000002
 30
-2.0
 70
   192
  0
VERTEX
  5
3B0E
  8
0
 10
395.0
 20
28.6602540378444
 30
-2.0
 70
   192
  0
VERTEX
  5
3B0F
  8
0
 10
398.6602540378444
 20
25.00000000000002
 30
-2.0
 70
   192
  0
VERTEX
  5
3B10
  8
0
 10
399.9999999999999
 20
20.00000000000001
 30
-2.0
 70
   192
  0
VERTEX
  5
3B11
  8
0
 10
400.0
 20
-139.9999999999999
 30
-2.0
 70
   192
  0
VERTEX
  5
3B12
  8
0
 10
398.6602540378444
 20
-144.9999999999999
 30
-2.0
 70
   192
  0
VERTEX
  5
3B13
  8
0
 10
395.0
 20
-148.6602540378443
 30
-2.0
 70
   192
  0
VERTEX
  5
3B14
  8
0
 10
0.0
 20
0.0
 30
0.0
 70
   128
 71
     1
 72
    16
 73
   -15
  0
VERTEX
  5
3B15
  8
0
 10
0.0
 20
0.0
 30
0.0
 70
   128
 71
    -1
 72
    15
 73
   -14
  0
VERTEX
  5
3B16
  8
0
 10
0.0
 20
0.0
 30
0.0
 70
   128
 71
    -1
 72
    14
 73
   -13
  0
VERTEX
  5
3B17
  8
0
 10
0.0
 20
0.0
 30
0.0
 70
   128
 71
    -1
 72
    13
 73
   -12
  0
VERTEX
  5
3B18
  8
0
 10
0.0
 20
0.0
 30
0.0
 70
   128
 71
    -1
 72
    12
 73
   -11
  0
VERTEX
  5
3B19
  8
0
 10
0.0
 20
0.0
 30
0.0
 70
   128
 71
    -1
 72
    11
 73
   -10
  0
VERTEX
  5
3B1A
  8
0
 10
0.0
 20
0.0
 30
0.0
 70
   128
 71
    -1
 72
    10
 73
    -9
  0
VERTEX
  5
3B1B
  8
0
 10
0.0
 20
0.0
 30
0.0
 70
   128
 71
    -1
 72
     9
 73
    -8
  0
VERTEX
  5
3B1C
  8
0
 10
0.0
 20
0.0
 30
0.0
 70
   128
 71
    -1
 72
     8
 73
    -7
  0
VERTEX
  5
3B1D
  8
0
 10
0.0
 20
0.0
 30
0.0
 70
   128
 71
    -1
 72
     7
 73
    -6
  0
VERTEX
  5
3B1E
  8
0
 10
0.0
 20
0.0
 30
0.0
 70
   128
 71
    -1
 72
     6
 73
    -5
  0
VERTEX
  5
3B1F
  8
0
 10
0.0
 20
0.0
 30
0.0
 70
   128
 71
    -1
 72
     5
 73
    -4
  0
VERTEX
  5
3B20
  8
0
 10
0.0
 20
0.0
 30
0.0
 70
   128
 71
    -1
 72
     4
 73
    -3
  0
VERTEX
  5
3B21
  8
0
 10
0.0
 20
0.0
 30
0.0
 70
   128
 71
    -1
 72
     3
 73
     2
  0
SEQEND
  5
3D8B
  8
0
  0
POLYLINE
  5
3B22
  8
0
 66
     1
 10
0.0
 20
0.0
 30
0.0
 70
    64
 71
    10
 72
     8
  0
VERTEX
  5
3B23
  8
0
 10
404.9999999999999
 20
-16.5
 30
-7.0
 70
   192
  0
VERTEX
  5
3B24
  8
0
 10
404.9999999999999
 20
-23.49999999999998
 30
-7.0
 70
   192
  0
VERTEX
  5
3B25
  8
0
 10
399.9999999999998
 20
-23.49999999999998
 30
-7.0
 70
   192
  0
VERTEX
  5
3B26
  8
0
 10
399.9999999999998
 20
-16.5
 30
-7.0
 70
   192
  0
VERTEX
  5
3B27
  8
0
 10
399.9999999999998
 20
-19.99999999999999
 30
-10.49999999999999
 70
   192
  0
VERTEX
  5
3B28
  8
0
 10
404.9999999999999
 20
-19.99999999999999
 30
-10.49999999999999
 70
   192
  0
VERTEX
  5
3B29
  8
0
 10
399.9999999999998
 20
-17.52512626584708
 30
-9.474873734152911
 70
   192
  0
VERTEX
  5
3B2A
  8
0
 10
404.9999999999999
 20
-17.52512626584708
 30
-9.474873734152911
 70
   192
  0
VERTEX
  5
3B2B
  8
0
 10
399.9999999999998
 20
-22.4748737341529
 30
-9.474873734152911
 70
   192
  0
VERTEX
  5
3B2C
  8
0
 10
404.9999999999999
 20
-22.4748737341529
 30
-9.474873734152911
 70
   192
  0
VERTEX
  5
3B2D
  8
0
 10
0.0
 20
0.0
 30
0.0
 70
   128
 71
     8
 72
     7
 73
    -4
  0
VERTEX
  5
3B2E
  8
0
 10
0.0
 20
0.0
 30
0.0
 70
   128
 71
    -8
 72
     4
 73
     1
  0
VERTEX
  5
3B2F
  8
0
 10
0.0
 20
0.0
 30
0.0
 70
   128
 71
     6
 72
     5
 73
    -7
  0
VERTEX
  5
3B30
  8
0
 10
0.0
 20
0.0
 30
0.0
 70
   128
 71
    -6
 72
     7
 73
     8
  0
VERTEX
  5
3B31
  8
0
 10
0.0
 20
0.0
 30
0.0
 70
   128
 71
    10
 72
     9
 73
    -5
  0
VERTEX
  5
3B32
  8
0
 10
0.0
 20
0.0
 30
0.0
 70
   128
 71
   -10
 72
     5
 73
     6
  0
VERTEX
  5
3B33
  8
0
 10
0.0
 20
0.0
 30
0.0
 70
   128
 71
     2
 72
     3
 73
    -9
  0
VERTEX
  5
3B34
  8
0
 10
0.0
 20
0.0
 30
0.0
 70
   128
 71
    -2
 72
     9
 73
    10
  0
SEQEND
  5
3D8C
  8
0
  0
POLYLINE
  5
3B35
  8
0
 66
     1
 10
0.0
 20
0.0
 30
0.0
 70
    64
 71
     8
 72
     6
  0
VERTEX
  5
3B36
  8
0
 10
404.9999999999999
 20
-16.5
 30
-7.0
 70
   192
  0
VERTEX
  5
3B37
  8
0
 10
404.9999999999999
 20
-17.52512626584708
 30
-9.474873734152911
 70
   192
  0
VERTEX
  5
3B38
  8
0
 10
404.9999999999999
 20
-19.99999999999999
 30
-10.49999999999999
 70
   192
  0
VERTEX
  5
3B39
  8
0
 10
404.9999999999999
 20
-22.4748737341529
 30
-9.474873734152911
 70
   192
  0
VERTEX
  5
3B3A
  8
0
 10
404.9999999999999
 20
-23.49999999999998
 30
-7.0
 70
   192
  0
VERTEX
  5
3B3B
  8
0
 10
404.9999999999999
 20
-22.4748737341529
 30
-4.525126265847089
 70
   192
  0
VERTEX
  5
3B3C
  8
0
 10
404.9999999999999
 20
-19.99999999999999
 30
-3.500000000000006
 70
   192
  0
VERTEX
  5
3B3D
  8
0
 10
404.9999999999999
 20
-17.52512626584708
 30
-4.525126265847089
 70
   192
  0
VERTEX
  5
3B3E
  8
0
 10
0.0
 20
0.0
 30
0.0
 70
   128
 71
     1
 72
     8
 73
    -7
  0
VERTEX
  5
3B3F
  8
0
 10
0.0
 20
0.0
 30
0.0
 70
   128
 71
    -1
 72
     7
 73
    -6
  0
VERTEX
  5
3B40
  8
0
 10
0.0
 20
0.0
 30
0.0
 70
   128
 71
    -1
 72
     6
 73
    -5
  0
VERTEX
  5
3B41
  8
0
 10
0.0
 20
0.0
 30
0.0
 70
   128
 71
    -1
 72
     5
 73
    -4
  0
VERTEX
  5
3B42
  8
0
 10
0.0
 20
0.0
 30
0.0
 70
   128
 71
    -1
 72
     4
 73
    -3
  0
VERTEX
  5
3B43
  8
0
 10
0.0
 20
0.0
 30
0.0
 70
   128
 71
    -1
 72
     3
 73
     2
  0
SEQEND
  5
3D8D
  8
0
  0
ENDBLK
  5
3D80
  8
0
  0
BLOCK
  8
0
  2
*X5
 70
     1
 10
0.0
 20
0.0
 30
0.0
  3
*X5
  1

  0
POLYLINE
  5
3B45
  8
0
 66
     1
 10
0.0
 20
0.0
 30
0.0
 70
    64
 71
     4
 72
     2
  0
VERTEX
  5
3B46
  8
0
 10
-495.0
 20
-200.0000000000001
 30
-2.0
 70
   192
  0
VERTEX
  5
3B47
  8
0
 10
-495.0
 20
-200.0000000000001
 30
-20.0
 70
   192
  0
VERTEX
  5
3B48
  8
0
 10
-495.0
 20
199.9999999999999
 30
-20.0
 70
   192
  0
VERTEX
  5
3B49
  8
0
 10
-495.0
 20
199.9999999999999
 30
-2.0
 70
   192
  0
VERTEX
  5
3B4A
  8
0
 10
0.0
 20
0.0
 30
0.0
 70
   128
 71
     1
 72
     4
 73
    -3
  0
VERTEX
  5
3B4B
  8
0
 10
0.0
 20
0.0
 30
0.0
 70
   128
 71
    -1
 72
     3
 73
     2
  0
SEQEND
  5
3D90
  8
0
  0
POLYLINE
  5
3B4C
  8
0
 66
     1
 10
0.0
 20
0.0
 30
0.0
 70
    64
 71
     8
 72
     6
  0
VERTEX
  5
3B4D
  8
0
 10
-472.5
 20
238.9711431702997
 30
-2.0
 70
   192
  0
VERTEX
  5
3B4E
  8
0
 10
-472.5
 20
238.9711431702997
 30
-20.0
 70
   192
  0
VERTEX
  5
3B4F
  8
0
 10
-488.9711431702997
 20
222.4999999999999
 30
-20.0
 70
   192
  0
VERTEX
  5
3B50
  8
0
 10
-488.9711431702997
 20
222.4999999999999
 30
-2.0
 70
   192
  0
VERTEX
  5
3B51
  8
0
 10
-450.0
 20
244.9999999999999
 30
-2.0
 70
   192
  0
VERTEX
  5
3B52
  8
0
 10
-450.0
 20
244.9999999999999
 30
-20.0
 70
   192
  0
VERTEX
  5
3B53
  8
0
 10
-495.0
 20
199.9999999999999
 30
-20.0
 70
   192
  0
VERTEX
  5
3B54
  8
0
 10
-495.0
 20
199.9999999999999
 30
-2.0
 70
   192
  0
VERTEX
  5
3B55
  8
0
 10
0.0
 20
0.0
 30
0.0
 70
   128
 71
     1
 72
     2
 73
    -3
  0
VERTEX
  5
3B56
  8
0
 10
0.0
 20
0.0
 30
0.0
 70
   128
 71
    -1
 72
     3
 73
     4
  0
VERTEX
  5
3B57
  8
0
 10
0.0
 20
0.0
 30
0.0
 70
   128
 71
     5
 72
     6
 73
    -2
  0
VERTEX
  5
3B58
  8
0
 10
0.0
 20
0.0
 30
0.0
 70
   128
 71
    -5
 72
     2
 73
     1
  0
VERTEX
  5
3B59
  8
0
 10
0.0
 20
0.0
 30
0.0
 70
   128
 71
     4
 72
     3
 73
    -7
  0
VERTEX
  5
3B5A
  8
0
 10
0.0
 20
0.0
 30
0.0
 70
   128
 71
    -4
 72
     7
 73
     8
  0
SEQEND
  5
3D91
  8
0
  0
POLYLINE
  5
3B5B
  8
0
 66
     1
 10
0.0
 20
0.0
 30
0.0
 70
    64
 71
     4
 72
     2
  0
VERTEX
  5
3B5C
  8
0
 10
-450.0
 20
244.9999999999999
 30
-2.0
 70
   192
  0
VERTEX
  5
3B5D
  8
0
 10
-450.0
 20
244.9999999999999
 30
-20.0
 70
   192
  0
VERTEX
  5
3B5E
  8
0
 10
450.0
 20
245.0000000000001
 30
-20.0
 70
   192
  0
VERTEX
  5
3B5F
  8
0
 10
450.0
 20
245.0000000000001
 30
-2.0
 70
   192
  0
VERTEX
  5
3B60
  8
0
 10
0.0
 20
0.0
 30
0.0
 70
   128
 71
     1
 72
     4
 73
    -3
  0
VERTEX
  5
3B61
  8
0
 10
0.0
 20
0.0
 30
0.0
 70
   128
 71
    -1
 72
     3
 73
     2
  0
SEQEND
  5
3D92
  8
0
  0
POLYLINE
  5
3B62
  8
0
 66
     1
 10
0.0
 20
0.0
 30
0.0
 70
    64
 71
     8
 72
     6
  0
VERTEX
  5
3B63
  8
0
 10
488.9711431702997
 20
222.5000000000001
 30
-2.0
 70
   192
  0
VERTEX
  5
3B64
  8
0
 10
488.9711431702997
 20
222.5000000000001
 30
-20.0
 70
   192
  0
VERTEX
  5
3B65
  8
0
 10
472.5
 20
238.9711431702998
 30
-20.0
 70
   192
  0
VERTEX
  5
3B66
  8
0
 10
472.5
 20
238.9711431702998
 30
-2.0
 70
   192
  0
VERTEX
  5
3B67
  8
0
 10
495.0
 20
200.0000000000001
 30
-2.0
 70
   192
  0
VERTEX
  5
3B68
  8
0
 10
495.0
 20
200.0000000000001
 30
-20.0
 70
   192
  0
VERTEX
  5
3B69
  8
0
 10
450.0
 20
245.0000000000001
 30
-20.0
 70
   192
  0
VERTEX
  5
3B6A
  8
0
 10
450.0
 20
245.0000000000001
 30
-2.0
 70
   192
  0
VERTEX
  5
3B6B
  8
0
 10
0.0
 20
0.0
 30
0.0
 70
   128
 71
     1
 72
     2
 73
    -3
  0
VERTEX
  5
3B6C
  8
0
 10
0.0
 20
0.0
 30
0.0
 70
   128
 71
    -1
 72
     3
 73
     4
  0
VERTEX
  5
3B6D
  8
0
 10
0.0
 20
0.0
 30
0.0
 70
   128
 71
     5
 72
     6
 73
    -2
  0
VERTEX
  5
3B6E
  8
0
 10
0.0
 20
0.0
 30
0.0
 70
   128
 71
    -5
 72
     2
 73
     1
  0
VERTEX
  5
3B6F
  8
0
 10
0.0
 20
0.0
 30
0.0
 70
   128
 71
     4
 72
     3
 73
    -7
  0
VERTEX
  5
3B70
  8
0
 10
0.0
 20
0.0
 30
0.0
 70
   128
 71
    -4
 72
     7
 73
     8
  0
SEQEND
  5
3D93
  8
0
  0
POLYLINE
  5
3B71
  8
0
 66
     1
 10
0.0
 20
0.0
 30
0.0
 70
    64
 71
     4
 72
     2
  0
VERTEX
  5
3B72
  8
0
 10
495.0
 20
200.0000000000001
 30
-2.0
 70
   192
  0
VERTEX
  5
3B73
  8
0
 10
495.0
 20
200.0000000000001
 30
-20.0
 70
   192
  0
VERTEX
  5
3B74
  8
0
 10
495.0
 20
-199.9999999999999
 30
-20.0
 70
   192
  0
VERTEX
  5
3B75
  8
0
 10
495.0
 20
-199.9999999999999
 30
-2.0
 70
   192
  0
VERTEX
  5
3B76
  8
0
 10
0.0
 20
0.0
 30
0.0
 70
   128
 71
     1
 72
     4
 73
    -3
  0
VERTEX
  5
3B77
  8
0
 10
0.0
 20
0.0
 30
0.0
 70
   128
 71
    -1
 72
     3
 73
     2
  0
SEQEND
  5
3D94
  8
0
  0
POLYLINE
  5
3B78
  8
0
 66
     1
 10
0.0
 20
0.0
 30
0.0
 70
    64
 71
     8
 72
     6
  0
VERTEX
  5
3B79
  8
0
 10
472.5
 20
-238.9711431702997
 30
-2.0
 70
   192
  0
VERTEX
  5
3B7A
  8
0
 10
472.5
 20
-238.9711431702997
 30
-20.0
 70
   192
  0
VERTEX
  5
3B7B
  8
0
 10
488.9711431702997
 20
-222.4999999999999
 30
-20.0
 70
   192
  0
VERTEX
  5
3B7C
  8
0
 10
488.9711431702997
 20
-222.4999999999999
 30
-2.0
 70
   192
  0
VERTEX
  5
3B7D
  8
0
 10
450.0
 20
-244.9999999999999
 30
-2.0
 70
   192
  0
VERTEX
  5
3B7E
  8
0
 10
450.0
 20
-244.9999999999999
 30
-20.0
 70
   192
  0
VERTEX
  5
3B7F
  8
0
 10
495.0
 20
-199.9999999999999
 30
-20.0
 70
   192
  0
VERTEX
  5
3B80
  8
0
 10
495.0
 20
-199.9999999999999
 30
-2.0
 70
   192
  0
VERTEX
  5
3B81
  8
0
 10
0.0
 20
0.0
 30
0.0
 70
   128
 71
     1
 72
     2
 73
    -3
  0
VERTEX
  5
3B82
  8
0
 10
0.0
 20
0.0
 30
0.0
 70
   128
 71
    -1
 72
     3
 73
     4
  0
VERTEX
  5
3B83
  8
0
 10
0.0
 20
0.0
 30
0.0
 70
   128
 71
     5
 72
     6
 73
    -2
  0
VERTEX
  5
3B84
  8
0
 10
0.0
 20
0.0
 30
0.0
 70
   128
 71
    -5
 72
     2
 73
     1
  0
VERTEX
  5
3B85
  8
0
 10
0.0
 20
0.0
 30
0.0
 70
   128
 71
     4
 72
     3
 73
    -7
  0
VERTEX
  5
3B86
  8
0
 10
0.0
 20
0.0
 30
0.0
 70
   128
 71
    -4
 72
     7
 73
     8
  0
SEQEND
  5
3D95
  8
0
  0
POLYLINE
  5
3B87
  8
0
 66
     1
 10
0.0
 20
0.0
 30
0.0
 70
    64
 71
     4
 72
     2
  0
VERTEX
  5
3B88
  8
0
 10
450.0
 20
-244.9999999999999
 30
-2.0
 70
   192
  0
VERTEX
  5
3B89
  8
0
 10
450.0
 20
-244.9999999999999
 30
-20.0
 70
   192
  0
VERTEX
  5
3B8A
  8
0
 10
-450.0000000000001
 20
-245.0000000000001
 30
-20.0
 70
   192
  0
VERTEX
  5
3B8B
  8
0
 10
-450.0000000000001
 20
-245.0000000000001
 30
-2.0
 70
   192
  0
VERTEX
  5
3B8C
  8
0
 10
0.0
 20
0.0
 30
0.0
 70
   128
 71
     1
 72
     4
 73
    -3
  0
VERTEX
  5
3B8D
  8
0
 10
0.0
 20
0.0
 30
0.0
 70
   128
 71
    -1
 72
     3
 73
     2
  0
SEQEND
  5
3D96
  8
0
  0
POLYLINE
  5
3B8E
  8
0
 66
     1
 10
0.0
 20
0.0
 30
0.0
 70
    64
 71
     4
 72
     2
  0
VERTEX
  5
3B8F
  8
0
 10
430.0
 20
180.0000000000001
 30
-2.0
 70
   192
  0
VERTEX
  5
3B90
  8
0
 10
-430.0
 20
179.9999999999999
 30
-2.0
 70
   192
  0
VERTEX
  5
3B91
  8
0
 10
-430.0
 20
179.9999999999999
 30
-20.0
 70
   192
  0
VERTEX
  5
3B92
  8
0
 10
430.0
 20
180.0000000000001
 30
-20.0
 70
   192
  0
VERTEX
  5
3B93
  8
0
 10
0.0
 20
0.0
 30
0.0
 70
   128
 71
     3
 72
     4
 73
    -1
  0
VERTEX
  5
3B94
  8
0
 10
0.0
 20
0.0
 30
0.0
 70
   128
 71
     2
 72
    -3
 73
     1
  0
SEQEND
  5
3D97
  8
0
  0
POLYLINE
  5
3B95
  8
0
 66
     1
 10
0.0
 20
0.0
 30
0.0
 70
    64
 71
     4
 72
     2
  0
VERTEX
  5
3B96
  8
0
 10
-430.0
 20
179.9999999999999
 30
-2.0
 70
   192
  0
VERTEX
  5
3B97
  8
0
 10
-430.0
 20
-180.0000000000001
 30
-2.0
 70
   192
  0
VERTEX
  5
3B98
  8
0
 10
-430.0
 20
-180.0000000000001
 30
-20.0
 70
   192
  0
VERTEX
  5
3B99
  8
0
 10
-430.0
 20
179.9999999999999
 30
-20.0
 70
   192
  0
VERTEX
  5
3B9A
  8
0
 10
0.0
 20
0.0
 30
0.0
 70
   128
 71
     3
 72
     4
 73
    -1
  0
VERTEX
  5
3B9B
  8
0
 10
0.0
 20
0.0
 30
0.0
 70
   128
 71
     2
 72
    -3
 73
     1
  0
SEQEND
  5
3D98
  8
0
  0
POLYLINE
  5
3B9C
  8
0
 66
     1
 10
0.0
 20
0.0
 30
0.0
 70
    64
 71
     4
 72
     2
  0
VERTEX
  5
3B9D
  8
0
 10
-430.0
 20
-180.0000000000001
 30
-2.0
 70
   192
  0
VERTEX
  5
3B9E
  8
0
 10
430.0
 20
-179.9999999999999
 30
-2.0
 70
   192
  0
VERTEX
  5
3B9F
  8
0
 10
430.0
 20
-179.9999999999999
 30
-20.0
 70
   192
  0
VERTEX
  5
3BA0
  8
0
 10
-430.0
 20
-180.0000000000001
 30
-20.0
 70
   192
  0
VERTEX
  5
3BA1
  8
0
 10
0.0
 20
0.0
 30
0.0
 70
   128
 71
     3
 72
     4
 73
    -1
  0
VERTEX
  5
3BA2
  8
0
 10
0.0
 20
0.0
 30
0.0
 70
   128
 71
     2
 72
    -3
 73
     1
  0
SEQEND
  5
3D99
  8
0
  0
POLYLINE
  5
3BA3
  8
0
 66
     1
 10
0.0
 20
0.0
 30
0.0
 70
    64
 71
     4
 72
     2
  0
VERTEX
  5
3BA4
  8
0
 10
430.0
 20
-179.9999999999999
 30
-2.0
 70
   192
  0
VERTEX
  5
3BA5
  8
0
 10
430.0
 20
180.0000000000001
 30
-2.0
 70
   192
  0
VERTEX
  5
3BA6
  8
0
 10
430.0
 20
180.0000000000001
 30
-20.0
 70
   192
  0
VERTEX
  5
3BA7
  8
0
 10
430.0
 20
-179.9999999999999
 30
-20.0
 70
   192
  0
VERTEX
  5
3BA8
  8
0
 10
0.0
 20
0.0
 30
0.0
 70
   128
 71
     3
 72
     4
 73
    -1
  0
VERTEX
  5
3BA9
  8
0
 10
0.0
 20
0.0
 30
0.0
 70
   128
 71
     2
 72
    -3
 73
     1
  0
SEQEND
  5
3D9A
  8
0
  0
POLYLINE
  5
3BAA
  8
0
 66
     1
 10
0.0
 20
0.0
 30
0.0
 70
    64
 71
     8
 72
     6
  0
VERTEX
  5
3BAB
  8
0
 10
-488.9711431702997
 20
-222.5
 30
-2.0
 70
   192
  0
VERTEX
  5
3BAC
  8
0
 10
-488.9711431702997
 20
-222.5
 30
-20.0
 70
   192
  0
VERTEX
  5
3BAD
  8
0
 10
-472.5000000000001
 20
-238.9711431702997
 30
-20.0
 70
   192
  0
VERTEX
  5
3BAE
  8
0
 10
-472.5000000000001
 20
-238.9711431702997
 30
-2.0
 70
   192
  0
VERTEX
  5
3BAF
  8
0
 10
-495.0
 20
-200.0000000000001
 30
-2.0
 70
   192
  0
VERTEX
  5
3BB0
  8
0
 10
-495.0
 20
-200.0000000000001
 30
-20.0
 70
   192
  0
VERTEX
  5
3BB1
  8
0
 10
-450.0000000000001
 20
-245.0000000000001
 30
-20.0
 70
   192
  0
VERTEX
  5
3BB2
  8
0
 10
-450.0000000000001
 20
-245.0000000000001
 30
-2.0
 70
   192
  0
VERTEX
  5
3BB3
  8
0
 10
0.0
 20
0.0
 30
0.0
 70
   128
 71
     1
 72
     2
 73
    -3
  0
VERTEX
  5
3BB4
  8
0
 10
0.0
 20
0.0
 30
0.0
 70
   128
 71
    -1
 72
     3
 73
     4
  0
VERTEX
  5
3BB5
  8
0
 10
0.0
 20
0.0
 30
0.0
 70
   128
 71
     5
 72
     6
 73
    -2
  0
VERTEX
  5
3BB6
  8
0
 10
0.0
 20
0.0
 30
0.0
 70
   128
 71
    -5
 72
     2
 73
     1
  0
VERTEX
  5
3BB7
  8
0
 10
0.0
 20
0.0
 30
0.0
 70
   128
 71
     4
 72
     3
 73
    -7
  0
VERTEX
  5
3BB8
  8
0
 10
0.0
 20
0.0
 30
0.0
 70
   128
 71
    -4
 72
     7
 73
     8
  0
SEQEND
  5
3D9B
  8
0
  0
POLYLINE
  5
3BB9
  8
0
 66
     1
 10
0.0
 20
0.0
 30
0.0
 70
    64
 71
    20
 72
    20
  0
VERTEX
  5
3BBA
  8
0
 10
-495.0
 20
-200.0000000000001
 30
-20.0
 70
   192
  0
VERTEX
  5
3BBB
  8
0
 10
-495.0
 20
199.9999999999999
 30
-20.0
 70
   192
  0
VERTEX
  5
3BBC
  8
0
 10
-488.9711431702997
 20
222.4999999999999
 30
-20.0
 70
   192
  0
VERTEX
  5
3BBD
  8
0
 10
-472.5
 20
238.9711431702997
 30
-20.0
 70
   192
  0
VERTEX
  5
3BBE
  8
0
 10
-450.0
 20
244.9999999999999
 30
-20.0
 70
   192
  0
VERTEX
  5
3BBF
  8
0
 10
450.0
 20
245.0000000000001
 30
-20.0
 70
   192
  0
VERTEX
  5
3BC0
  8
0
 10
472.5
 20
238.9711431702998
 30
-20.0
 70
   192
  0
VERTEX
  5
3BC1
  8
0
 10
488.9711431702997
 20
222.5000000000001
 30
-20.0
 70
   192
  0
VERTEX
  5
3BC2
  8
0
 10
495.0
 20
200.0000000000001
 30
-20.0
 70
   192
  0
VERTEX
  5
3BC3
  8
0
 10
495.0
 20
-199.9999999999999
 30
-20.0
 70
   192
  0
VERTEX
  5
3BC4
  8
0
 10
488.9711431702997
 20
-222.4999999999999
 30
-20.0
 70
   192
  0
VERTEX
  5
3BC5
  8
0
 10
472.5
 20
-238.9711431702997
 30
-20.0
 70
   192
  0
VERTEX
  5
3BC6
  8
0
 10
450.0
 20
-244.9999999999999
 30
-20.0
 70
   192
  0
VERTEX
  5
3BC7
  8
0
 10
-450.0000000000001
 20
-245.0000000000001
 30
-20.0
 70
   192
  0
VERTEX
  5
3BC8
  8
0
 10
-472.5000000000001
 20
-238.9711431702997
 30
-20.0
 70
   192
  0
VERTEX
  5
3BC9
  8
0
 10
-488.9711431702997
 20
-222.5
 30
-20.0
 70
   192
  0
VERTEX
  5
3BCA
  8
0
 10
430.0
 20
180.0000000000001
 30
-20.0
 70
   192
  0
VERTEX
  5
3BCB
  8
0
 10
-430.0
 20
179.9999999999999
 30
-20.0
 70
   192
  0
VERTEX
  5
3BCC
  8
0
 10
-430.0
 20
-180.0000000000001
 30
-20.0
 70
   192
  0
VERTEX
  5
3BCD
  8
0
 10
430.0
 20
-179.9999999999999
 30
-20.0
 70
   192
  0
VERTEX
  5
3BCE
  8
0
 10
0.0
 20
0.0
 30
0.0
 70
   128
 71
    -9
 72
    17
 73
   -18
  0
VERTEX
  5
3BCF
  8
0
 10
0.0
 20
0.0
 30
0.0
 70
   128
 71
     8
 72
    -9
 73
   -18
  0
VERTEX
  5
3BD0
  8
0
 10
0.0
 20
0.0
 30
0.0
 70
   128
 71
     7
 72
    -8
 73
   -18
  0
VERTEX
  5
3BD1
  8
0
 10
0.0
 20
0.0
 30
0.0
 70
   128
 71
     6
 72
    -7
 73
   -18
  0
VERTEX
  5
3BD2
  8
0
 10
0.0
 20
0.0
 30
0.0
 70
   128
 71
     5
 72
    -6
 73
   -18
  0
VERTEX
  5
3BD3
  8
0
 10
0.0
 20
0.0
 30
0.0
 70
   128
 71
     4
 72
    -5
 73
   -18
  0
VERTEX
  5
3BD4
  8
0
 10
0.0
 20
0.0
 30
0.0
 70
   128
 71
     3
 72
    -4
 73
   -18
  0
VERTEX
  5
3BD5
  8
0
 10
0.0
 20
0.0
 30
0.0
 70
   128
 71
     2
 72
    -3
 73
   -18
  0
VERTEX
  5
3BD6
  8
0
 10
0.0
 20
0.0
 30
0.0
 70
   128
 71
   -19
 72
     1
 73
    -2
  0
VERTEX
  5
3BD7
  8
0
 10
0.0
 20
0.0
 30
0.0
 70
   128
 71
    18
 72
   -19
 73
    -2
  0
VERTEX
  5
3BD8
  8
0
 10
0.0
 20
0.0
 30
0.0
 70
   128
 71
    15
 72
    16
 73
    -1
  0
VERTEX
  5
3BD9
  8
0
 10
0.0
 20
0.0
 30
0.0
 70
   128
 71
    14
 72
   -15
 73
    -1
  0
VERTEX
  5
3BDA
  8
0
 10
0.0
 20
0.0
 30
0.0
 70
   128
 71
    13
 72
   -14
 73
    -1
  0
VERTEX
  5
3BDB
  8
0
 10
0.0
 20
0.0
 30
0.0
 70
   128
 71
    12
 72
   -13
 73
    -1
  0
VERTEX
  5
3BDC
  8
0
 10
0.0
 20
0.0
 30
0.0
 70
   128
 71
    11
 72
   -12
 73
    -1
  0
VERTEX
  5
3BDD
  8
0
 10
0.0
 20
0.0
 30
0.0
 70
   128
 71
    10
 72
   -11
 73
    -1
  0
VERTEX
  5
3BDE
  8
0
 10
0.0
 20
0.0
 30
0.0
 70
   128
 71
   -20
 72
   -10
 73
    -1
  0
VERTEX
  5
3BDF
  8
0
 10
0.0
 20
0.0
 30
0.0
 70
   128
 71
    19
 72
   -20
 73
    -1
  0
VERTEX
  5
3BE0
  8
0
 10
0.0
 20
0.0
 30
0.0
 70
   128
 71
   -17
 72
     9
 73
   -10
  0
VERTEX
  5
3BE1
  8
0
 10
0.0
 20
0.0
 30
0.0
 70
   128
 71
    20
 72
   -17
 73
   -10
  0
SEQEND
  5
3D9C
  8
0
  0
POLYLINE
  5
3BE2
  8
0
 66
     1
 10
0.0
 20
0.0
 30
0.0
 70
    64
 71
    20
 72
    20
  0
VERTEX
  5
3BE3
  8
0
 10
-495.0
 20
199.9999999999999
 30
-2.0
 70
   192
  0
VERTEX
  5
3BE4
  8
0
 10
-488.9711431702997
 20
222.4999999999999
 30
-2.0
 70
   192
  0
VERTEX
  5
3BE5
  8
0
 10
-472.5
 20
238.9711431702997
 30
-2.0
 70
   192
  0
VERTEX
  5
3BE6
  8
0
 10
-450.0
 20
244.9999999999999
 30
-2.0
 70
   192
  0
VERTEX
  5
3BE7
  8
0
 10
450.0
 20
245.0000000000001
 30
-2.0
 70
   192
  0
VERTEX
  5
3BE8
  8
0
 10
472.5
 20
238.9711431702998
 30
-2.0
 70
   192
  0
VERTEX
  5
3BE9
  8
0
 10
488.9711431702997
 20
222.5000000000001
 30
-2.0
 70
   192
  0
VERTEX
  5
3BEA
  8
0
 10
495.0
 20
200.0000000000001
 30
-2.0
 70
   192
  0
VERTEX
  5
3BEB
  8
0
 10
495.0
 20
-199.9999999999999
 30
-2.0
 70
   192
  0
VERTEX
  5
3BEC
  8
0
 10
488.9711431702997
 20
-222.4999999999999
 30
-2.0
 70
   192
  0
VERTEX
  5
3BED
  8
0
 10
472.5
 20
-238.9711431702997
 30
-2.0
 70
   192
  0
VERTEX
  5
3BEE
  8
0
 10
450.0
 20
-244.9999999999999
 30
-2.0
 70
   192
  0
VERTEX
  5
3BEF
  8
0
 10
-450.0000000000001
 20
-245.0000000000001
 30
-2.0
 70
   192
  0
VERTEX
  5
3BF0
  8
0
 10
-472.5000000000001
 20
-238.9711431702997
 30
-2.0
 70
   192
  0
VERTEX
  5
3BF1
  8
0
 10
-488.9711431702997
 20
-222.5
 30
-2.0
 70
   192
  0
VERTEX
  5
3BF2
  8
0
 10
-495.0
 20
-200.0000000000001
 30
-2.0
 70
   192
  0
VERTEX
  5
3BF3
  8
0
 10
-430.0
 20
179.9999999999999
 30
-2.0
 70
   192
  0
VERTEX
  5
3BF4
  8
0
 10
-430.0
 20
-180.0000000000001
 30
-2.0
 70
   192
  0
VERTEX
  5
3BF5
  8
0
 10
430.0
 20
-179.9999999999999
 30
-2.0
 70
   192
  0
VERTEX
  5
3BF6
  8
0
 10
430.0
 20
180.0000000000001
 30
-2.0
 70
   192
  0
VERTEX
  5
3BF7
  8
0
 10
0.0
 20
0.0
 30
0.0
 70
   128
 71
    18
 72
   -17
 73
    -1
  0
VERTEX
  5
3BF8
  8
0
 10
0.0
 20
0.0
 30
0.0
 70
   128
 71
   -18
 72
     1
 73
   -16
  0
VERTEX
  5
3BF9
  8
0
 10
0.0
 20
0.0
 30
0.0
 70
   128
 71
    16
 72
    15
 73
   -14
  0
VERTEX
  5
3BFA
  8
0
 10
0.0
 20
0.0
 30
0.0
 70
   128
 71
   -16
 72
    14
 73
   -13
  0
VERTEX
  5
3BFB
  8
0
 10
0.0
 20
0.0
 30
0.0
 70
   128
 71
   -16
 72
    13
 73
   -12
  0
VERTEX
  5
3BFC
  8
0
 10
0.0
 20
0.0
 30
0.0
 70
   128
 71
   -16
 72
    12
 73
   -11
  0
VERTEX
  5
3BFD
  8
0
 10
0.0
 20
0.0
 30
0.0
 70
   128
 71
   -16
 72
    11
 73
   -10
  0
VERTEX
  5
3BFE
  8
0
 10
0.0
 20
0.0
 30
0.0
 70
   128
 71
   -16
 72
    10
 73
    -9
  0
VERTEX
  5
3BFF
  8
0
 10
0.0
 20
0.0
 30
0.0
 70
   128
 71
   -16
 72
    -9
 73
   -19
  0
VERTEX
  5
3C00
  8
0
 10
0.0
 20
0.0
 30
0.0
 70
   128
 71
   -16
 72
    19
 73
   -18
  0
VERTEX
  5
3C01
  8
0
 10
0.0
 20
0.0
 30
0.0
 70
   128
 71
     9
 72
    -8
 73
   -20
  0
VERTEX
  5
3C02
  8
0
 10
0.0
 20
0.0
 30
0.0
 70
   128
 71
    -9
 72
    20
 73
   -19
  0
VERTEX
  5
3C03
  8
0
 10
0.0
 20
0.0
 30
0.0
 70
   128
 71
     8
 72
     7
 73
    -6
  0
VERTEX
  5
3C04
  8
0
 10
0.0
 20
0.0
 30
0.0
 70
   128
 71
    -8
 72
     6
 73
    -5
  0
VERTEX
  5
3C05
  8
0
 10
0.0
 20
0.0
 30
0.0
 70
   128
 71
    -8
 72
     5
 73
    -4
  0
VERTEX
  5
3C06
  8
0
 10
0.0
 20
0.0
 30
0.0
 70
   128
 71
    -8
 72
     4
 73
    -3
  0
VERTEX
  5
3C07
  8
0
 10
0.0
 20
0.0
 30
0.0
 70
   128
 71
    -8
 72
     3
 73
    -2
  0
VERTEX
  5
3C08
  8
0
 10
0.0
 20
0.0
 30
0.0
 70
   128
 71
    -8
 72
     2
 73
    -1
  0
VERTEX
  5
3C09
  8
0
 10
0.0
 20
0.0
 30
0.0
 70
   128
 71
    -8
 72
    -1
 73
   -17
  0
VERTEX
  5
3C0A
  8
0
 10
0.0
 20
0.0
 30
0.0
 70
   128
 71
    -8
 72
    17
 73
   -20
  0
SEQEND
  5
3D9D
  8
0
  0
ENDBLK
  5
3D8F
  8
0
  0
BLOCK
  8
0
  2
*X6
 70
     1
 10
0.0
 20
0.0
 30
0.0
  3
*X6
  1

  0
POLYLINE
  5
3C0C
  8
0
 66
     1
 10
0.0
 20
0.0
 30
0.0
 70
    64
 71
     6
 72
     4
  0
VERTEX
  5
3C0D
  8
0
 10
-357.0200000000006
 20
101.9999999999996
 30
-12.0
 70
   192
  0
VERTEX
  5
3C0E
  8
0
 10
-357.0200000000003
 20
67.99999999999962
 30
-12.0
 70
   192
  0
VERTEX
  5
3C0F
  8
0
 10
-357.0200000000002
 20
67.99999999999962
 30
-5.0
 70
   192
  0
VERTEX
  5
3C10
  8
0
 10
-357.0200000000002
 20
64.99999999999962
 30
-5.0
 70
   192
  0
VERTEX
  5
3C11
  8
0
 10
-357.0200000000002
 20
64.99999999999962
 30
-15.0
 70
   192
  0
VERTEX
  5
3C12
  8
0
 10
-357.0200000000006
 20
101.9999999999996
 30
-15.0
 70
   192
  0
VERTEX
  5
3C13
  8
0
 10
0.0
 20
0.0
 30
0.0
 70
   128
 71
     6
 72
     1
 73
    -2
  0
VERTEX
  5
3C14
  8
0
 10
0.0
 20
0.0
 30
0.0
 70
   128
 71
     5
 72
    -6
 73
    -2
  0
VERTEX
  5
3C15
  8
0
 10
0.0
 20
0.0
 30
0.0
 70
   128
 71
     3
 72
     4
 73
    -5
  0
VERTEX
  5
3C16
  8
0
 10
0.0
 20
0.0
 30
0.0
 70
   128
 71
     2
 72
    -3
 73
    -5
  0
SEQEND
  5
3DA0
  8
0
  0
POLYLINE
  5
3C17
  8
0
 66
     1
 10
0.0
 20
0.0
 30
0.0
 70
    64
 71
     8
 72
     6
  0
VERTEX
  5
3C18
  8
0
 10
-357.0200000000002
 20
64.99999999999962
 30
-5.0
 70
   192
  0
VERTEX
  5
3C19
  8
0
 10
-357.0200000000003
 20
67.99999999999962
 30
-5.0
 70
   192
  0
VERTEX
  5
3C1A
  8
0
 10
-379.0200000000002
 20
67.99999999999955
 30
-5.0
 70
   192
  0
VERTEX
  5
3C1B
  8
0
 10
-379.0200000000005
 20
141.9999999999995
 30
-5.0
 70
   192
  0
VERTEX
  5
3C1C
  8
0
 10
-357.0200000000004
 20
141.9999999999996
 30
-5.0
 70
   192
  0
VERTEX
  5
3C1D
  8
0
 10
-357.0200000000005
 20
144.9999999999996
 30
-5.0
 70
   192
  0
VERTEX
  5
3C1E
  8
0
 10
-322.0200000000005
 20
144.9999999999997
 30
-5.0
 70
   192
  0
VERTEX
  5
3C1F
  8
0
 10
-322.0200000000002
 20
64.99999999999973
 30
-5.0
 70
   192
  0
VERTEX
  5
3C20
  8
0
 10
0.0
 20
0.0
 30
0.0
 70
   128
 71
    -5
 72
     1
 73
    -2
  0
VERTEX
  5
3C21
  8
0
 10
0.0
 20
0.0
 30
0.0
 70
   128
 71
     3
 72
     4
 73
    -5
  0
VERTEX
  5
3C22
  8
0
 10
0.0
 20
0.0
 30
0.0
 70
   128
 71
     2
 72
    -3
 73
    -5
  0
VERTEX
  5
3C23
  8
0
 10
0.0
 20
0.0
 30
0.0
 70
   128
 71
     7
 72
     8
 73
    -1
  0
VERTEX
  5
3C24
  8
0
 10
0.0
 20
0.0
 30
0.0
 70
   128
 71
    -5
 72
    -7
 73
    -1
  0
VERTEX
  5
3C25
  8
0
 10
0.0
 20
0.0
 30
0.0
 70
   128
 71
     5
 72
     6
 73
    -7
  0
SEQEND
  5
3DA1
  8
0
  0
POLYLINE
  5
3C26
  8
0
 66
     1
 10
0.0
 20
0.0
 30
0.0
 70
    64
 71
     4
 72
     2
  0
VERTEX
  5
3C27
  8
0
 10
-382.0200000000002
 20
64.99999999999953
 30
-2.0
 70
   192
  0
VERTEX
  5
3C28
  8
0
 10
-382.0200000000002
 20
64.99999999999953
 30
-15.0
 70
   192
  0
VERTEX
  5
3C29
  8
0
 10
-382.0200000000005
 20
144.9999999999995
 30
-15.0
 70
   192
  0
VERTEX
  5
3C2A
  8
0
 10
-382.0200000000005
 20
144.9999999999995
 30
-2.0
 70
   192
  0
VERTEX
  5
3C2B
  8
0
 10
0.0
 20
0.0
 30
0.0
 70
   128
 71
     1
 72
     4
 73
    -3
  0
VERTEX
  5
3C2C
  8
0
 10
0.0
 20
0.0
 30
0.0
 70
   128
 71
    -1
 72
     3
 73
     2
  0
SEQEND
  5
3DA2
  8
0
  0
POLYLINE
  5
3C2D
  8
0
 66
     1
 10
0.0
 20
0.0
 30
0.0
 70
    64
 71
     6
 72
     4
  0
VERTEX
  5
3C2E
  8
0
 10
-382.0200000000005
 20
144.9999999999995
 30
-2.0
 70
   192
  0
VERTEX
  5
3C2F
  8
0
 10
-382.0200000000006
 20
144.9999999999995
 30
-15.0
 70
   192
  0
VERTEX
  5
3C30
  8
0
 10
-357.0200000000004
 20
144.9999999999996
 30
-15.0
 70
   192
  0
VERTEX
  5
3C31
  8
0
 10
-357.0200000000004
 20
144.9999999999996
 30
-5.0
 70
   192
  0
VERTEX
  5
3C32
  8
0
 10
-322.0200000000005
 20
144.9999999999997
 30
-5.0
 70
   192
  0
VERTEX
  5
3C33
  8
0
 10
-322.0200000000005
 20
144.9999999999997
 30
-2.0
 70
   192
  0
VERTEX
  5
3C34
  8
0
 10
0.0
 20
0.0
 30
0.0
 70
   128
 71
     4
 72
     3
 73
    -2
  0
VERTEX
  5
3C35
  8
0
 10
0.0
 20
0.0
 30
0.0
 70
   128
 71
    -4
 72
     2
 73
    -1
  0
VERTEX
  5
3C36
  8
0
 10
0.0
 20
0.0
 30
0.0
 70
   128
 71
     1
 72
     6
 73
    -5
  0
VERTEX
  5
3C37
  8
0
 10
0.0
 20
0.0
 30
0.0
 70
   128
 71
    -1
 72
     5
 73
    -4
  0
SEQEND
  5
3DA3
  8
0
  0
POLYLINE
  5
3C38
  8
0
 66
     1
 10
0.0
 20
0.0
 30
0.0
 70
    64
 71
     4
 72
     2
  0
VERTEX
  5
3C39
  8
0
 10
-322.0200000000005
 20
144.9999999999997
 30
-2.0
 70
   192
  0
VERTEX
  5
3C3A
  8
0
 10
-322.0200000000002
 20
64.99999999999973
 30
-2.0
 70
   192
  0
VERTEX
  5
3C3B
  8
0
 10
-322.0200000000002
 20
64.99999999999973
 30
-5.0
 70
   192
  0
VERTEX
  5
3C3C
  8
0
 10
-322.0200000000005
 20
144.9999999999997
 30
-5.0
 70
   192
  0
VERTEX
  5
3C3D
  8
0
 10
0.0
 20
0.0
 30
0.0
 70
   128
 71
     3
 72
     4
 73
    -1
  0
VERTEX
  5
3C3E
  8
0
 10
0.0
 20
0.0
 30
0.0
 70
   128
 71
     2
 72
    -3
 73
     1
  0
SEQEND
  5
3DA4
  8
0
  0
POLYLINE
  5
3C3F
  8
0
 66
     1
 10
0.0
 20
0.0
 30
0.0
 70
    64
 71
     6
 72
     4
  0
VERTEX
  5
3C40
  8
0
 10
-322.0200000000002
 20
64.99999999999973
 30
-2.0
 70
   192
  0
VERTEX
  5
3C41
  8
0
 10
-382.0200000000002
 20
64.99999999999953
 30
-2.0
 70
   192
  0
VERTEX
  5
3C42
  8
0
 10
-382.0200000000002
 20
64.99999999999953
 30
-15.0
 70
   192
  0
VERTEX
  5
3C43
  8
0
 10
-357.0200000000002
 20
64.99999999999962
 30
-15.0
 70
   192
  0
VERTEX
  5
3C44
  8
0
 10
-357.0200000000002
 20
64.99999999999962
 30
-5.0
 70
   192
  0
VERTEX
  5
3C45
  8
0
 10
-322.0200000000002
 20
64.99999999999973
 30
-5.0
 70
   192
  0
VERTEX
  5
3C46
  8
0
 10
0.0
 20
0.0
 30
0.0
 70
   128
 71
     3
 72
     4
 73
    -5
  0
VERTEX
  5
3C47
  8
0
 10
0.0
 20
0.0
 30
0.0
 70
   128
 71
     2
 72
    -3
 73
    -5
  0
VERTEX
  5
3C48
  8
0
 10
0.0
 20
0.0
 30
0.0
 70
   128
 71
     6
 72
     1
 73
    -2
  0
VERTEX
  5
3C49
  8
0
 10
0.0
 20
0.0
 30
0.0
 70
   128
 71
     5
 72
    -6
 73
    -2
  0
SEQEND
  5
3DA5
  8
0
  0
POLYLINE
  5
3C4A
  8
0
 66
     1
 10
0.0
 20
0.0
 30
0.0
 70
    64
 71
     4
 72
     2
  0
VERTEX
  5
3C4B
  8
0
 10
-382.0200000000005
 20
144.9999999999995
 30
-2.0
 70
   192
  0
VERTEX
  5
3C4C
  8
0
 10
-322.0200000000005
 20
144.9999999999997
 30
-2.0
 70
   192
  0
VERTEX
  5
3C4D
  8
0
 10
-322.0200000000002
 20
64.99999999999973
 30
-2.0
 70
   192
  0
VERTEX
  5
3C4E
  8
0
 10
-382.0200000000002
 20
64.99999999999953
 30
-2.0
 70
   192
  0
VERTEX
  5
3C4F
  8
0
 10
0.0
 20
0.0
 30
0.0
 70
   128
 71
     1
 72
     4
 73
    -3
  0
VERTEX
  5
3C50
  8
0
 10
0.0
 20
0.0
 30
0.0
 70
   128
 71
    -1
 72
     3
 73
     2
  0
SEQEND
  5
3DA6
  8
0
  0
POLYLINE
  5
3C51
  8
0
 66
     1
 10
0.0
 20
0.0
 30
0.0
 70
    64
 71
     4
 72
     2
  0
VERTEX
  5
3C52
  8
0
 10
-377.02
 20
107.9999999999992
 30
-12.0
 70
   192
  0
VERTEX
  5
3C53
  8
0
 10
-377.02
 20
101.9999999999998
 30
-12.0
 70
   192
  0
VERTEX
  5
3C54
  8
0
 10
-377.02
 20
101.9999999999998
 30
-15.0
 70
   192
  0
VERTEX
  5
3C55
  8
0
 10
-377.02
 20
107.9999999999992
 30
-15.0
 70
   192
  0
VERTEX
  5
3C56
  8
0
 10
0.0
 20
0.0
 30
0.0
 70
   128
 71
     3
 72
     4
 73
    -1
  0
VERTEX
  5
3C57
  8
0
 10
0.0
 20
0.0
 30
0.0
 70
   128
 71
     2
 72
    -3
 73
     1
  0
SEQEND
  5
3DA7
  8
0
  0
POLYLINE
  5
3C58
  8
0
 66
     1
 10
0.0
 20
0.0
 30
0.0
 70
    64
 71
     4
 72
     2
  0
VERTEX
  5
3C59
  8
0
 10
-377.02
 20
101.9999999999998
 30
-12.0
 70
   192
  0
VERTEX
  5
3C5A
  8
0
 10
-357.0200000000006
 20
101.9999999999996
 30
-12.0
 70
   192
  0
VERTEX
  5
3C5B
  8
0
 10
-357.0200000000006
 20
101.9999999999996
 30
-15.0
 70
   192
  0
VERTEX
  5
3C5C
  8
0
 10
-377.02
 20
101.9999999999998
 30
-15.0
 70
   192
  0
VERTEX
  5
3C5D
  8
0
 10
0.0
 20
0.0
 30
0.0
 70
   128
 71
     3
 72
     4
 73
    -1
  0
VERTEX
  5
3C5E
  8
0
 10
0.0
 20
0.0
 30
0.0
 70
   128
 71
     2
 72
    -3
 73
     1
  0
SEQEND
  5
3DA8
  8
0
  0
POLYLINE
  5
3C5F
  8
0
 66
     1
 10
0.0
 20
0.0
 30
0.0
 70
    64
 71
     6
 72
     4
  0
VERTEX
  5
3C60
  8
0
 10
-357.0200000000005
 20
141.9999999999996
 30
-12.0
 70
   192
  0
VERTEX
  5
3C61
  8
0
 10
-357.0200000000006
 20
107.9999999999996
 30
-12.0
 70
   192
  0
VERTEX
  5
3C62
  8
0
 10
-357.0200000000006
 20
107.9999999999996
 30
-15.0
 70
   192
  0
VERTEX
  5
3C63
  8
0
 10
-357.0200000000005
 20
144.9999999999996
 30
-15.0
 70
   192
  0
VERTEX
  5
3C64
  8
0
 10
-357.0200000000004
 20
144.9999999999996
 30
-5.0
 70
   192
  0
VERTEX
  5
3C65
  8
0
 10
-357.0200000000005
 20
141.9999999999996
 30
-5.0
 70
   192
  0
VERTEX
  5
3C66
  8
0
 10
0.0
 20
0.0
 30
0.0
 70
   128
 71
     5
 72
     6
 73
    -1
  0
VERTEX
  5
3C67
  8
0
 10
0.0
 20
0.0
 30
0.0
 70
   128
 71
     4
 72
    -5
 73
    -1
  0
VERTEX
  5
3C68
  8
0
 10
0.0
 20
0.0
 30
0.0
 70
   128
 71
     2
 72
     3
 73
    -4
  0
VERTEX
  5
3C69
  8
0
 10
0.0
 20
0.0
 30
0.0
 70
   128
 71
     1
 72
    -2
 73
    -4
  0
SEQEND
  5
3DA9
  8
0
  0
POLYLINE
  5
3C6A
  8
0
 66
     1
 10
0.0
 20
0.0
 30
0.0
 70
    64
 71
     4
 72
     2
  0
VERTEX
  5
3C6B
  8
0
 10
-357.0200000000006
 20
107.9999999999996
 30
-12.0
 70
   192
  0
VERTEX
  5
3C6C
  8
0
 10
-377.0200000000001
 20
107.9999999999992
 30
-12.0
 70
   192
  0
VERTEX
  5
3C6D
  8
0
 10
-377.02
 20
107.9999999999992
 30
-15.0
 70
   192
  0
VERTEX
  5
3C6E
  8
0
 10
-357.0200000000006
 20
107.9999999999996
 30
-15.0
 70
   192
  0
VERTEX
  5
3C6F
  8
0
 10
0.0
 20
0.0
 30
0.0
 70
   128
 71
     3
 72
     4
 73
    -1
  0
VERTEX
  5
3C70
  8
0
 10
0.0
 20
0.0
 30
0.0
 70
   128
 71
     2
 72
    -3
 73
     1
  0
SEQEND
  5
3DAA
  8
0
  0
POLYLINE
  5
3C71
  8
0
 66
     1
 10
0.0
 20
0.0
 30
0.0
 70
    64
 71
     8
 72
     6
  0
VERTEX
  5
3C72
  8
0
 10
-377.02
 20
107.9999999999992
 30
-15.0
 70
   192
  0
VERTEX
  5
3C73
  8
0
 10
-377.02
 20
101.9999999999998
 30
-15.0
 70
   192
  0
VERTEX
  5
3C74
  8
0
 10
-357.0200000000006
 20
101.9999999999996
 30
-15.0
 70
   192
  0
VERTEX
  5
3C75
  8
0
 10
-357.0200000000002
 20
64.99999999999962
 30
-15.0
 70
   192
  0
VERTEX
  5
3C76
  8
0
 10
-382.0200000000003
 20
64.99999999999953
 30
-15.0
 70
   192
  0
VERTEX
  5
3C77
  8
0
 10
-382.0200000000005
 20
144.9999999999995
 30
-15.0
 70
   192
  0
VERTEX
  5
3C78
  8
0
 10
-357.0200000000004
 20
144.9999999999996
 30
-15.0
 70
   192
  0
VERTEX
  5
3C79
  8
0
 10
-357.0200000000006
 20
107.9999999999996
 30
-15.0
 70
   192
  0
VERTEX
  5
3C7A
  8
0
 10
0.0
 20
0.0
 30
0.0
 70
   128
 71
     7
 72
     8
 73
    -1
  0
VERTEX
  5
3C7B
  8
0
 10
0.0
 20
0.0
 30
0.0
 70
   128
 71
     6
 72
    -7
 73
    -1
  0
VERTEX
  5
3C7C
  8
0
 10
0.0
 20
0.0
 30
0.0
 70
   128
 71
    -6
 72
     1
 73
    -2
  0
VERTEX
  5
3C7D
  8
0
 10
0.0
 20
0.0
 30
0.0
 70
   128
 71
     5
 72
    -6
 73
    -2
  0
VERTEX
  5
3C7E
  8
0
 10
0.0
 20
0.0
 30
0.0
 70
   128
 71
     3
 72
     4
 73
    -5
  0
VERTEX
  5
3C7F
  8
0
 10
0.0
 20
0.0
 30
0.0
 70
   128
 71
     2
 72
    -3
 73
    -5
  0
SEQEND
  5
3DAB
  8
0
  0
POLYLINE
  5
3C80
  8
0
 66
     1
 10
0.0
 20
0.0
 30
0.0
 70
    64
 71
     4
 72
     2
  0
VERTEX
  5
3C81
  8
0
 10
-379.0200000000005
 20
141.9999999999995
 30
-5.0
 70
   192
  0
VERTEX
  5
3C82
  8
0
 10
-379.0200000000002
 20
67.99999999999955
 30
-5.0
 70
   192
  0
VERTEX
  5
3C83
  8
0
 10
-379.0200000000002
 20
67.99999999999955
 30
-12.0
 70
   192
  0
VERTEX
  5
3C84
  8
0
 10
-379.0200000000005
 20
141.9999999999995
 30
-12.0
 70
   192
  0
VERTEX
  5
3C85
  8
0
 10
0.0
 20
0.0
 30
0.0
 70
   128
 71
     3
 72
     4
 73
    -1
  0
VERTEX
  5
3C86
  8
0
 10
0.0
 20
0.0
 30
0.0
 70
   128
 71
     2
 72
    -3
 73
     1
  0
SEQEND
  5
3DAC
  8
0
  0
POLYLINE
  5
3C87
  8
0
 66
     1
 10
0.0
 20
0.0
 30
0.0
 70
    64
 71
     4
 72
     2
  0
VERTEX
  5
3C88
  8
0
 10
-357.0200000000004
 20
141.9999999999996
 30
-5.0
 70
   192
  0
VERTEX
  5
3C89
  8
0
 10
-379.0200000000005
 20
141.9999999999995
 30
-5.0
 70
   192
  0
VERTEX
  5
3C8A
  8
0
 10
-379.0200000000005
 20
141.9999999999995
 30
-12.0
 70
   192
  0
VERTEX
  5
3C8B
  8
0
 10
-357.0200000000004
 20
141.9999999999996
 30
-12.0
 70
   192
  0
VERTEX
  5
3C8C
  8
0
 10
0.0
 20
0.0
 30
0.0
 70
   128
 71
     3
 72
     4
 73
    -1
  0
VERTEX
  5
3C8D
  8
0
 10
0.0
 20
0.0
 30
0.0
 70
   128
 71
     2
 72
    -3
 73
     1
  0
SEQEND
  5
3DAD
  8
0
  0
POLYLINE
  5
3C8E
  8
0
 66
     1
 10
0.0
 20
0.0
 30
0.0
 70
    64
 71
     4
 72
     2
  0
VERTEX
  5
3C8F
  8
0
 10
-357.0200000000002
 20
67.99999999999962
 30
-5.0
 70
   192
  0
VERTEX
  5
3C90
  8
0
 10
-379.0200000000002
 20
67.99999999999955
 30
-5.0
 70
   192
  0
VERTEX
  5
3C91
  8
0
 10
-379.0200000000002
 20
67.99999999999955
 30
-12.0
 70
   192
  0
VERTEX
  5
3C92
  8
0
 10
-357.0200000000002
 20
67.99999999999962
 30
-12.0
 70
   192
  0
VERTEX
  5
3C93
  8
0
 10
0.0
 20
0.0
 30
0.0
 70
   128
 71
     1
 72
     4
 73
    -3
  0
VERTEX
  5
3C94
  8
0
 10
0.0
 20
0.0
 30
0.0
 70
   128
 71
    -1
 72
     3
 73
     2
  0
SEQEND
  5
3DAE
  8
0
  0
POLYLINE
  5
3C95
  8
0
 66
     1
 10
0.0
 20
0.0
 30
0.0
 70
    64
 71
     8
 72
     6
  0
VERTEX
  5
3C96
  8
0
 10
-377.02
 20
101.9999999999998
 30
-12.0
 70
   192
  0
VERTEX
  5
3C97
  8
0
 10
-357.0200000000006
 20
101.9999999999996
 30
-12.0
 70
   192
  0
VERTEX
  5
3C98
  8
0
 10
-357.0200000000002
 20
67.99999999999962
 30
-12.0
 70
   192
  0
VERTEX
  5
3C99
  8
0
 10
-379.0200000000002
 20
67.99999999999955
 30
-12.0
 70
   192
  0
VERTEX
  5
3C9A
  8
0
 10
-379.0200000000005
 20
141.9999999999995
 30
-12.0
 70
   192
  0
VERTEX
  5
3C9B
  8
0
 10
-357.0200000000005
 20
141.9999999999996
 30
-12.0
 70
   192
  0
VERTEX
  5
3C9C
  8
0
 10
-357.0200000000006
 20
107.9999999999996
 30
-12.0
 70
   192
  0
VERTEX
  5
3C9D
  8
0
 10
-377.02
 20
107.9999999999992
 30
-12.0
 70
   192
  0
VERTEX
  5
3C9E
  8
0
 10
0.0
 20
0.0
 30
0.0
 70
   128
 71
     8
 72
     7
 73
    -6
  0
VERTEX
  5
3C9F
  8
0
 10
0.0
 20
0.0
 30
0.0
 70
   128
 71
    -8
 72
     6
 73
    -5
  0
VERTEX
  5
3CA0
  8
0
 10
0.0
 20
0.0
 30
0.0
 70
   128
 71
    -5
 72
     1
 73
    -8
  0
VERTEX
  5
3CA1
  8
0
 10
0.0
 20
0.0
 30
0.0
 70
   128
 71
     5
 72
    -4
 73
    -1
  0
VERTEX
  5
3CA2
  8
0
 10
0.0
 20
0.0
 30
0.0
 70
   128
 71
     4
 72
     3
 73
    -2
  0
VERTEX
  5
3CA3
  8
0
 10
0.0
 20
0.0
 30
0.0
 70
   128
 71
    -4
 72
     2
 73
    -1
  0
SEQEND
  5
3DAF
  8
0
  0
ENDBLK
  5
3D9F
  8
0
  0
BLOCK
  8
0
  2
*X7
 70
     1
 10
0.0
 20
0.0
 30
0.0
  3
*X7
  1

  0
POLYLINE
  5
3CA5
  8
0
 66
     1
 10
0.0
 20
0.0
 30
0.0
 70
    64
 71
     6
 72
     4
  0
VERTEX
  5
3CA6
  8
0
 10
-357.0199999999998
 20
-122.0000000000004
 30
-12.0
 70
   192
  0
VERTEX
  5
3CA7
  8
0
 10
-357.0199999999994
 20
-156.0000000000004
 30
-12.0
 70
   192
  0
VERTEX
  5
3CA8
  8
0
 10
-357.0199999999995
 20
-156.0000000000004
 30
-5.0
 70
   192
  0
VERTEX
  5
3CA9
  8
0
 10
-357.0199999999994
 20
-159.0000000000004
 30
-5.0
 70
   192
  0
VERTEX
  5
3CAA
  8
0
 10
-357.0199999999994
 20
-159.0000000000004
 30
-15.0
 70
   192
  0
VERTEX
  5
3CAB
  8
0
 10
-357.0199999999998
 20
-122.0000000000004
 30
-15.0
 70
   192
  0
VERTEX
  5
3CAC
  8
0
 10
0.0
 20
0.0
 30
0.0
 70
   128
 71
     6
 72
     1
 73
    -2
  0
VERTEX
  5
3CAD
  8
0
 10
0.0
 20
0.0
 30
0.0
 70
   128
 71
     5
 72
    -6
 73
    -2
  0
VERTEX
  5
3CAE
  8
0
 10
0.0
 20
0.0
 30
0.0
 70
   128
 71
     3
 72
     4
 73
    -5
  0
VERTEX
  5
3CAF
  8
0
 10
0.0
 20
0.0
 30
0.0
 70
   128
 71
     2
 72
    -3
 73
    -5
  0
SEQEND
  5
3DB2
  8
0
  0
POLYLINE
  5
3CB0
  8
0
 66
     1
 10
0.0
 20
0.0
 30
0.0
 70
    64
 71
     8
 72
     6
  0
VERTEX
  5
3CB1
  8
0
 10
-379.0199999999997
 20
-82.00000000000048
 30
-5.0
 70
   192
  0
VERTEX
  5
3CB2
  8
0
 10
-357.0199999999998
 20
-82.00000000000043
 30
-5.0
 70
   192
  0
VERTEX
  5
3CB3
  8
0
 10
-357.0199999999997
 20
-79.00000000000044
 30
-5.0
 70
   192
  0
VERTEX
  5
3CB4
  8
0
 10
-322.0199999999997
 20
-79.00000000000034
 30
-5.0
 70
   192
  0
VERTEX
  5
3CB5
  8
0
 10
-322.0199999999994
 20
-159.0000000000003
 30
-5.0
 70
   192
  0
VERTEX
  5
3CB6
  8
0
 10
-357.0199999999994
 20
-159.0000000000004
 30
-5.0
 70
   192
  0
VERTEX
  5
3CB7
  8
0
 10
-357.0199999999994
 20
-156.0000000000004
 30
-5.0
 70
   192
  0
VERTEX
  5
3CB8
  8
0
 10
-379.0199999999994
 20
-156.0000000000005
 30
-5.0
 70
   192
  0
VERTEX
  5
3CB9
  8
0
 10
0.0
 20
0.0
 30
0.0
 70
   128
 71
     5
 72
     6
 73
    -7
  0
VERTEX
  5
3CBA
  8
0
 10
0.0
 20
0.0
 30
0.0
 70
   128
 71
     8
 72
     1
 73
    -2
  0
VERTEX
  5
3CBB
  8
0
 10
0.0
 20
0.0
 30
0.0
 70
   128
 71
     7
 72
    -8
 73
    -2
  0
VERTEX
  5
3CBC
  8
0
 10
0.0
 20
0.0
 30
0.0
 70
   128
 71
     4
 72
    -5
 73
    -7
  0
VERTEX
  5
3CBD
  8
0
 10
0.0
 20
0.0
 30
0.0
 70
   128
 71
    -2
 72
    -4
 73
    -7
  0
VERTEX
  5
3CBE
  8
0
 10
0.0
 20
0.0
 30
0.0
 70
   128
 71
     2
 72
     3
 73
    -4
  0
SEQEND
  5
3DB3
  8
0
  0
POLYLINE
  5
3CBF
  8
0
 66
     1
 10
0.0
 20
0.0
 30
0.0
 70
    64
 71
     4
 72
     2
  0
VERTEX
  5
3CC0
  8
0
 10
-382.0199999999994
 20
-159.0000000000005
 30
-2.0
 70
   192
  0
VERTEX
  5
3CC1
  8
0
 10
-382.0199999999994
 20
-159.0000000000005
 30
-15.0
 70
   192
  0
VERTEX
  5
3CC2
  8
0
 10
-382.0199999999997
 20
-79.00000000000048
 30
-15.0
 70
   192
  0
VERTEX
  5
3CC3
  8
0
 10
-382.0199999999997
 20
-79.00000000000048
 30
-2.0
 70
   192
  0
VERTEX
  5
3CC4
  8
0
 10
0.0
 20
0.0
 30
0.0
 70
   128
 71
     1
 72
     4
 73
    -3
  0
VERTEX
  5
3CC5
  8
0
 10
0.0
 20
0.0
 30
0.0
 70
   128
 71
    -1
 72
     3
 73
     2
  0
SEQEND
  5
3DB4
  8
0
  0
POLYLINE
  5
3CC6
  8
0
 66
     1
 10
0.0
 20
0.0
 30
0.0
 70
    64
 71
     6
 72
     4
  0
VERTEX
  5
3CC7
  8
0
 10
-382.0199999999997
 20
-79.00000000000048
 30
-2.0
 70
   192
  0
VERTEX
  5
3CC8
  8
0
 10
-382.0199999999997
 20
-79.00000000000048
 30
-15.0
 70
   192
  0
VERTEX
  5
3CC9
  8
0
 10
-357.0199999999997
 20
-79.00000000000043
 30
-15.0
 70
   192
  0
VERTEX
  5
3CCA
  8
0
 10
-357.0199999999997
 20
-79.00000000000043
 30
-5.0
 70
   192
  0
VERTEX
  5
3CCB
  8
0
 10
-322.0199999999997
 20
-79.00000000000034
 30
-5.0
 70
   192
  0
VERTEX
  5
3CCC
  8
0
 10
-322.0199999999997
 20
-79.00000000000034
 30
-2.0
 70
   192
  0
VERTEX
  5
3CCD
  8
0
 10
0.0
 20
0.0
 30
0.0
 70
   128
 71
     4
 72
     3
 73
    -2
  0
VERTEX
  5
3CCE
  8
0
 10
0.0
 20
0.0
 30
0.0
 70
   128
 71
    -4
 72
     2
 73
    -1
  0
VERTEX
  5
3CCF
  8
0
 10
0.0
 20
0.0
 30
0.0
 70
   128
 71
     1
 72
     6
 73
    -5
  0
VERTEX
  5
3CD0
  8
0
 10
0.0
 20
0.0
 30
0.0
 70
   128
 71
    -1
 72
     5
 73
    -4
  0
SEQEND
  5
3DB5
  8
0
  0
POLYLINE
  5
3CD1
  8
0
 66
     1
 10
0.0
 20
0.0
 30
0.0
 70
    64
 71
     4
 72
     2
  0
VERTEX
  5
3CD2
  8
0
 10
-322.0199999999997
 20
-79.00000000000034
 30
-2.0
 70
   192
  0
VERTEX
  5
3CD3
  8
0
 10
-322.0199999999994
 20
-159.0000000000003
 30
-2.0
 70
   192
  0
VERTEX
  5
3CD4
  8
0
 10
-322.0199999999994
 20
-159.0000000000003
 30
-5.0
 70
   192
  0
VERTEX
  5
3CD5
  8
0
 10
-322.0199999999997
 20
-79.00000000000034
 30
-5.0
 70
   192
  0
VERTEX
  5
3CD6
  8
0
 10
0.0
 20
0.0
 30
0.0
 70
   128
 71
     3
 72
     4
 73
    -1
  0
VERTEX
  5
3CD7
  8
0
 10
0.0
 20
0.0
 30
0.0
 70
   128
 71
     2
 72
    -3
 73
     1
  0
SEQEND
  5
3DB6
  8
0
  0
POLYLINE
  5
3CD8
  8
0
 66
     1
 10
0.0
 20
0.0
 30
0.0
 70
    64
 71
     6
 72
     4
  0
VERTEX
  5
3CD9
  8
0
 10
-322.0199999999994
 20
-159.0000000000003
 30
-2.0
 70
   192
  0
VERTEX
  5
3CDA
  8
0
 10
-382.0199999999994
 20
-159.0000000000005
 30
-2.0
 70
   192
  0
VERTEX
  5
3CDB
  8
0
 10
-382.0199999999994
 20
-159.0000000000005
 30
-15.0
 70
   192
  0
VERTEX
  5
3CDC
  8
0
 10
-357.0199999999994
 20
-159.0000000000004
 30
-15.0
 70
   192
  0
VERTEX
  5
3CDD
  8
0
 10
-357.0199999999994
 20
-159.0000000000004
 30
-5.0
 70
   192
  0
VERTEX
  5
3CDE
  8
0
 10
-322.0199999999994
 20
-159.0000000000003
 30
-5.0
 70
   192
  0
VERTEX
  5
3CDF
  8
0
 10
0.0
 20
0.0
 30
0.0
 70
   128
 71
     3
 72
     4
 73
    -5
  0
VERTEX
  5
3CE0
  8
0
 10
0.0
 20
0.0
 30
0.0
 70
   128
 71
     2
 72
    -3
 73
    -5
  0
VERTEX
  5
3CE1
  8
0
 10
0.0
 20
0.0
 30
0.0
 70
   128
 71
     6
 72
     1
 73
    -2
  0
VERTEX
  5
3CE2
  8
0
 10
0.0
 20
0.0
 30
0.0
 70
   128
 71
     5
 72
    -6
 73
    -2
  0
SEQEND
  5
3DB7
  8
0
  0
POLYLINE
  5
3CE3
  8
0
 66
     1
 10
0.0
 20
0.0
 30
0.0
 70
    64
 71
     4
 72
     2
  0
VERTEX
  5
3CE4
  8
0
 10
-382.0199999999997
 20
-79.00000000000048
 30
-2.0
 70
   192
  0
VERTEX
  5
3CE5
  8
0
 10
-322.0199999999997
 20
-79.00000000000034
 30
-2.0
 70
   192
  0
VERTEX
  5
3CE6
  8
0
 10
-322.0199999999994
 20
-159.0000000000003
 30
-2.0
 70
   192
  0
VERTEX
  5
3CE7
  8
0
 10
-382.0199999999994
 20
-159.0000000000005
 30
-2.0
 70
   192
  0
VERTEX
  5
3CE8
  8
0
 10
0.0
 20
0.0
 30
0.0
 70
   128
 71
     1
 72
     4
 73
    -3
  0
VERTEX
  5
3CE9
  8
0
 10
0.0
 20
0.0
 30
0.0
 70
   128
 71
    -1
 72
     3
 73
     2
  0
SEQEND
  5
3DB8
  8
0
  0
POLYLINE
  5
3CEA
  8
0
 66
     1
 10
0.0
 20
0.0
 30
0.0
 70
    64
 71
     4
 72
     2
  0
VERTEX
  5
3CEB
  8
0
 10
-377.0199999999992
 20
-116.0000000000008
 30
-12.0
 70
   192
  0
VERTEX
  5
3CEC
  8
0
 10
-377.0199999999992
 20
-122.0000000000002
 30
-12.0
 70
   192
  0
VERTEX
  5
3CED
  8
0
 10
-377.0199999999992
 20
-122.0000000000002
 30
-15.0
 70
   192
  0
VERTEX
  5
3CEE
  8
0
 10
-377.0199999999992
 20
-116.0000000000008
 30
-15.0
 70
   192
  0
VERTEX
  5
3CEF
  8
0
 10
0.0
 20
0.0
 30
0.0
 70
   128
 71
     3
 72
     4
 73
    -1
  0
VERTEX
  5
3CF0
  8
0
 10
0.0
 20
0.0
 30
0.0
 70
   128
 71
     2
 72
    -3
 73
     1
  0
SEQEND
  5
3DB9
  8
0
  0
POLYLINE
  5
3CF1
  8
0
 66
     1
 10
0.0
 20
0.0
 30
0.0
 70
    64
 71
     4
 72
     2
  0
VERTEX
  5
3CF2
  8
0
 10
-377.0199999999993
 20
-122.0000000000002
 30
-12.0
 70
   192
  0
VERTEX
  5
3CF3
  8
0
 10
-357.0199999999998
 20
-122.0000000000004
 30
-12.0
 70
   192
  0
VERTEX
  5
3CF4
  8
0
 10
-357.0199999999998
 20
-122.0000000000004
 30
-15.0
 70
   192
  0
VERTEX
  5
3CF5
  8
0
 10
-377.0199999999993
 20
-122.0000000000002
 30
-15.0
 70
   192
  0
VERTEX
  5
3CF6
  8
0
 10
0.0
 20
0.0
 30
0.0
 70
   128
 71
     3
 72
     4
 73
    -1
  0
VERTEX
  5
3CF7
  8
0
 10
0.0
 20
0.0
 30
0.0
 70
   128
 71
     2
 72
    -3
 73
     1
  0
SEQEND
  5
3DBA
  8
0
  0
POLYLINE
  5
3CF8
  8
0
 66
     1
 10
0.0
 20
0.0
 30
0.0
 70
    64
 71
     6
 72
     4
  0
VERTEX
  5
3CF9
  8
0
 10
-357.0199999999997
 20
-82.00000000000045
 30
-12.0
 70
   192
  0
VERTEX
  5
3CFA
  8
0
 10
-357.0199999999999
 20
-116.0000000000004
 30
-12.0
 70
   192
  0
VERTEX
  5
3CFB
  8
0
 10
-357.0199999999998
 20
-116.0000000000004
 30
-15.0
 70
   192
  0
VERTEX
  5
3CFC
  8
0
 10
-357.0199999999997
 20
-79.00000000000044
 30
-15.0
 70
   192
  0
VERTEX
  5
3CFD
  8
0
 10
-357.0199999999997
 20
-79.00000000000043
 30
-5.0
 70
   192
  0
VERTEX
  5
3CFE
  8
0
 10
-357.0199999999997
 20
-82.00000000000045
 30
-5.0
 70
   192
  0
VERTEX
  5
3CFF
  8
0
 10
0.0
 20
0.0
 30
0.0
 70
   128
 71
     5
 72
     6
 73
    -1
  0
VERTEX
  5
3D00
  8
0
 10
0.0
 20
0.0
 30
0.0
 70
   128
 71
     4
 72
    -5
 73
    -1
  0
VERTEX
  5
3D01
  8
0
 10
0.0
 20
0.0
 30
0.0
 70
   128
 71
     2
 72
     3
 73
    -4
  0
VERTEX
  5
3D02
  8
0
 10
0.0
 20
0.0
 30
0.0
 70
   128
 71
     1
 72
    -2
 73
    -4
  0
SEQEND
  5
3DBB
  8
0
  0
POLYLINE
  5
3D03
  8
0
 66
     1
 10
0.0
 20
0.0
 30
0.0
 70
    64
 71
     4
 72
     2
  0
VERTEX
  5
3D04
  8
0
 10
-357.0199999999998
 20
-116.0000000000004
 30
-12.0
 70
   192
  0
VERTEX
  5
3D05
  8
0
 10
-377.0199999999992
 20
-116.0000000000008
 30
-12.0
 70
   192
  0
VERTEX
  5
3D06
  8
0
 10
-377.0199999999992
 20
-116.0000000000008
 30
-15.0
 70
   192
  0
VERTEX
  5
3D07
  8
0
 10
-357.0199999999998
 20
-116.0000000000004
 30
-15.0
 70
   192
  0
VERTEX
  5
3D08
  8
0
 10
0.0
 20
0.0
 30
0.0
 70
   128
 71
     3
 72
     4
 73
    -1
  0
VERTEX
  5
3D09
  8
0
 10
0.0
 20
0.0
 30
0.0
 70
   128
 71
     2
 72
    -3
 73
     1
  0
SEQEND
  5
3DBC
  8
0
  0
POLYLINE
  5
3D0A
  8
0
 66
     1
 10
0.0
 20
0.0
 30
0.0
 70
    64
 71
     8
 72
     6
  0
VERTEX
  5
3D0B
  8
0
 10
-377.0199999999992
 20
-116.0000000000008
 30
-15.0
 70
   192
  0
VERTEX
  5
3D0C
  8
0
 10
-377.0199999999992
 20
-122.0000000000002
 30
-15.0
 70
   192
  0
VERTEX
  5
3D0D
  8
0
 10
-357.0199999999998
 20
-122.0000000000004
 30
-15.0
 70
   192
  0
VERTEX
  5
3D0E
  8
0
 10
-357.0199999999994
 20
-159.0000000000004
 30
-15.0
 70
   192
  0
VERTEX
  5
3D0F
  8
0
 10
-382.0199999999994
 20
-159.0000000000005
 30
-15.0
 70
   192
  0
VERTEX
  5
3D10
  8
0
 10
-382.0199999999997
 20
-79.00000000000047
 30
-15.0
 70
   192
  0
VERTEX
  5
3D11
  8
0
 10
-357.0199999999997
 20
-79.00000000000043
 30
-15.0
 70
   192
  0
VERTEX
  5
3D12
  8
0
 10
-357.0199999999999
 20
-116.0000000000004
 30
-15.0
 70
   192
  0
VERTEX
  5
3D13
  8
0
 10
0.0
 20
0.0
 30
0.0
 70
   128
 71
     7
 72
     8
 73
    -1
  0
VERTEX
  5
3D14
  8
0
 10
0.0
 20
0.0
 30
0.0
 70
   128
 71
     6
 72
    -7
 73
    -1
  0
VERTEX
  5
3D15
  8
0
 10
0.0
 20
0.0
 30
0.0
 70
   128
 71
    -6
 72
     1
 73
    -2
  0
VERTEX
  5
3D16
  8
0
 10
0.0
 20
0.0
 30
0.0
 70
   128
 71
     5
 72
    -6
 73
    -2
  0
VERTEX
  5
3D17
  8
0
 10
0.0
 20
0.0
 30
0.0
 70
   128
 71
     3
 72
     4
 73
    -5
  0
VERTEX
  5
3D18
  8
0
 10
0.0
 20
0.0
 30
0.0
 70
   128
 71
     2
 72
    -3
 73
    -5
  0
SEQEND
  5
3DBD
  8
0
  0
POLYLINE
  5
3D19
  8
0
 66
     1
 10
0.0
 20
0.0
 30
0.0
 70
    64
 71
     4
 72
     2
  0
VERTEX
  5
3D1A
  8
0
 10
-379.0199999999997
 20
-82.00000000000047
 30
-5.0
 70
   192
  0
VERTEX
  5
3D1B
  8
0
 10
-379.0199999999994
 20
-156.0000000000005
 30
-5.0
 70
   192
  0
VERTEX
  5
3D1C
  8
0
 10
-379.0199999999994
 20
-156.0000000000005
 30
-12.0
 70
   192
  0
VERTEX
  5
3D1D
  8
0
 10
-379.0199999999997
 20
-82.00000000000047
 30
-12.0
 70
   192
  0
VERTEX
  5
3D1E
  8
0
 10
0.0
 20
0.0
 30
0.0
 70
   128
 71
     3
 72
     4
 73
    -1
  0
VERTEX
  5
3D1F
  8
0
 10
0.0
 20
0.0
 30
0.0
 70
   128
 71
     2
 72
    -3
 73
     1
  0
SEQEND
  5
3DBE
  8
0
  0
POLYLINE
  5
3D20
  8
0
 66
     1
 10
0.0
 20
0.0
 30
0.0
 70
    64
 71
     4
 72
     2
  0
VERTEX
  5
3D21
  8
0
 10
-357.0199999999998
 20
-82.00000000000043
 30
-5.0
 70
   192
  0
VERTEX
  5
3D22
  8
0
 10
-379.0199999999997
 20
-82.00000000000048
 30
-5.0
 70
   192
  0
VERTEX
  5
3D23
  8
0
 10
-379.0199999999997
 20
-82.00000000000047
 30
-12.0
 70
   192
  0
VERTEX
  5
3D24
  8
0
 10
-357.0199999999998
 20
-82.00000000000043
 30
-12.0
 70
   192
  0
VERTEX
  5
3D25
  8
0
 10
0.0
 20
0.0
 30
0.0
 70
   128
 71
     3
 72
     4
 73
    -1
  0
VERTEX
  5
3D26
  8
0
 10
0.0
 20
0.0
 30
0.0
 70
   128
 71
     2
 72
    -3
 73
     1
  0
SEQEND
  5
3DBF
  8
0
  0
POLYLINE
  5
3D27
  8
0
 66
     1
 10
0.0
 20
0.0
 30
0.0
 70
    64
 71
     4
 72
     2
  0
VERTEX
  5
3D28
  8
0
 10
-357.0199999999994
 20
-156.0000000000004
 30
-5.0
 70
   192
  0
VERTEX
  5
3D29
  8
0
 10
-379.0199999999994
 20
-156.0000000000005
 30
-5.0
 70
   192
  0
VERTEX
  5
3D2A
  8
0
 10
-379.0199999999994
 20
-156.0000000000005
 30
-12.0
 70
   192
  0
VERTEX
  5
3D2B
  8
0
 10
-357.0199999999995
 20
-156.0000000000004
 30
-12.0
 70
   192
  0
VERTEX
  5
3D2C
  8
0
 10
0.0
 20
0.0
 30
0.0
 70
   128
 71
     1
 72
     4
 73
    -3
  0
VERTEX
  5
3D2D
  8
0
 10
0.0
 20
0.0
 30
0.0
 70
   128
 71
    -1
 72
     3
 73
     2
  0
SEQEND
  5
3DC0
  8
0
  0
POLYLINE
  5
3D2E
  8
0
 66
     1
 10
0.0
 20
0.0
 30
0.0
 70
    64
 71
     8
 72
     6
  0
VERTEX
  5
3D2F
  8
0
 10
-377.0199999999993
 20
-122.0000000000002
 30
-12.0
 70
   192
  0
VERTEX
  5
3D30
  8
0
 10
-357.0199999999998
 20
-122.0000000000004
 30
-12.0
 70
   192
  0
VERTEX
  5
3D31
  8
0
 10
-357.0199999999994
 20
-156.0000000000004
 30
-12.0
 70
   192
  0
VERTEX
  5
3D32
  8
0
 10
-379.0199999999994
 20
-156.0000000000005
 30
-12.0
 70
   192
  0
VERTEX
  5
3D33
  8
0
 10
-379.0199999999997
 20
-82.00000000000048
 30
-12.0
 70
   192
  0
VERTEX
  5
3D34
  8
0
 10
-357.0199999999997
 20
-82.00000000000045
 30
-12.0
 70
   192
  0
VERTEX
  5
3D35
  8
0
 10
-357.0199999999998
 20
-116.0000000000004
 30
-12.0
 70
   192
  0
VERTEX
  5
3D36
  8
0
 10
-377.0199999999992
 20
-116.0000000000008
 30
-12.0
 70
   192
  0
VERTEX
  5
3D37
  8
0
 10
0.0
 20
0.0
 30
0.0
 70
   128
 71
     8
 72
     7
 73
    -6
  0
VERTEX
  5
3D38
  8
0
 10
0.0
 20
0.0
 30
0.0
 70
   128
 71
    -8
 72
     6
 73
    -5
  0
VERTEX
  5
3D39
  8
0
 10
0.0
 20
0.0
 30
0.0
 70
   128
 71
    -5
 72
     1
 73
    -8
  0
VERTEX
  5
3D3A
  8
0
 10
0.0
 20
0.0
 30
0.0
 70
   128
 71
     5
 72
    -4
 73
    -1
  0
VERTEX
  5
3D3B
  8
0
 10
0.0
 20
0.0
 30
0.0
 70
   128
 71
     4
 72
     3
 73
    -2
  0
VERTEX
  5
3D3C
  8
0
 10
0.0
 20
0.0
 30
0.0
 70
   128
 71
    -4
 72
     2
 73
    -1
  0
SEQEND
  5
3DC1
  8
0
  0
ENDBLK
  5
3DB1
  8
0
  0
ENDSEC
  0
SECTION
  2
ENTITIES
  0
INSERT
  5
3106
  8
0
  2
*X1
 10
0.0
 20
0.0
 30
0.0
  0
INSERT
  5
3107
  8
0
  2
*X2
 10
0.0
 20
0.0
 30
0.0
  0
INSERT
  5
3108
  8
0
  2
*X3
 10
0.0
 20
0.0
 30
0.0
  0
INSERT
  5
3109
  8
0
  2
*X4
 10
0.0
 20
0.0
 30
0.0
  0
INSERT
  5
310A
  8
0
  2
*X5
 10
0.0
 20
0.0
 30
0.0
  0
INSERT
  5
310B
  8
0
  2
*X6
 10
0.0
 20
0.0
 30
0.0
  0
INSERT
  5
310C
  8
0
  2
*X7
 10
0.0
 20
0.0
 30
0.0
  0
ENDSEC
  0
EOF
