  0
SECTION
  2
HEADER
  9
$ACADVER
  1
AC1009
  9
$DWGCODEPAGE
  3
ansi_1250
  9
$INSBASE
 10
0.0
 20
0.0
 30
0.0
  9
$EXTMIN
 10
-400.0
 20
-400.0000000000001
 30
-20.00000000000004
  9
$EXTMAX
 10
400.0
 20
400.0
 30
0.0000000000000995
  9
$LIMMIN
 10
0.0
 20
0.0
  9
$LIMMAX
 10
420.0
 20
297.0
  9
$ORTHOMODE
 70
     0
  9
$REGENMODE
 70
     1
  9
$FILLMODE
 70
     1
  9
$QTEXTMODE
 70
     0
  9
$MIRRTEXT
 70
     0
  9
$DRAGMODE
 70
     2
  9
$LTSCALE
 40
1.0
  9
$OSMODE
 70
   511
  9
$ATTMODE
 70
     1
  9
$TEXTSIZE
 40
2.5
  9
$TRACEWID
 40
1.0
  9
$TEXTSTYLE
  7
STANDARD
  9
$CLAYER
  8
0
  9
$CELTYPE
  6
BYLAYER
  9
$CECOLOR
 62
   256
  9
$DIMSCALE
 40
1.0
  9
$DIMASZ
 40
2.5
  9
$DIMEXO
 40
0.625
  9
$DIMDLI
 40
3.75
  9
$DIMRND
 40
0.0
  9
$DIMDLE
 40
0.0
  9
$DIMEXE
 40
1.25
  9
$DIMTP
 40
0.0
  9
$DIMTM
 40
0.0
  9
$DIMTXT
 40
2.5
  9
$DIMCEN
 40
-2.5
  9
$DIMTSZ
 40
0.0
  9
$DIMTOL
 70
     0
  9
$DIMLIM
 70
     0
  9
$DIMTIH
 70
     0
  9
$DIMTOH
 70
     0
  9
$DIMSE1
 70
     0
  9
$DIMSE2
 70
     0
  9
$DIMTAD
 70
     1
  9
$DIMZIN
 70
     8
  9
$DIMBLK
  1

  9
$DIMASO
 70
     1
  9
$DIMSHO
 70
     1
  9
$DIMPOST
  1

  9
$DIMAPOST
  1

  9
$DIMALT
 70
     0
  9
$DIMALTD
 70
     3
  9
$DIMALTF
 40
0.03937007874016
  9
$DIMLFAC
 40
1.0
  9
$DIMTOFL
 70
     1
  9
$DIMTVP
 40
0.0
  9
$DIMTIX
 70
     0
  9
$DIMSOXD
 70
     0
  9
$DIMSAH
 70
     0
  9
$DIMBLK1
  1

  9
$DIMBLK2
  1

  9
$DIMSTYLE
  2
ISO-25
  9
$DIMCLRD
 70
     0
  9
$DIMCLRE
 70
     0
  9
$DIMCLRT
 70
     0
  9
$DIMTFAC
 40
1.0
  9
$DIMGAP
 40
0.625
  9
$LUNITS
 70
     2
  9
$LUPREC
 70
     3
  9
$SKETCHINC
 40
1.0
  9
$FILLETRAD
 40
10.0
  9
$AUNITS
 70
     0
  9
$AUPREC
 70
     0
  9
$MENU
  1
.
  9
$ELEVATION
 40
0.0
  9
$PELEVATION
 40
0.0
  9
$THICKNESS
 40
0.0
  9
$LIMCHECK
 70
     0
  9
$CHAMFERA
 40
10.0
  9
$CHAMFERB
 40
10.0
  9
$SKPOLY
 70
     0
  9
$TDCREATE
 40
2455022.720692848
  9
$TDUPDATE
 40
2460535.569279989
  9
$TDINDWG
 40
0.0011938657
  9
$TDUSRTIMER
 40
0.0011938657
  9
$USRTIMER
 70
     1
  9
$ANGBASE
 50
0.0
  9
$ANGDIR
 70
     0
  9
$PDMODE
 70
     0
  9
$PDSIZE
 40
0.0
  9
$PLINEWID
 40
0.0
  9
$COORDS
 70
     1
  9
$SPLFRAME
 70
     0
  9
$SPLINETYPE
 70
     6
  9
$SPLINESEGS
 70
     8
  9
$ATTDIA
 70
     0
  9
$ATTREQ
 70
     1
  9
$HANDLING
 70
     1
  9
$HANDSEED
  5
244A
  9
$SURFTAB1
 70
     6
  9
$SURFTAB2
 70
     6
  9
$SURFTYPE
 70
     6
  9
$SURFU
 70
     6
  9
$SURFV
 70
     6
  9
$UCSNAME
  2

  9
$UCSORG
 10
0.0
 20
0.0
 30
0.0
  9
$UCSXDIR
 10
1.0
 20
0.0
 30
0.0
  9
$UCSYDIR
 10
0.0
 20
1.0
 30
0.0
  9
$PUCSNAME
  2

  9
$PUCSORG
 10
0.0
 20
0.0
 30
0.0
  9
$PUCSXDIR
 10
1.0
 20
0.0
 30
0.0
  9
$PUCSYDIR
 10
0.0
 20
1.0
 30
0.0
  9
$USERI1
 70
     0
  9
$USERI2
 70
     0
  9
$USERI3
 70
     0
  9
$USERI4
 70
     0
  9
$USERI5
 70
     0
  9
$USERR1
 40
0.0
  9
$USERR2
 40
0.0
  9
$USERR3
 40
0.0
  9
$USERR4
 40
0.0
  9
$USERR5
 40
0.0
  9
$WORLDVIEW
 70
     1
  9
$SHADEDGE
 70
     3
  9
$SHADEDIF
 70
    70
  9
$TILEMODE
 70
     1
  9
$MAXACTVP
 70
    64
  9
$PLIMCHECK
 70
     0
  9
$PEXTMIN
 10
1.000000000000000E+20
 20
1.000000000000000E+20
 30
1.000000000000000E+20
  9
$PEXTMAX
 10
-1.000000000000000E+20
 20
-1.000000000000000E+20
 30
-1.000000000000000E+20
  9
$PLIMMIN
 10
0.0
 20
0.0
  9
$PLIMMAX
 10
0.0
 20
0.0
  9
$UNITMODE
 70
     0
  9
$VISRETAIN
 70
     1
  9
$PLINEGEN
 70
     0
  9
$PSLTSCALE
 70
     1
  0
ENDSEC
  0
SECTION
  2
TABLES
  0
TABLE
  2
VPORT
 70
     1
  0
VPORT
  2
*ACTIVE
 70
     0
 10
0.0
 20
0.0
 11
1.0
 21
1.0
 12
-94.88447817080794
 22
-62.94654482311037
 13
0.0
 23
0.0
 14
10.0
 24
10.0
 15
10.0
 25
10.0
 16
0.5773502691896226
 26
0.5773502691896226
 36
0.5773502691896226
 17
-134.1869158878504
 27
-0.0000000000000284
 37
0.0
 40
516.352437778694
 41
1.961089494163424
 42
50.0
 43
0.0
 44
0.0
 50
0.0
 51
0.0
 71
    16
 72
  1000
 73
     1
 74
     3
 75
     0
 76
     0
 77
     0
 78
     0
  0
ENDTAB
  0
TABLE
  2
LTYPE
 70
     1
  0
LTYPE
  2
CONTINUOUS
 70
     0
  3
Solid line
 72
    65
 73
     0
 40
0.0
  0
ENDTAB
  0
TABLE
  2
LAYER
 70
     1
  0
LAYER
  2
0
 70
     0
 62
     7
  6
CONTINUOUS
  0
ENDTAB
  0
TABLE
  2
STYLE
 70
     2
  0
STYLE
  2
STANDARD
 70
     0
 40
0.0
 41
1.0
 50
0.0
 71
     0
 42
2.5
  3
arial.ttf
  4

  0
STYLE
  2
ANNOTATIVE
 70
     0
 40
0.0
 41
1.0
 50
0.0
 71
     0
 42
2.5
  3
arial.ttf
  4

  0
ENDTAB
  0
TABLE
  2
VIEW
 70
     0
  0
ENDTAB
  0
TABLE
  2
UCS
 70
     0
  0
ENDTAB
  0
TABLE
  2
APPID
 70
     2
  0
APPID
  2
ACAD
 70
     0
  0
APPID
  2
ACADANNOTATIVE
 70
     0
  0
ENDTAB
  0
TABLE
  2
DIMSTYLE
 70
     2
  0
DIMSTYLE
  2
ISO-25
 70
     0
  3

  4

  5

  6

  7

 40
1.0
 41
2.5
 42
0.625
 43
3.75
 44
1.25
 45
0.0
 46
0.0
 47
0.0
 48
0.0
140
2.5
141
-2.5
142
0.0
143
0.03937007874016
144
1.0
145
0.0
146
1.0
147
0.625
 71
     0
 72
     0
 73
     0
 74
     0
 75
     0
 76
     0
 77
     1
 78
     8
170
     0
171
     3
172
     1
173
     0
174
     0
175
     0
176
     0
177
     0
178
     0
  0
DIMSTYLE
  2
ANNOTATIVE
 70
     0
  3

  4

  5

  6

  7

 40
0.0
 41
2.5
 42
0.625
 43
3.75
 44
1.25
 45
0.0
 46
0.0
 47
0.0
 48
0.0
140
2.5
141
-2.5
142
0.0
143
0.03937007874016
144
1.0
145
0.0
146
1.0
147
0.625
 71
     0
 72
     0
 73
     0
 74
     0
 75
     0
 76
     0
 77
     1
 78
     8
170
     0
171
     3
172
     1
173
     0
174
     0
175
     0
176
     0
177
     0
178
     0
  0
ENDTAB
  0
ENDSEC
  0
SECTION
  2
BLOCKS
  0
BLOCK
  8
0
  2
$MODEL_SPACE
 70
     0
 10
0.0
 20
0.0
 30
0.0
  3
$MODEL_SPACE
  1

  0
ENDBLK
  5
21
  8
0
  0
BLOCK
 67
     1
  8
0
  2
$PAPER_SPACE
 70
     0
 10
0.0
 20
0.0
 30
0.0
  3
$PAPER_SPACE
  1

  0
ENDBLK
  5
1D
 67
     1
  8
0
  0
BLOCK
  8
0
  2
*X1
 70
     1
 10
0.0
 20
0.0
 30
0.0
  3
*X1
  1

  0
POLYLINE
  5
1F4A
  8
0
 66
     1
 10
0.0
 20
0.0
 30
0.0
 70
    64
 71
     8
 72
     6
  0
VERTEX
  5
1F4B
  8
0
 10
393.301270189222
 20
375.0000000000001
 30
0.0
 70
   192
  0
VERTEX
  5
1F4C
  8
0
 10
393.301270189222
 20
375.0000000000001
 30
-2.0
 70
   192
  0
VERTEX
  5
1F4D
  8
0
 10
375.0000000000001
 20
393.301270189222
 30
-2.0
 70
   192
  0
VERTEX
  5
1F4E
  8
0
 10
375.0000000000001
 20
393.301270189222
 30
0.0
 70
   192
  0
VERTEX
  5
1F4F
  8
0
 10
400.0000000000001
 20
350.0000000000001
 30
0.0
 70
   192
  0
VERTEX
  5
1F50
  8
0
 10
400.0
 20
350.0000000000001
 30
-2.0
 70
   192
  0
VERTEX
  5
1F51
  8
0
 10
350.0000000000001
 20
400.0000000000001
 30
-2.0
 70
   192
  0
VERTEX
  5
1F52
  8
0
 10
350.0000000000001
 20
400.0
 30
0.0
 70
   192
  0
VERTEX
  5
1F53
  8
0
 10
0.0
 20
0.0
 30
0.0
 70
   128
 71
     1
 72
     2
 73
    -3
  0
VERTEX
  5
1F54
  8
0
 10
0.0
 20
0.0
 30
0.0
 70
   128
 71
    -1
 72
     3
 73
     4
  0
VERTEX
  5
1F55
  8
0
 10
0.0
 20
0.0
 30
0.0
 70
   128
 71
     5
 72
     6
 73
    -2
  0
VERTEX
  5
1F56
  8
0
 10
0.0
 20
0.0
 30
0.0
 70
   128
 71
    -5
 72
     2
 73
     1
  0
VERTEX
  5
1F57
  8
0
 10
0.0
 20
0.0
 30
0.0
 70
   128
 71
     4
 72
     3
 73
    -7
  0
VERTEX
  5
1F58
  8
0
 10
0.0
 20
0.0
 30
0.0
 70
   128
 71
    -4
 72
     7
 73
     8
  0
SEQEND
  5
23EB
  8
0
  0
POLYLINE
  5
1F59
  8
0
 66
     1
 10
0.0
 20
0.0
 30
0.0
 70
    64
 71
     4
 72
     2
  0
VERTEX
  5
1F5A
  8
0
 10
400.0
 20
350.0000000000001
 30
0.0
 70
   192
  0
VERTEX
  5
1F5B
  8
0
 10
400.0
 20
-350.0000000000001
 30
0.0
 70
   192
  0
VERTEX
  5
1F5C
  8
0
 10
400.0
 20
-350.0000000000001
 30
-2.0
 70
   192
  0
VERTEX
  5
1F5D
  8
0
 10
400.0
 20
350.0000000000001
 30
-2.0
 70
   192
  0
VERTEX
  5
1F5E
  8
0
 10
0.0
 20
0.0
 30
0.0
 70
   128
 71
     3
 72
     4
 73
    -1
  0
VERTEX
  5
1F5F
  8
0
 10
0.0
 20
0.0
 30
0.0
 70
   128
 71
     2
 72
    -3
 73
     1
  0
SEQEND
  5
23EC
  8
0
  0
POLYLINE
  5
1F60
  8
0
 66
     1
 10
0.0
 20
0.0
 30
0.0
 70
    64
 71
     8
 72
     6
  0
VERTEX
  5
1F61
  8
0
 10
375.0000000000001
 20
-393.301270189222
 30
0.0
 70
   192
  0
VERTEX
  5
1F62
  8
0
 10
375.0000000000001
 20
-393.301270189222
 30
-2.0
 70
   192
  0
VERTEX
  5
1F63
  8
0
 10
393.301270189222
 20
-375.0000000000001
 30
-2.0
 70
   192
  0
VERTEX
  5
1F64
  8
0
 10
393.301270189222
 20
-375.0000000000001
 30
0.0
 70
   192
  0
VERTEX
  5
1F65
  8
0
 10
350.0000000000001
 20
-400.0000000000001
 30
0.0
 70
   192
  0
VERTEX
  5
1F66
  8
0
 10
350.0000000000001
 20
-400.0
 30
-2.0
 70
   192
  0
VERTEX
  5
1F67
  8
0
 10
400.0000000000001
 20
-350.0000000000001
 30
-2.0
 70
   192
  0
VERTEX
  5
1F68
  8
0
 10
400.0
 20
-350.0000000000001
 30
0.0
 70
   192
  0
VERTEX
  5
1F69
  8
0
 10
0.0
 20
0.0
 30
0.0
 70
   128
 71
     1
 72
     2
 73
    -3
  0
VERTEX
  5
1F6A
  8
0
 10
0.0
 20
0.0
 30
0.0
 70
   128
 71
    -1
 72
     3
 73
     4
  0
VERTEX
  5
1F6B
  8
0
 10
0.0
 20
0.0
 30
0.0
 70
   128
 71
     5
 72
     6
 73
    -2
  0
VERTEX
  5
1F6C
  8
0
 10
0.0
 20
0.0
 30
0.0
 70
   128
 71
    -5
 72
     2
 73
     1
  0
VERTEX
  5
1F6D
  8
0
 10
0.0
 20
0.0
 30
0.0
 70
   128
 71
     4
 72
     3
 73
    -7
  0
VERTEX
  5
1F6E
  8
0
 10
0.0
 20
0.0
 30
0.0
 70
   128
 71
    -4
 72
     7
 73
     8
  0
SEQEND
  5
23ED
  8
0
  0
POLYLINE
  5
1F6F
  8
0
 66
     1
 10
0.0
 20
0.0
 30
0.0
 70
    64
 71
     4
 72
     2
  0
VERTEX
  5
1F70
  8
0
 10
350.0000000000001
 20
-400.0
 30
0.0
 70
   192
  0
VERTEX
  5
1F71
  8
0
 10
350.0000000000001
 20
-400.0
 30
-2.0
 70
   192
  0
VERTEX
  5
1F72
  8
0
 10
-350.0000000000001
 20
-400.0000000000001
 30
-2.0
 70
   192
  0
VERTEX
  5
1F73
  8
0
 10
-350.0000000000001
 20
-400.0000000000001
 30
0.0
 70
   192
  0
VERTEX
  5
1F74
  8
0
 10
0.0
 20
0.0
 30
0.0
 70
   128
 71
     1
 72
     4
 73
    -3
  0
VERTEX
  5
1F75
  8
0
 10
0.0
 20
0.0
 30
0.0
 70
   128
 71
    -1
 72
     3
 73
     2
  0
SEQEND
  5
23EE
  8
0
  0
POLYLINE
  5
1F76
  8
0
 66
     1
 10
0.0
 20
0.0
 30
0.0
 70
    64
 71
     8
 72
     6
  0
VERTEX
  5
1F77
  8
0
 10
-393.301270189222
 20
-375.0000000000001
 30
0.0
 70
   192
  0
VERTEX
  5
1F78
  8
0
 10
-393.301270189222
 20
-375.0000000000001
 30
-2.0
 70
   192
  0
VERTEX
  5
1F79
  8
0
 10
-375.0000000000001
 20
-393.3012701892221
 30
-2.0
 70
   192
  0
VERTEX
  5
1F7A
  8
0
 10
-375.0000000000001
 20
-393.3012701892221
 30
0.0
 70
   192
  0
VERTEX
  5
1F7B
  8
0
 10
-400.0
 20
-350.0000000000001
 30
0.0
 70
   192
  0
VERTEX
  5
1F7C
  8
0
 10
-400.0
 20
-350.0000000000001
 30
-2.0
 70
   192
  0
VERTEX
  5
1F7D
  8
0
 10
-350.0000000000001
 20
-400.0000000000002
 30
-2.0
 70
   192
  0
VERTEX
  5
1F7E
  8
0
 10
-350.0000000000001
 20
-400.0000000000001
 30
0.0
 70
   192
  0
VERTEX
  5
1F7F
  8
0
 10
0.0
 20
0.0
 30
0.0
 70
   128
 71
     1
 72
     2
 73
    -3
  0
VERTEX
  5
1F80
  8
0
 10
0.0
 20
0.0
 30
0.0
 70
   128
 71
    -1
 72
     3
 73
     4
  0
VERTEX
  5
1F81
  8
0
 10
0.0
 20
0.0
 30
0.0
 70
   128
 71
     5
 72
     6
 73
    -2
  0
VERTEX
  5
1F82
  8
0
 10
0.0
 20
0.0
 30
0.0
 70
   128
 71
    -5
 72
     2
 73
     1
  0
VERTEX
  5
1F83
  8
0
 10
0.0
 20
0.0
 30
0.0
 70
   128
 71
     4
 72
     3
 73
    -7
  0
VERTEX
  5
1F84
  8
0
 10
0.0
 20
0.0
 30
0.0
 70
   128
 71
    -4
 72
     7
 73
     8
  0
SEQEND
  5
23EF
  8
0
  0
POLYLINE
  5
1F85
  8
0
 66
     1
 10
0.0
 20
0.0
 30
0.0
 70
    64
 71
     4
 72
     2
  0
VERTEX
  5
1F86
  8
0
 10
-400.0
 20
-350.0000000000001
 30
0.0
 70
   192
  0
VERTEX
  5
1F87
  8
0
 10
-400.0
 20
-350.0000000000001
 30
-2.0
 70
   192
  0
VERTEX
  5
1F88
  8
0
 10
-400.0
 20
349.9999999999999
 30
-2.0
 70
   192
  0
VERTEX
  5
1F89
  8
0
 10
-400.0
 20
349.9999999999999
 30
0.0
 70
   192
  0
VERTEX
  5
1F8A
  8
0
 10
0.0
 20
0.0
 30
0.0
 70
   128
 71
     1
 72
     4
 73
    -3
  0
VERTEX
  5
1F8B
  8
0
 10
0.0
 20
0.0
 30
0.0
 70
   128
 71
    -1
 72
     3
 73
     2
  0
SEQEND
  5
23F0
  8
0
  0
POLYLINE
  5
1F8C
  8
0
 66
     1
 10
0.0
 20
0.0
 30
0.0
 70
    64
 71
     8
 72
     6
  0
VERTEX
  5
1F8D
  8
0
 10
-375.0000000000001
 20
393.3012701892218
 30
0.0
 70
   192
  0
VERTEX
  5
1F8E
  8
0
 10
-375.0000000000001
 20
393.3012701892218
 30
-2.0
 70
   192
  0
VERTEX
  5
1F8F
  8
0
 10
-393.301270189222
 20
374.9999999999999
 30
-2.0
 70
   192
  0
VERTEX
  5
1F90
  8
0
 10
-393.301270189222
 20
374.9999999999999
 30
0.0
 70
   192
  0
VERTEX
  5
1F91
  8
0
 10
-350.0000000000001
 20
399.9999999999999
 30
0.0
 70
   192
  0
VERTEX
  5
1F92
  8
0
 10
-350.0000000000001
 20
399.9999999999999
 30
-2.0
 70
   192
  0
VERTEX
  5
1F93
  8
0
 10
-400.0000000000001
 20
349.9999999999999
 30
-2.0
 70
   192
  0
VERTEX
  5
1F94
  8
0
 10
-400.0
 20
349.9999999999999
 30
0.0
 70
   192
  0
VERTEX
  5
1F95
  8
0
 10
0.0
 20
0.0
 30
0.0
 70
   128
 71
     1
 72
     2
 73
    -3
  0
VERTEX
  5
1F96
  8
0
 10
0.0
 20
0.0
 30
0.0
 70
   128
 71
    -1
 72
     3
 73
     4
  0
VERTEX
  5
1F97
  8
0
 10
0.0
 20
0.0
 30
0.0
 70
   128
 71
     5
 72
     6
 73
    -2
  0
VERTEX
  5
1F98
  8
0
 10
0.0
 20
0.0
 30
0.0
 70
   128
 71
    -5
 72
     2
 73
     1
  0
VERTEX
  5
1F99
  8
0
 10
0.0
 20
0.0
 30
0.0
 70
   128
 71
     4
 72
     3
 73
    -7
  0
VERTEX
  5
1F9A
  8
0
 10
0.0
 20
0.0
 30
0.0
 70
   128
 71
    -4
 72
     7
 73
     8
  0
SEQEND
  5
23F1
  8
0
  0
POLYLINE
  5
1F9B
  8
0
 66
     1
 10
0.0
 20
0.0
 30
0.0
 70
    64
 71
     4
 72
     2
  0
VERTEX
  5
1F9C
  8
0
 10
-350.0000000000001
 20
399.9999999999999
 30
0.0
 70
   192
  0
VERTEX
  5
1F9D
  8
0
 10
350.0000000000001
 20
400.0
 30
0.0
 70
   192
  0
VERTEX
  5
1F9E
  8
0
 10
350.0000000000001
 20
400.0
 30
-2.0
 70
   192
  0
VERTEX
  5
1F9F
  8
0
 10
-350.0000000000001
 20
399.9999999999999
 30
-2.0
 70
   192
  0
VERTEX
  5
1FA0
  8
0
 10
0.0
 20
0.0
 30
0.0
 70
   128
 71
     3
 72
     4
 73
    -1
  0
VERTEX
  5
1FA1
  8
0
 10
0.0
 20
0.0
 30
0.0
 70
   128
 71
     2
 72
    -3
 73
     1
  0
SEQEND
  5
23F2
  8
0
  0
POLYLINE
  5
1FA2
  8
0
 66
     1
 10
0.0
 20
0.0
 30
0.0
 70
    64
 71
    16
 72
    14
  0
VERTEX
  5
1FA3
  8
0
 10
350.0000000000001
 20
400.0
 30
-2.0
 70
   192
  0
VERTEX
  5
1FA4
  8
0
 10
-350.0000000000001
 20
399.9999999999999
 30
-2.0
 70
   192
  0
VERTEX
  5
1FA5
  8
0
 10
-375.0000000000001
 20
393.3012701892218
 30
-2.0
 70
   192
  0
VERTEX
  5
1FA6
  8
0
 10
-393.301270189222
 20
374.9999999999999
 30
-2.0
 70
   192
  0
VERTEX
  5
1FA7
  8
0
 10
-400.0
 20
349.9999999999999
 30
-2.0
 70
   192
  0
VERTEX
  5
1FA8
  8
0
 10
-400.0
 20
-350.0000000000001
 30
-2.0
 70
   192
  0
VERTEX
  5
1FA9
  8
0
 10
-393.301270189222
 20
-375.0000000000001
 30
-2.0
 70
   192
  0
VERTEX
  5
1FAA
  8
0
 10
-375.0000000000001
 20
-393.3012701892221
 30
-2.0
 70
   192
  0
VERTEX
  5
1FAB
  8
0
 10
-350.0000000000001
 20
-400.0000000000001
 30
-2.0
 70
   192
  0
VERTEX
  5
1FAC
  8
0
 10
350.0000000000001
 20
-400.0000000000001
 30
-2.0
 70
   192
  0
VERTEX
  5
1FAD
  8
0
 10
375.0000000000001
 20
-393.301270189222
 30
-2.0
 70
   192
  0
VERTEX
  5
1FAE
  8
0
 10
393.301270189222
 20
-375.0000000000001
 30
-2.0
 70
   192
  0
VERTEX
  5
1FAF
  8
0
 10
400.0
 20
-350.0000000000001
 30
-2.0
 70
   192
  0
VERTEX
  5
1FB0
  8
0
 10
400.0000000000001
 20
350.0000000000001
 30
-2.0
 70
   192
  0
VERTEX
  5
1FB1
  8
0
 10
393.301270189222
 20
375.0000000000001
 30
-2.0
 70
   192
  0
VERTEX
  5
1FB2
  8
0
 10
375.0000000000001
 20
393.301270189222
 30
-2.0
 70
   192
  0
VERTEX
  5
1FB3
  8
0
 10
0.0
 20
0.0
 30
0.0
 70
   128
 71
     1
 72
    16
 73
   -15
  0
VERTEX
  5
1FB4
  8
0
 10
0.0
 20
0.0
 30
0.0
 70
   128
 71
    -1
 72
    15
 73
   -14
  0
VERTEX
  5
1FB5
  8
0
 10
0.0
 20
0.0
 30
0.0
 70
   128
 71
    -1
 72
    14
 73
   -13
  0
VERTEX
  5
1FB6
  8
0
 10
0.0
 20
0.0
 30
0.0
 70
   128
 71
    -1
 72
    13
 73
   -12
  0
VERTEX
  5
1FB7
  8
0
 10
0.0
 20
0.0
 30
0.0
 70
   128
 71
    -1
 72
    12
 73
   -11
  0
VERTEX
  5
1FB8
  8
0
 10
0.0
 20
0.0
 30
0.0
 70
   128
 71
    -1
 72
    11
 73
   -10
  0
VERTEX
  5
1FB9
  8
0
 10
0.0
 20
0.0
 30
0.0
 70
   128
 71
    -1
 72
    10
 73
    -9
  0
VERTEX
  5
1FBA
  8
0
 10
0.0
 20
0.0
 30
0.0
 70
   128
 71
    -1
 72
     9
 73
    -8
  0
VERTEX
  5
1FBB
  8
0
 10
0.0
 20
0.0
 30
0.0
 70
   128
 71
    -1
 72
     8
 73
    -7
  0
VERTEX
  5
1FBC
  8
0
 10
0.0
 20
0.0
 30
0.0
 70
   128
 71
    -1
 72
     7
 73
    -6
  0
VERTEX
  5
1FBD
  8
0
 10
0.0
 20
0.0
 30
0.0
 70
   128
 71
    -1
 72
     6
 73
    -5
  0
VERTEX
  5
1FBE
  8
0
 10
0.0
 20
0.0
 30
0.0
 70
   128
 71
    -1
 72
     5
 73
    -4
  0
VERTEX
  5
1FBF
  8
0
 10
0.0
 20
0.0
 30
0.0
 70
   128
 71
    -1
 72
     4
 73
    -3
  0
VERTEX
  5
1FC0
  8
0
 10
0.0
 20
0.0
 30
0.0
 70
   128
 71
    -1
 72
     3
 73
     2
  0
SEQEND
  5
23F3
  8
0
  0
POLYLINE
  5
1FC1
  8
0
 66
     1
 10
0.0
 20
0.0
 30
0.0
 70
    64
 71
    32
 72
    32
  0
VERTEX
  5
1FC2
  8
0
 10
400.0000000000001
 20
350.0000000000001
 30
0.0
 70
   192
  0
VERTEX
  5
1FC3
  8
0
 10
393.301270189222
 20
375.0000000000001
 30
0.0
 70
   192
  0
VERTEX
  5
1FC4
  8
0
 10
375.0000000000001
 20
393.301270189222
 30
0.0
 70
   192
  0
VERTEX
  5
1FC5
  8
0
 10
350.0000000000001
 20
400.0000000000001
 30
0.0
 70
   192
  0
VERTEX
  5
1FC6
  8
0
 10
-350.0000000000001
 20
399.9999999999999
 30
0.0
 70
   192
  0
VERTEX
  5
1FC7
  8
0
 10
-375.0000000000001
 20
393.3012701892218
 30
0.0
 70
   192
  0
VERTEX
  5
1FC8
  8
0
 10
-393.301270189222
 20
374.9999999999999
 30
0.0
 70
   192
  0
VERTEX
  5
1FC9
  8
0
 10
-400.0000000000001
 20
349.9999999999999
 30
0.0
 70
   192
  0
VERTEX
  5
1FCA
  8
0
 10
-400.0
 20
-350.0000000000001
 30
0.0
 70
   192
  0
VERTEX
  5
1FCB
  8
0
 10
-393.301270189222
 20
-375.0000000000001
 30
0.0
 70
   192
  0
VERTEX
  5
1FCC
  8
0
 10
-375.0000000000001
 20
-393.3012701892221
 30
0.0
 70
   192
  0
VERTEX
  5
1FCD
  8
0
 10
-350.0000000000001
 20
-400.0000000000002
 30
0.0
 70
   192
  0
VERTEX
  5
1FCE
  8
0
 10
350.0000000000001
 20
-400.0
 30
0.0
 70
   192
  0
VERTEX
  5
1FCF
  8
0
 10
375.0000000000001
 20
-393.301270189222
 30
0.0
 70
   192
  0
VERTEX
  5
1FD0
  8
0
 10
393.301270189222
 20
-375.0000000000001
 30
0.0
 70
   192
  0
VERTEX
  5
1FD1
  8
0
 10
400.0000000000001
 20
-350.0000000000001
 30
0.0
 70
   192
  0
VERTEX
  5
1FD2
  8
0
 10
380.0
 20
350.0000000000001
 30
0.0
 70
   192
  0
VERTEX
  5
1FD3
  8
0
 10
380.0
 20
-350.0000000000001
 30
0.0
 70
   192
  0
VERTEX
  5
1FD4
  8
0
 10
375.9807621135332
 20
-365.0000000000001
 30
0.0
 70
   192
  0
VERTEX
  5
1FD5
  8
0
 10
365.0000000000001
 20
-375.9807621135332
 30
0.0
 70
   192
  0
VERTEX
  5
1FD6
  8
0
 10
350.0000000000001
 20
-380.0
 30
0.0
 70
   192
  0
VERTEX
  5
1FD7
  8
0
 10
-350.0000000000001
 20
-380.0000000000001
 30
0.0
 70
   192
  0
VERTEX
  5
1FD8
  8
0
 10
-365.0000000000001
 20
-375.9807621135333
 30
0.0
 70
   192
  0
VERTEX
  5
1FD9
  8
0
 10
-375.9807621135332
 20
-365.0000000000001
 30
0.0
 70
   192
  0
VERTEX
  5
1FDA
  8
0
 10
-380.0000000000001
 20
-350.0000000000001
 30
0.0
 70
   192
  0
VERTEX
  5
1FDB
  8
0
 10
-380.0000000000001
 20
349.9999999999999
 30
0.0
 70
   192
  0
VERTEX
  5
1FDC
  8
0
 10
-375.9807621135332
 20
364.9999999999999
 30
0.0
 70
   192
  0
VERTEX
  5
1FDD
  8
0
 10
-365.0000000000001
 20
375.980762113533
 30
0.0
 70
   192
  0
VERTEX
  5
1FDE
  8
0
 10
-350.0000000000001
 20
379.9999999999999
 30
0.0
 70
   192
  0
VERTEX
  5
1FDF
  8
0
 10
350.0000000000001
 20
380.0
 30
0.0
 70
   192
  0
VERTEX
  5
1FE0
  8
0
 10
365.0000000000001
 20
375.9807621135332
 30
0.0
 70
   192
  0
VERTEX
  5
1FE1
  8
0
 10
375.9807621135332
 20
365.0000000000001
 30
0.0
 70
   192
  0
VERTEX
  5
1FE2
  8
0
 10
0.0
 20
0.0
 30
0.0
 70
   128
 71
    -2
 72
    17
 73
   -18
  0
VERTEX
  5
1FE3
  8
0
 10
0.0
 20
0.0
 30
0.0
 70
   128
 71
     1
 72
    -2
 73
   -18
  0
VERTEX
  5
1FE4
  8
0
 10
0.0
 20
0.0
 30
0.0
 70
   128
 71
    16
 72
    -1
 73
   -18
  0
VERTEX
  5
1FE5
  8
0
 10
0.0
 20
0.0
 30
0.0
 70
   128
 71
    15
 72
   -16
 73
   -18
  0
VERTEX
  5
1FE6
  8
0
 10
0.0
 20
0.0
 30
0.0
 70
   128
 71
    18
 72
   -19
 73
   -15
  0
VERTEX
  5
1FE7
  8
0
 10
0.0
 20
0.0
 30
0.0
 70
   128
 71
   -20
 72
    14
 73
   -15
  0
VERTEX
  5
1FE8
  8
0
 10
0.0
 20
0.0
 30
0.0
 70
   128
 71
    19
 72
   -20
 73
   -15
  0
VERTEX
  5
1FE9
  8
0
 10
0.0
 20
0.0
 30
0.0
 70
   128
 71
    20
 72
   -21
 73
   -14
  0
VERTEX
  5
1FEA
  8
0
 10
0.0
 20
0.0
 30
0.0
 70
   128
 71
    12
 72
    13
 73
   -14
  0
VERTEX
  5
1FEB
  8
0
 10
0.0
 20
0.0
 30
0.0
 70
   128
 71
    11
 72
   -12
 73
   -14
  0
VERTEX
  5
1FEC
  8
0
 10
0.0
 20
0.0
 30
0.0
 70
   128
 71
   -22
 72
   -11
 73
   -14
  0
VERTEX
  5
1FED
  8
0
 10
0.0
 20
0.0
 30
0.0
 70
   128
 71
    21
 72
   -22
 73
   -14
  0
VERTEX
  5
1FEE
  8
0
 10
0.0
 20
0.0
 30
0.0
 70
   128
 71
    22
 72
   -23
 73
   -11
  0
VERTEX
  5
1FEF
  8
0
 10
0.0
 20
0.0
 30
0.0
 70
   128
 71
   -24
 72
    10
 73
   -11
  0
VERTEX
  5
1FF0
  8
0
 10
0.0
 20
0.0
 30
0.0
 70
   128
 71
    23
 72
   -24
 73
   -11
  0
VERTEX
  5
1FF1
  8
0
 10
0.0
 20
0.0
 30
0.0
 70
   128
 71
    24
 72
   -25
 73
   -10
  0
VERTEX
  5
1FF2
  8
0
 10
0.0
 20
0.0
 30
0.0
 70
   128
 71
     8
 72
     9
 73
   -10
  0
VERTEX
  5
1FF3
  8
0
 10
0.0
 20
0.0
 30
0.0
 70
   128
 71
     7
 72
    -8
 73
   -10
  0
VERTEX
  5
1FF4
  8
0
 10
0.0
 20
0.0
 30
0.0
 70
   128
 71
   -26
 72
    -7
 73
   -10
  0
VERTEX
  5
1FF5
  8
0
 10
0.0
 20
0.0
 30
0.0
 70
   128
 71
    25
 72
   -26
 73
   -10
  0
VERTEX
  5
1FF6
  8
0
 10
0.0
 20
0.0
 30
0.0
 70
   128
 71
    26
 72
   -27
 73
    -7
  0
VERTEX
  5
1FF7
  8
0
 10
0.0
 20
0.0
 30
0.0
 70
   128
 71
   -28
 72
     6
 73
    -7
  0
VERTEX
  5
1FF8
  8
0
 10
0.0
 20
0.0
 30
0.0
 70
   128
 71
    27
 72
   -28
 73
    -7
  0
VERTEX
  5
1FF9
  8
0
 10
0.0
 20
0.0
 30
0.0
 70
   128
 71
    28
 72
   -29
 73
    -6
  0
VERTEX
  5
1FFA
  8
0
 10
0.0
 20
0.0
 30
0.0
 70
   128
 71
     4
 72
     5
 73
    -6
  0
VERTEX
  5
1FFB
  8
0
 10
0.0
 20
0.0
 30
0.0
 70
   128
 71
     3
 72
    -4
 73
    -6
  0
VERTEX
  5
1FFC
  8
0
 10
0.0
 20
0.0
 30
0.0
 70
   128
 71
   -30
 72
    -3
 73
    -6
  0
VERTEX
  5
1FFD
  8
0
 10
0.0
 20
0.0
 30
0.0
 70
   128
 71
    29
 72
   -30
 73
    -6
  0
VERTEX
  5
1FFE
  8
0
 10
0.0
 20
0.0
 30
0.0
 70
   128
 71
    30
 72
   -31
 73
    -3
  0
VERTEX
  5
1FFF
  8
0
 10
0.0
 20
0.0
 30
0.0
 70
   128
 71
   -32
 72
     2
 73
    -3
  0
VERTEX
  5
2000
  8
0
 10
0.0
 20
0.0
 30
0.0
 70
   128
 71
    31
 72
   -32
 73
    -3
  0
VERTEX
  5
2001
  8
0
 10
0.0
 20
0.0
 30
0.0
 70
   128
 71
    32
 72
   -17
 73
    -2
  0
SEQEND
  5
23F4
  8
0
  0
POLYLINE
  5
2002
  8
0
 66
     1
 10
0.0
 20
0.0
 30
0.0
 70
    64
 71
     4
 72
     2
  0
VERTEX
  5
2003
  8
0
 10
380.0000000000001
 20
-350.0000000000001
 30
0.0
 70
   192
  0
VERTEX
  5
2004
  8
0
 10
380.0
 20
-350.0000000000001
 30
-0.5
 70
   192
  0
VERTEX
  5
2005
  8
0
 10
380.0
 20
350.0000000000001
 30
-0.5
 70
   192
  0
VERTEX
  5
2006
  8
0
 10
380.0
 20
350.0000000000001
 30
0.0
 70
   192
  0
VERTEX
  5
2007
  8
0
 10
0.0
 20
0.0
 30
0.0
 70
   128
 71
     1
 72
     4
 73
    -3
  0
VERTEX
  5
2008
  8
0
 10
0.0
 20
0.0
 30
0.0
 70
   128
 71
    -1
 72
     3
 73
     2
  0
SEQEND
  5
23F5
  8
0
  0
POLYLINE
  5
2009
  8
0
 66
     1
 10
0.0
 20
0.0
 30
0.0
 70
    64
 71
     8
 72
     6
  0
VERTEX
  5
200A
  8
0
 10
375.9807621135332
 20
-365.0000000000001
 30
-0.5
 70
   192
  0
VERTEX
  5
200B
  8
0
 10
365.0000000000001
 20
-375.9807621135332
 30
-0.5
 70
   192
  0
VERTEX
  5
200C
  8
0
 10
365.0000000000001
 20
-375.9807621135332
 30
0.0
 70
   192
  0
VERTEX
  5
200D
  8
0
 10
375.9807621135332
 20
-365.0000000000001
 30
0.0
 70
   192
  0
VERTEX
  5
200E
  8
0
 10
350.0000000000001
 20
-380.0
 30
-0.5
 70
   192
  0
VERTEX
  5
200F
  8
0
 10
350.0000000000001
 20
-380.0
 30
0.0
 70
   192
  0
VERTEX
  5
2010
  8
0
 10
380.0000000000001
 20
-350.0000000000001
 30
-0.5
 70
   192
  0
VERTEX
  5
2011
  8
0
 10
380.0
 20
-350.0000000000001
 30
0.0
 70
   192
  0
VERTEX
  5
2012
  8
0
 10
0.0
 20
0.0
 30
0.0
 70
   128
 71
     1
 72
     2
 73
    -3
  0
VERTEX
  5
2013
  8
0
 10
0.0
 20
0.0
 30
0.0
 70
   128
 71
     4
 72
    -1
 73
     3
  0
VERTEX
  5
2014
  8
0
 10
0.0
 20
0.0
 30
0.0
 70
   128
 71
     2
 72
     5
 73
    -6
  0
VERTEX
  5
2015
  8
0
 10
0.0
 20
0.0
 30
0.0
 70
   128
 71
     3
 72
    -2
 73
     6
  0
VERTEX
  5
2016
  8
0
 10
0.0
 20
0.0
 30
0.0
 70
   128
 71
     7
 72
     1
 73
    -4
  0
VERTEX
  5
2017
  8
0
 10
0.0
 20
0.0
 30
0.0
 70
   128
 71
     8
 72
    -7
 73
     4
  0
SEQEND
  5
23F6
  8
0
  0
POLYLINE
  5
2018
  8
0
 66
     1
 10
0.0
 20
0.0
 30
0.0
 70
    64
 71
     4
 72
     2
  0
VERTEX
  5
2019
  8
0
 10
-350.0000000000001
 20
-380.0000000000001
 30
0.0
 70
   192
  0
VERTEX
  5
201A
  8
0
 10
350.0000000000001
 20
-380.0
 30
0.0
 70
   192
  0
VERTEX
  5
201B
  8
0
 10
350.0000000000001
 20
-380.0
 30
-0.5
 70
   192
  0
VERTEX
  5
201C
  8
0
 10
-350.0000000000001
 20
-380.0000000000001
 30
-0.5
 70
   192
  0
VERTEX
  5
201D
  8
0
 10
0.0
 20
0.0
 30
0.0
 70
   128
 71
     3
 72
     4
 73
    -1
  0
VERTEX
  5
201E
  8
0
 10
0.0
 20
0.0
 30
0.0
 70
   128
 71
     2
 72
    -3
 73
     1
  0
SEQEND
  5
23F7
  8
0
  0
POLYLINE
  5
201F
  8
0
 66
     1
 10
0.0
 20
0.0
 30
0.0
 70
    64
 71
     8
 72
     6
  0
VERTEX
  5
2020
  8
0
 10
-365.0000000000001
 20
-375.9807621135333
 30
-0.5
 70
   192
  0
VERTEX
  5
2021
  8
0
 10
-375.9807621135332
 20
-365.0000000000001
 30
-0.5
 70
   192
  0
VERTEX
  5
2022
  8
0
 10
-375.9807621135332
 20
-365.0000000000001
 30
0.0
 70
   192
  0
VERTEX
  5
2023
  8
0
 10
-365.0000000000001
 20
-375.9807621135333
 30
0.0
 70
   192
  0
VERTEX
  5
2024
  8
0
 10
-380.0000000000001
 20
-350.0000000000001
 30
-0.5
 70
   192
  0
VERTEX
  5
2025
  8
0
 10
-380.0000000000001
 20
-350.0000000000001
 30
0.0
 70
   192
  0
VERTEX
  5
2026
  8
0
 10
-350.0000000000001
 20
-380.0000000000002
 30
-0.5
 70
   192
  0
VERTEX
  5
2027
  8
0
 10
-350.0000000000001
 20
-380.0000000000001
 30
0.0
 70
   192
  0
VERTEX
  5
2028
  8
0
 10
0.0
 20
0.0
 30
0.0
 70
   128
 71
     1
 72
     2
 73
    -3
  0
VERTEX
  5
2029
  8
0
 10
0.0
 20
0.0
 30
0.0
 70
   128
 71
     4
 72
    -1
 73
     3
  0
VERTEX
  5
202A
  8
0
 10
0.0
 20
0.0
 30
0.0
 70
   128
 71
     2
 72
     5
 73
    -6
  0
VERTEX
  5
202B
  8
0
 10
0.0
 20
0.0
 30
0.0
 70
   128
 71
     3
 72
    -2
 73
     6
  0
VERTEX
  5
202C
  8
0
 10
0.0
 20
0.0
 30
0.0
 70
   128
 71
     7
 72
     1
 73
    -4
  0
VERTEX
  5
202D
  8
0
 10
0.0
 20
0.0
 30
0.0
 70
   128
 71
     8
 72
    -7
 73
     4
  0
SEQEND
  5
23F8
  8
0
  0
POLYLINE
  5
202E
  8
0
 66
     1
 10
0.0
 20
0.0
 30
0.0
 70
    64
 71
     4
 72
     2
  0
VERTEX
  5
202F
  8
0
 10
-380.0000000000001
 20
349.9999999999999
 30
0.0
 70
   192
  0
VERTEX
  5
2030
  8
0
 10
-380.0000000000001
 20
-350.0000000000001
 30
0.0
 70
   192
  0
VERTEX
  5
2031
  8
0
 10
-380.0
 20
-350.0000000000001
 30
-0.5
 70
   192
  0
VERTEX
  5
2032
  8
0
 10
-380.0000000000001
 20
349.9999999999999
 30
-0.5
 70
   192
  0
VERTEX
  5
2033
  8
0
 10
0.0
 20
0.0
 30
0.0
 70
   128
 71
     3
 72
     4
 73
    -1
  0
VERTEX
  5
2034
  8
0
 10
0.0
 20
0.0
 30
0.0
 70
   128
 71
     2
 72
    -3
 73
     1
  0
SEQEND
  5
23F9
  8
0
  0
POLYLINE
  5
2035
  8
0
 66
     1
 10
0.0
 20
0.0
 30
0.0
 70
    64
 71
     8
 72
     6
  0
VERTEX
  5
2036
  8
0
 10
-375.9807621135332
 20
364.9999999999999
 30
-0.5
 70
   192
  0
VERTEX
  5
2037
  8
0
 10
-365.0000000000001
 20
375.980762113533
 30
-0.5
 70
   192
  0
VERTEX
  5
2038
  8
0
 10
-365.0000000000001
 20
375.980762113533
 30
0.0
 70
   192
  0
VERTEX
  5
2039
  8
0
 10
-375.9807621135332
 20
364.9999999999999
 30
0.0
 70
   192
  0
VERTEX
  5
203A
  8
0
 10
-350.0000000000001
 20
379.9999999999999
 30
-0.5
 70
   192
  0
VERTEX
  5
203B
  8
0
 10
-350.0000000000001
 20
379.9999999999999
 30
0.0
 70
   192
  0
VERTEX
  5
203C
  8
0
 10
-380.0000000000001
 20
349.9999999999999
 30
-0.5
 70
   192
  0
VERTEX
  5
203D
  8
0
 10
-380.0000000000001
 20
349.9999999999999
 30
0.0
 70
   192
  0
VERTEX
  5
203E
  8
0
 10
0.0
 20
0.0
 30
0.0
 70
   128
 71
     1
 72
     2
 73
    -3
  0
VERTEX
  5
203F
  8
0
 10
0.0
 20
0.0
 30
0.0
 70
   128
 71
     4
 72
    -1
 73
     3
  0
VERTEX
  5
2040
  8
0
 10
0.0
 20
0.0
 30
0.0
 70
   128
 71
     2
 72
     5
 73
    -6
  0
VERTEX
  5
2041
  8
0
 10
0.0
 20
0.0
 30
0.0
 70
   128
 71
     3
 72
    -2
 73
     6
  0
VERTEX
  5
2042
  8
0
 10
0.0
 20
0.0
 30
0.0
 70
   128
 71
     7
 72
     1
 73
    -4
  0
VERTEX
  5
2043
  8
0
 10
0.0
 20
0.0
 30
0.0
 70
   128
 71
     8
 72
    -7
 73
     4
  0
SEQEND
  5
23FA
  8
0
  0
POLYLINE
  5
2044
  8
0
 66
     1
 10
0.0
 20
0.0
 30
0.0
 70
    64
 71
     4
 72
     2
  0
VERTEX
  5
2045
  8
0
 10
350.0000000000001
 20
380.0
 30
0.0
 70
   192
  0
VERTEX
  5
2046
  8
0
 10
350.0000000000001
 20
380.0
 30
-0.5
 70
   192
  0
VERTEX
  5
2047
  8
0
 10
-350.0000000000001
 20
379.9999999999999
 30
-0.5
 70
   192
  0
VERTEX
  5
2048
  8
0
 10
-350.0000000000001
 20
379.9999999999999
 30
0.0
 70
   192
  0
VERTEX
  5
2049
  8
0
 10
0.0
 20
0.0
 30
0.0
 70
   128
 71
     1
 72
     4
 73
    -3
  0
VERTEX
  5
204A
  8
0
 10
0.0
 20
0.0
 30
0.0
 70
   128
 71
    -1
 72
     3
 73
     2
  0
SEQEND
  5
23FB
  8
0
  0
POLYLINE
  5
204B
  8
0
 66
     1
 10
0.0
 20
0.0
 30
0.0
 70
    64
 71
     8
 72
     6
  0
VERTEX
  5
204C
  8
0
 10
358.6602540378444
 20
355.0000000000001
 30
0.0
 70
   192
  0
VERTEX
  5
204D
  8
0
 10
358.6602540378444
 20
355.0000000000001
 30
-0.5
 70
   192
  0
VERTEX
  5
204E
  8
0
 10
355.0000000000001
 20
358.6602540378444
 30
-0.5
 70
   192
  0
VERTEX
  5
204F
  8
0
 10
355.0000000000001
 20
358.6602540378444
 30
0.0
 70
   192
  0
VERTEX
  5
2050
  8
0
 10
360.0
 20
350.0000000000001
 30
0.0
 70
   192
  0
VERTEX
  5
2051
  8
0
 10
360.0
 20
350.0000000000001
 30
-0.5
 70
   192
  0
VERTEX
  5
2052
  8
0
 10
350.0000000000001
 20
360.0
 30
-0.5
 70
   192
  0
VERTEX
  5
2053
  8
0
 10
350.0000000000001
 20
360.0
 30
0.0
 70
   192
  0
VERTEX
  5
2054
  8
0
 10
0.0
 20
0.0
 30
0.0
 70
   128
 71
     1
 72
     2
 73
    -3
  0
VERTEX
  5
2055
  8
0
 10
0.0
 20
0.0
 30
0.0
 70
   128
 71
    -1
 72
     3
 73
     4
  0
VERTEX
  5
2056
  8
0
 10
0.0
 20
0.0
 30
0.0
 70
   128
 71
     5
 72
     6
 73
    -2
  0
VERTEX
  5
2057
  8
0
 10
0.0
 20
0.0
 30
0.0
 70
   128
 71
    -5
 72
     2
 73
     1
  0
VERTEX
  5
2058
  8
0
 10
0.0
 20
0.0
 30
0.0
 70
   128
 71
     4
 72
     3
 73
    -7
  0
VERTEX
  5
2059
  8
0
 10
0.0
 20
0.0
 30
0.0
 70
   128
 71
    -4
 72
     7
 73
     8
  0
SEQEND
  5
23FC
  8
0
  0
POLYLINE
  5
205A
  8
0
 66
     1
 10
0.0
 20
0.0
 30
0.0
 70
    64
 71
     4
 72
     2
  0
VERTEX
  5
205B
  8
0
 10
-350.0000000000001
 20
359.9999999999999
 30
0.0
 70
   192
  0
VERTEX
  5
205C
  8
0
 10
350.0000000000001
 20
360.0
 30
0.0
 70
   192
  0
VERTEX
  5
205D
  8
0
 10
350.0000000000001
 20
360.0
 30
-0.5
 70
   192
  0
VERTEX
  5
205E
  8
0
 10
-350.0000000000001
 20
359.9999999999999
 30
-0.5
 70
   192
  0
VERTEX
  5
205F
  8
0
 10
0.0
 20
0.0
 30
0.0
 70
   128
 71
     3
 72
     4
 73
    -1
  0
VERTEX
  5
2060
  8
0
 10
0.0
 20
0.0
 30
0.0
 70
   128
 71
     2
 72
    -3
 73
     1
  0
SEQEND
  5
23FD
  8
0
  0
POLYLINE
  5
2061
  8
0
 66
     1
 10
0.0
 20
0.0
 30
0.0
 70
    64
 71
     8
 72
     6
  0
VERTEX
  5
2062
  8
0
 10
-355.0000000000001
 20
358.6602540378443
 30
0.0
 70
   192
  0
VERTEX
  5
2063
  8
0
 10
-355.0000000000001
 20
358.6602540378443
 30
-0.5
 70
   192
  0
VERTEX
  5
2064
  8
0
 10
-358.6602540378444
 20
354.9999999999999
 30
-0.5
 70
   192
  0
VERTEX
  5
2065
  8
0
 10
-358.6602540378444
 20
354.9999999999999
 30
0.0
 70
   192
  0
VERTEX
  5
2066
  8
0
 10
-350.0000000000001
 20
359.9999999999999
 30
0.0
 70
   192
  0
VERTEX
  5
2067
  8
0
 10
-350.0000000000001
 20
359.9999999999999
 30
-0.5
 70
   192
  0
VERTEX
  5
2068
  8
0
 10
-360.0000000000001
 20
349.9999999999999
 30
-0.5
 70
   192
  0
VERTEX
  5
2069
  8
0
 10
-360.0000000000001
 20
349.9999999999999
 30
0.0
 70
   192
  0
VERTEX
  5
206A
  8
0
 10
0.0
 20
0.0
 30
0.0
 70
   128
 71
     1
 72
     2
 73
    -3
  0
VERTEX
  5
206B
  8
0
 10
0.0
 20
0.0
 30
0.0
 70
   128
 71
    -1
 72
     3
 73
     4
  0
VERTEX
  5
206C
  8
0
 10
0.0
 20
0.0
 30
0.0
 70
   128
 71
     5
 72
     6
 73
    -2
  0
VERTEX
  5
206D
  8
0
 10
0.0
 20
0.0
 30
0.0
 70
   128
 71
    -5
 72
     2
 73
     1
  0
VERTEX
  5
206E
  8
0
 10
0.0
 20
0.0
 30
0.0
 70
   128
 71
     4
 72
     3
 73
    -7
  0
VERTEX
  5
206F
  8
0
 10
0.0
 20
0.0
 30
0.0
 70
   128
 71
    -4
 72
     7
 73
     8
  0
SEQEND
  5
23FE
  8
0
  0
POLYLINE
  5
2070
  8
0
 66
     1
 10
0.0
 20
0.0
 30
0.0
 70
    64
 71
     4
 72
     2
  0
VERTEX
  5
2071
  8
0
 10
-360.0
 20
-350.0000000000001
 30
0.0
 70
   192
  0
VERTEX
  5
2072
  8
0
 10
-360.0000000000001
 20
-350.0000000000001
 30
-0.5
 70
   192
  0
VERTEX
  5
2073
  8
0
 10
-360.0000000000001
 20
349.9999999999999
 30
-0.5
 70
   192
  0
VERTEX
  5
2074
  8
0
 10
-360.0000000000001
 20
349.9999999999999
 30
0.0
 70
   192
  0
VERTEX
  5
2075
  8
0
 10
0.0
 20
0.0
 30
0.0
 70
   128
 71
     1
 72
     4
 73
    -3
  0
VERTEX
  5
2076
  8
0
 10
0.0
 20
0.0
 30
0.0
 70
   128
 71
    -1
 72
     3
 73
     2
  0
SEQEND
  5
23FF
  8
0
  0
POLYLINE
  5
2077
  8
0
 66
     1
 10
0.0
 20
0.0
 30
0.0
 70
    64
 71
     8
 72
     6
  0
VERTEX
  5
2078
  8
0
 10
-358.6602540378444
 20
-355.0000000000001
 30
0.0
 70
   192
  0
VERTEX
  5
2079
  8
0
 10
-358.6602540378444
 20
-355.0000000000001
 30
-0.5
 70
   192
  0
VERTEX
  5
207A
  8
0
 10
-355.0000000000001
 20
-358.6602540378445
 30
-0.5
 70
   192
  0
VERTEX
  5
207B
  8
0
 10
-355.0000000000001
 20
-358.6602540378445
 30
0.0
 70
   192
  0
VERTEX
  5
207C
  8
0
 10
-360.0
 20
-350.0000000000001
 30
0.0
 70
   192
  0
VERTEX
  5
207D
  8
0
 10
-360.0
 20
-350.0000000000001
 30
-0.5
 70
   192
  0
VERTEX
  5
207E
  8
0
 10
-350.0000000000001
 20
-360.0000000000001
 30
-0.5
 70
   192
  0
VERTEX
  5
207F
  8
0
 10
-350.0000000000001
 20
-360.0000000000002
 30
0.0
 70
   192
  0
VERTEX
  5
2080
  8
0
 10
0.0
 20
0.0
 30
0.0
 70
   128
 71
     1
 72
     2
 73
    -3
  0
VERTEX
  5
2081
  8
0
 10
0.0
 20
0.0
 30
0.0
 70
   128
 71
    -1
 72
     3
 73
     4
  0
VERTEX
  5
2082
  8
0
 10
0.0
 20
0.0
 30
0.0
 70
   128
 71
     5
 72
     6
 73
    -2
  0
VERTEX
  5
2083
  8
0
 10
0.0
 20
0.0
 30
0.0
 70
   128
 71
    -5
 72
     2
 73
     1
  0
VERTEX
  5
2084
  8
0
 10
0.0
 20
0.0
 30
0.0
 70
   128
 71
     4
 72
     3
 73
    -7
  0
VERTEX
  5
2085
  8
0
 10
0.0
 20
0.0
 30
0.0
 70
   128
 71
    -4
 72
     7
 73
     8
  0
SEQEND
  5
2400
  8
0
  0
POLYLINE
  5
2086
  8
0
 66
     1
 10
0.0
 20
0.0
 30
0.0
 70
    64
 71
     4
 72
     2
  0
VERTEX
  5
2087
  8
0
 10
350.0000000000001
 20
-360.0
 30
0.0
 70
   192
  0
VERTEX
  5
2088
  8
0
 10
350.0000000000001
 20
-360.0
 30
-0.5
 70
   192
  0
VERTEX
  5
2089
  8
0
 10
-350.0000000000001
 20
-360.0000000000002
 30
-0.5
 70
   192
  0
VERTEX
  5
208A
  8
0
 10
-350.0000000000001
 20
-360.0000000000001
 30
0.0
 70
   192
  0
VERTEX
  5
208B
  8
0
 10
0.0
 20
0.0
 30
0.0
 70
   128
 71
     1
 72
     4
 73
    -3
  0
VERTEX
  5
208C
  8
0
 10
0.0
 20
0.0
 30
0.0
 70
   128
 71
    -1
 72
     3
 73
     2
  0
SEQEND
  5
2401
  8
0
  0
POLYLINE
  5
208D
  8
0
 66
     1
 10
0.0
 20
0.0
 30
0.0
 70
    64
 71
     8
 72
     6
  0
VERTEX
  5
208E
  8
0
 10
355.0000000000001
 20
-358.6602540378444
 30
0.0
 70
   192
  0
VERTEX
  5
208F
  8
0
 10
355.0000000000001
 20
-358.6602540378444
 30
-0.5
 70
   192
  0
VERTEX
  5
2090
  8
0
 10
358.6602540378444
 20
-355.0000000000001
 30
-0.5
 70
   192
  0
VERTEX
  5
2091
  8
0
 10
358.6602540378444
 20
-355.0000000000001
 30
0.0
 70
   192
  0
VERTEX
  5
2092
  8
0
 10
350.0000000000001
 20
-360.0
 30
0.0
 70
   192
  0
VERTEX
  5
2093
  8
0
 10
350.0000000000001
 20
-360.0
 30
-0.5
 70
   192
  0
VERTEX
  5
2094
  8
0
 10
360.0
 20
-350.0000000000001
 30
-0.5
 70
   192
  0
VERTEX
  5
2095
  8
0
 10
360.0000000000001
 20
-350.0000000000001
 30
0.0
 70
   192
  0
VERTEX
  5
2096
  8
0
 10
0.0
 20
0.0
 30
0.0
 70
   128
 71
     1
 72
     2
 73
    -3
  0
VERTEX
  5
2097
  8
0
 10
0.0
 20
0.0
 30
0.0
 70
   128
 71
    -1
 72
     3
 73
     4
  0
VERTEX
  5
2098
  8
0
 10
0.0
 20
0.0
 30
0.0
 70
   128
 71
     5
 72
     6
 73
    -2
  0
VERTEX
  5
2099
  8
0
 10
0.0
 20
0.0
 30
0.0
 70
   128
 71
    -5
 72
     2
 73
     1
  0
VERTEX
  5
209A
  8
0
 10
0.0
 20
0.0
 30
0.0
 70
   128
 71
     4
 72
     3
 73
    -7
  0
VERTEX
  5
209B
  8
0
 10
0.0
 20
0.0
 30
0.0
 70
   128
 71
    -4
 72
     7
 73
     8
  0
SEQEND
  5
2402
  8
0
  0
POLYLINE
  5
209C
  8
0
 66
     1
 10
0.0
 20
0.0
 30
0.0
 70
    64
 71
     4
 72
     2
  0
VERTEX
  5
209D
  8
0
 10
360.0
 20
350.0000000000001
 30
0.0
 70
   192
  0
VERTEX
  5
209E
  8
0
 10
360.0
 20
-350.0000000000001
 30
0.0
 70
   192
  0
VERTEX
  5
209F
  8
0
 10
360.0000000000001
 20
-350.0000000000001
 30
-0.5
 70
   192
  0
VERTEX
  5
20A0
  8
0
 10
360.0
 20
350.0000000000001
 30
-0.5
 70
   192
  0
VERTEX
  5
20A1
  8
0
 10
0.0
 20
0.0
 30
0.0
 70
   128
 71
     3
 72
     4
 73
    -1
  0
VERTEX
  5
20A2
  8
0
 10
0.0
 20
0.0
 30
0.0
 70
   128
 71
     2
 72
    -3
 73
     1
  0
SEQEND
  5
2403
  8
0
  0
POLYLINE
  5
20A3
  8
0
 66
     1
 10
0.0
 20
0.0
 30
0.0
 70
    64
 71
     8
 72
     6
  0
VERTEX
  5
20A4
  8
0
 10
365.0000000000001
 20
375.9807621135332
 30
-0.5
 70
   192
  0
VERTEX
  5
20A5
  8
0
 10
375.9807621135332
 20
365.0000000000001
 30
-0.5
 70
   192
  0
VERTEX
  5
20A6
  8
0
 10
375.9807621135332
 20
365.0000000000001
 30
0.0
 70
   192
  0
VERTEX
  5
20A7
  8
0
 10
365.0000000000001
 20
375.9807621135332
 30
0.0
 70
   192
  0
VERTEX
  5
20A8
  8
0
 10
380.0
 20
350.0000000000001
 30
-0.5
 70
   192
  0
VERTEX
  5
20A9
  8
0
 10
380.0
 20
350.0000000000001
 30
0.0
 70
   192
  0
VERTEX
  5
20AA
  8
0
 10
350.0000000000001
 20
380.0
 30
-0.5
 70
   192
  0
VERTEX
  5
20AB
  8
0
 10
350.0000000000001
 20
380.0
 30
0.0
 70
   192
  0
VERTEX
  5
20AC
  8
0
 10
0.0
 20
0.0
 30
0.0
 70
   128
 71
     1
 72
     2
 73
    -3
  0
VERTEX
  5
20AD
  8
0
 10
0.0
 20
0.0
 30
0.0
 70
   128
 71
     4
 72
    -1
 73
     3
  0
VERTEX
  5
20AE
  8
0
 10
0.0
 20
0.0
 30
0.0
 70
   128
 71
     2
 72
     5
 73
    -6
  0
VERTEX
  5
20AF
  8
0
 10
0.0
 20
0.0
 30
0.0
 70
   128
 71
     3
 72
    -2
 73
     6
  0
VERTEX
  5
20B0
  8
0
 10
0.0
 20
0.0
 30
0.0
 70
   128
 71
     7
 72
     1
 73
    -4
  0
VERTEX
  5
20B1
  8
0
 10
0.0
 20
0.0
 30
0.0
 70
   128
 71
     8
 72
    -7
 73
     4
  0
SEQEND
  5
2404
  8
0
  0
POLYLINE
  5
20B2
  8
0
 66
     1
 10
0.0
 20
0.0
 30
0.0
 70
    64
 71
    32
 72
    32
  0
VERTEX
  5
20B3
  8
0
 10
380.0
 20
-350.0000000000001
 30
-0.5
 70
   192
  0
VERTEX
  5
20B4
  8
0
 10
380.0
 20
350.0000000000001
 30
-0.5
 70
   192
  0
VERTEX
  5
20B5
  8
0
 10
375.9807621135332
 20
365.0000000000001
 30
-0.5
 70
   192
  0
VERTEX
  5
20B6
  8
0
 10
365.0000000000001
 20
375.9807621135332
 30
-0.5
 70
   192
  0
VERTEX
  5
20B7
  8
0
 10
350.0000000000001
 20
380.0
 30
-0.5
 70
   192
  0
VERTEX
  5
20B8
  8
0
 10
-350.0000000000001
 20
379.9999999999999
 30
-0.5
 70
   192
  0
VERTEX
  5
20B9
  8
0
 10
-365.0000000000001
 20
375.980762113533
 30
-0.5
 70
   192
  0
VERTEX
  5
20BA
  8
0
 10
-375.9807621135332
 20
364.9999999999999
 30
-0.5
 70
   192
  0
VERTEX
  5
20BB
  8
0
 10
-380.0000000000001
 20
349.9999999999999
 30
-0.5
 70
   192
  0
VERTEX
  5
20BC
  8
0
 10
-380.0000000000001
 20
-350.0000000000001
 30
-0.5
 70
   192
  0
VERTEX
  5
20BD
  8
0
 10
-375.9807621135332
 20
-365.0000000000001
 30
-0.5
 70
   192
  0
VERTEX
  5
20BE
  8
0
 10
-365.0000000000001
 20
-375.9807621135333
 30
-0.5
 70
   192
  0
VERTEX
  5
20BF
  8
0
 10
-350.0000000000001
 20
-380.0000000000001
 30
-0.5
 70
   192
  0
VERTEX
  5
20C0
  8
0
 10
350.0000000000001
 20
-380.0
 30
-0.5
 70
   192
  0
VERTEX
  5
20C1
  8
0
 10
365.0000000000001
 20
-375.9807621135332
 30
-0.5
 70
   192
  0
VERTEX
  5
20C2
  8
0
 10
375.9807621135332
 20
-365.0000000000001
 30
-0.5
 70
   192
  0
VERTEX
  5
20C3
  8
0
 10
350.0000000000001
 20
360.0
 30
-0.5
 70
   192
  0
VERTEX
  5
20C4
  8
0
 10
355.0000000000001
 20
358.6602540378444
 30
-0.5
 70
   192
  0
VERTEX
  5
20C5
  8
0
 10
358.6602540378444
 20
355.0000000000001
 30
-0.5
 70
   192
  0
VERTEX
  5
20C6
  8
0
 10
360.0
 20
350.0000000000001
 30
-0.5
 70
   192
  0
VERTEX
  5
20C7
  8
0
 10
360.0
 20
-350.0000000000001
 30
-0.5
 70
   192
  0
VERTEX
  5
20C8
  8
0
 10
358.6602540378444
 20
-355.0000000000001
 30
-0.5
 70
   192
  0
VERTEX
  5
20C9
  8
0
 10
355.0000000000001
 20
-358.6602540378444
 30
-0.5
 70
   192
  0
VERTEX
  5
20CA
  8
0
 10
350.0000000000001
 20
-360.0
 30
-0.5
 70
   192
  0
VERTEX
  5
20CB
  8
0
 10
-350.0000000000001
 20
-360.0000000000001
 30
-0.5
 70
   192
  0
VERTEX
  5
20CC
  8
0
 10
-355.0000000000001
 20
-358.6602540378445
 30
-0.5
 70
   192
  0
VERTEX
  5
20CD
  8
0
 10
-358.6602540378444
 20
-355.0000000000001
 30
-0.5
 70
   192
  0
VERTEX
  5
20CE
  8
0
 10
-360.0
 20
-350.0000000000001
 30
-0.5
 70
   192
  0
VERTEX
  5
20CF
  8
0
 10
-360.0000000000001
 20
349.9999999999999
 30
-0.5
 70
   192
  0
VERTEX
  5
20D0
  8
0
 10
-358.6602540378444
 20
354.9999999999999
 30
-0.5
 70
   192
  0
VERTEX
  5
20D1
  8
0
 10
-355.0000000000001
 20
358.6602540378443
 30
-0.5
 70
   192
  0
VERTEX
  5
20D2
  8
0
 10
-350.0000000000001
 20
359.9999999999999
 30
-0.5
 70
   192
  0
VERTEX
  5
20D3
  8
0
 10
0.0
 20
0.0
 30
0.0
 70
   128
 71
    -3
 72
    17
 73
   -18
  0
VERTEX
  5
20D4
  8
0
 10
0.0
 20
0.0
 30
0.0
 70
   128
 71
    18
 72
   -19
 73
    -3
  0
VERTEX
  5
20D5
  8
0
 10
0.0
 20
0.0
 30
0.0
 70
   128
 71
    19
 72
   -20
 73
    -3
  0
VERTEX
  5
20D6
  8
0
 10
0.0
 20
0.0
 30
0.0
 70
   128
 71
     1
 72
     2
 73
    -3
  0
VERTEX
  5
20D7
  8
0
 10
0.0
 20
0.0
 30
0.0
 70
   128
 71
    16
 72
    -1
 73
    -3
  0
VERTEX
  5
20D8
  8
0
 10
0.0
 20
0.0
 30
0.0
 70
   128
 71
   -21
 72
   -16
 73
    -3
  0
VERTEX
  5
20D9
  8
0
 10
0.0
 20
0.0
 30
0.0
 70
   128
 71
    20
 72
   -21
 73
    -3
  0
VERTEX
  5
20DA
  8
0
 10
0.0
 20
0.0
 30
0.0
 70
   128
 71
    21
 72
   -22
 73
   -16
  0
VERTEX
  5
20DB
  8
0
 10
0.0
 20
0.0
 30
0.0
 70
   128
 71
    22
 72
   -23
 73
   -16
  0
VERTEX
  5
20DC
  8
0
 10
0.0
 20
0.0
 30
0.0
 70
   128
 71
    23
 72
   -24
 73
   -16
  0
VERTEX
  5
20DD
  8
0
 10
0.0
 20
0.0
 30
0.0
 70
   128
 71
    14
 72
    15
 73
   -16
  0
VERTEX
  5
20DE
  8
0
 10
0.0
 20
0.0
 30
0.0
 70
   128
 71
    13
 72
   -14
 73
   -16
  0
VERTEX
  5
20DF
  8
0
 10
0.0
 20
0.0
 30
0.0
 70
   128
 71
    12
 72
   -13
 73
   -16
  0
VERTEX
  5
20E0
  8
0
 10
0.0
 20
0.0
 30
0.0
 70
   128
 71
   -25
 72
   -12
 73
   -16
  0
VERTEX
  5
20E1
  8
0
 10
0.0
 20
0.0
 30
0.0
 70
   128
 71
    24
 72
   -25
 73
   -16
  0
VERTEX
  5
20E2
  8
0
 10
0.0
 20
0.0
 30
0.0
 70
   128
 71
    25
 72
   -26
 73
   -12
  0
VERTEX
  5
20E3
  8
0
 10
0.0
 20
0.0
 30
0.0
 70
   128
 71
    26
 72
   -27
 73
   -12
  0
VERTEX
  5
20E4
  8
0
 10
0.0
 20
0.0
 30
0.0
 70
   128
 71
    27
 72
   -28
 73
   -12
  0
VERTEX
  5
20E5
  8
0
 10
0.0
 20
0.0
 30
0.0
 70
   128
 71
    10
 72
    11
 73
   -12
  0
VERTEX
  5
20E6
  8
0
 10
0.0
 20
0.0
 30
0.0
 70
   128
 71
     9
 72
   -10
 73
   -12
  0
VERTEX
  5
20E7
  8
0
 10
0.0
 20
0.0
 30
0.0
 70
   128
 71
     8
 72
    -9
 73
   -12
  0
VERTEX
  5
20E8
  8
0
 10
0.0
 20
0.0
 30
0.0
 70
   128
 71
   -29
 72
    -8
 73
   -12
  0
VERTEX
  5
20E9
  8
0
 10
0.0
 20
0.0
 30
0.0
 70
   128
 71
    28
 72
   -29
 73
   -12
  0
VERTEX
  5
20EA
  8
0
 10
0.0
 20
0.0
 30
0.0
 70
   128
 71
    29
 72
   -30
 73
    -8
  0
VERTEX
  5
20EB
  8
0
 10
0.0
 20
0.0
 30
0.0
 70
   128
 71
    30
 72
   -31
 73
    -8
  0
VERTEX
  5
20EC
  8
0
 10
0.0
 20
0.0
 30
0.0
 70
   128
 71
    31
 72
   -32
 73
    -8
  0
VERTEX
  5
20ED
  8
0
 10
0.0
 20
0.0
 30
0.0
 70
   128
 71
     6
 72
     7
 73
    -8
  0
VERTEX
  5
20EE
  8
0
 10
0.0
 20
0.0
 30
0.0
 70
   128
 71
     5
 72
    -6
 73
    -8
  0
VERTEX
  5
20EF
  8
0
 10
0.0
 20
0.0
 30
0.0
 70
   128
 71
     4
 72
    -5
 73
    -8
  0
VERTEX
  5
20F0
  8
0
 10
0.0
 20
0.0
 30
0.0
 70
   128
 71
     3
 72
    -4
 73
    -8
  0
VERTEX
  5
20F1
  8
0
 10
0.0
 20
0.0
 30
0.0
 70
   128
 71
   -17
 72
    -3
 73
    -8
  0
VERTEX
  5
20F2
  8
0
 10
0.0
 20
0.0
 30
0.0
 70
   128
 71
    32
 72
   -17
 73
    -8
  0
SEQEND
  5
2405
  8
0
  0
POLYLINE
  5
20F3
  8
0
 66
     1
 10
0.0
 20
0.0
 30
0.0
 70
    64
 71
    16
 72
    14
  0
VERTEX
  5
20F4
  8
0
 10
360.0
 20
-350.0000000000001
 30
0.0
 70
   192
  0
VERTEX
  5
20F5
  8
0
 10
360.0
 20
350.0000000000001
 30
0.0
 70
   192
  0
VERTEX
  5
20F6
  8
0
 10
358.6602540378444
 20
355.0000000000001
 30
0.0
 70
   192
  0
VERTEX
  5
20F7
  8
0
 10
355.0000000000001
 20
358.6602540378444
 30
0.0
 70
   192
  0
VERTEX
  5
20F8
  8
0
 10
350.0000000000001
 20
360.0
 30
0.0
 70
   192
  0
VERTEX
  5
20F9
  8
0
 10
-350.0000000000001
 20
359.9999999999999
 30
0.0
 70
   192
  0
VERTEX
  5
20FA
  8
0
 10
-355.0000000000001
 20
358.6602540378443
 30
0.0
 70
   192
  0
VERTEX
  5
20FB
  8
0
 10
-358.6602540378444
 20
354.9999999999999
 30
0.0
 70
   192
  0
VERTEX
  5
20FC
  8
0
 10
-360.0000000000001
 20
349.9999999999999
 30
0.0
 70
   192
  0
VERTEX
  5
20FD
  8
0
 10
-360.0000000000001
 20
-350.0000000000001
 30
0.0
 70
   192
  0
VERTEX
  5
20FE
  8
0
 10
-358.6602540378444
 20
-355.0000000000001
 30
0.0
 70
   192
  0
VERTEX
  5
20FF
  8
0
 10
-355.0000000000001
 20
-358.6602540378445
 30
0.0
 70
   192
  0
VERTEX
  5
2100
  8
0
 10
-350.0000000000001
 20
-360.0000000000001
 30
0.0
 70
   192
  0
VERTEX
  5
2101
  8
0
 10
350.0000000000001
 20
-360.0
 30
0.0
 70
   192
  0
VERTEX
  5
2102
  8
0
 10
355.0000000000001
 20
-358.6602540378444
 30
0.0
 70
   192
  0
VERTEX
  5
2103
  8
0
 10
358.6602540378444
 20
-355.0000000000001
 30
0.0
 70
   192
  0
VERTEX
  5
2104
  8
0
 10
0.0
 20
0.0
 30
0.0
 70
   128
 71
    15
 72
    16
 73
    -1
  0
VERTEX
  5
2105
  8
0
 10
0.0
 20
0.0
 30
0.0
 70
   128
 71
    14
 72
   -15
 73
    -1
  0
VERTEX
  5
2106
  8
0
 10
0.0
 20
0.0
 30
0.0
 70
   128
 71
    13
 72
   -14
 73
    -1
  0
VERTEX
  5
2107
  8
0
 10
0.0
 20
0.0
 30
0.0
 70
   128
 71
    12
 72
   -13
 73
    -1
  0
VERTEX
  5
2108
  8
0
 10
0.0
 20
0.0
 30
0.0
 70
   128
 71
    11
 72
   -12
 73
    -1
  0
VERTEX
  5
2109
  8
0
 10
0.0
 20
0.0
 30
0.0
 70
   128
 71
    10
 72
   -11
 73
    -1
  0
VERTEX
  5
210A
  8
0
 10
0.0
 20
0.0
 30
0.0
 70
   128
 71
     9
 72
   -10
 73
    -1
  0
VERTEX
  5
210B
  8
0
 10
0.0
 20
0.0
 30
0.0
 70
   128
 71
     8
 72
    -9
 73
    -1
  0
VERTEX
  5
210C
  8
0
 10
0.0
 20
0.0
 30
0.0
 70
   128
 71
     7
 72
    -8
 73
    -1
  0
VERTEX
  5
210D
  8
0
 10
0.0
 20
0.0
 30
0.0
 70
   128
 71
     6
 72
    -7
 73
    -1
  0
VERTEX
  5
210E
  8
0
 10
0.0
 20
0.0
 30
0.0
 70
   128
 71
     5
 72
    -6
 73
    -1
  0
VERTEX
  5
210F
  8
0
 10
0.0
 20
0.0
 30
0.0
 70
   128
 71
     4
 72
    -5
 73
    -1
  0
VERTEX
  5
2110
  8
0
 10
0.0
 20
0.0
 30
0.0
 70
   128
 71
     3
 72
    -4
 73
    -1
  0
VERTEX
  5
2111
  8
0
 10
0.0
 20
0.0
 30
0.0
 70
   128
 71
     2
 72
    -3
 73
     1
  0
SEQEND
  5
2406
  8
0
  0
ENDBLK
  5
23EA
  8
0
  0
BLOCK
  8
0
  2
*X2
 70
     1
 10
0.0
 20
0.0
 30
0.0
  3
*X2
  1

  0
POLYLINE
  5
2113
  8
0
 66
     1
 10
0.0
 20
0.0
 30
0.0
 70
    64
 71
     6
 72
     4
  0
VERTEX
  5
2114
  8
0
 10
-265.0
 20
265.9291984132541
 30
-12.0
 70
   192
  0
VERTEX
  5
2115
  8
0
 10
-299.0000000000001
 20
265.9291984132541
 30
-12.0
 70
   192
  0
VERTEX
  5
2116
  8
0
 10
-299.0000000000001
 20
265.9291984132541
 30
-5.0
 70
   192
  0
VERTEX
  5
2117
  8
0
 10
-302.0000000000001
 20
265.9291984132541
 30
-5.0
 70
   192
  0
VERTEX
  5
2118
  8
0
 10
-302.0000000000001
 20
265.9291984132541
 30
-15.0
 70
   192
  0
VERTEX
  5
2119
  8
0
 10
-265.0
 20
265.9291984132541
 30
-15.0
 70
   192
  0
VERTEX
  5
211A
  8
0
 10
0.0
 20
0.0
 30
0.0
 70
   128
 71
     6
 72
     1
 73
    -2
  0
VERTEX
  5
211B
  8
0
 10
0.0
 20
0.0
 30
0.0
 70
   128
 71
     5
 72
    -6
 73
    -2
  0
VERTEX
  5
211C
  8
0
 10
0.0
 20
0.0
 30
0.0
 70
   128
 71
     3
 72
     4
 73
    -5
  0
VERTEX
  5
211D
  8
0
 10
0.0
 20
0.0
 30
0.0
 70
   128
 71
     2
 72
    -3
 73
    -5
  0
SEQEND
  5
2409
  8
0
  0
POLYLINE
  5
211E
  8
0
 66
     1
 10
0.0
 20
0.0
 30
0.0
 70
    64
 71
     6
 72
     4
  0
VERTEX
  5
211F
  8
0
 10
-302.0
 20
234.9581696432134
 30
-2.0
 70
   192
  0
VERTEX
  5
2120
  8
0
 10
-302.0000000000001
 20
290.9291984132541
 30
-2.0
 70
   192
  0
VERTEX
  5
2121
  8
0
 10
-302.0000000000001
 20
290.9291984132541
 30
-15.0
 70
   192
  0
VERTEX
  5
2122
  8
0
 10
-302.0000000000001
 20
265.9291984132541
 30
-15.0
 70
   192
  0
VERTEX
  5
2123
  8
0
 10
-302.0000000000001
 20
265.9291984132541
 30
-5.0
 70
   192
  0
VERTEX
  5
2124
  8
0
 10
-302.0
 20
234.9581696432134
 30
-5.0
 70
   192
  0
VERTEX
  5
2125
  8
0
 10
0.0
 20
0.0
 30
0.0
 70
   128
 71
     3
 72
     4
 73
    -5
  0
VERTEX
  5
2126
  8
0
 10
0.0
 20
0.0
 30
0.0
 70
   128
 71
     2
 72
    -3
 73
    -5
  0
VERTEX
  5
2127
  8
0
 10
0.0
 20
0.0
 30
0.0
 70
   128
 71
     6
 72
     1
 73
    -2
  0
VERTEX
  5
2128
  8
0
 10
0.0
 20
0.0
 30
0.0
 70
   128
 71
     5
 72
    -6
 73
    -2
  0
SEQEND
  5
240A
  8
0
  0
POLYLINE
  5
2129
  8
0
 66
     1
 10
0.0
 20
0.0
 30
0.0
 70
    64
 71
     4
 72
     2
  0
VERTEX
  5
212A
  8
0
 10
-302.0000000000001
 20
290.9291984132541
 30
-2.0
 70
   192
  0
VERTEX
  5
212B
  8
0
 10
-302.0000000000001
 20
290.9291984132541
 30
-15.0
 70
   192
  0
VERTEX
  5
212C
  8
0
 10
-222.0
 20
290.9291984132541
 30
-15.0
 70
   192
  0
VERTEX
  5
212D
  8
0
 10
-222.0
 20
290.9291984132541
 30
-2.0
 70
   192
  0
VERTEX
  5
212E
  8
0
 10
0.0
 20
0.0
 30
0.0
 70
   128
 71
     1
 72
     4
 73
    -3
  0
VERTEX
  5
212F
  8
0
 10
0.0
 20
0.0
 30
0.0
 70
   128
 71
    -1
 72
     3
 73
     2
  0
SEQEND
  5
240B
  8
0
  0
POLYLINE
  5
2130
  8
0
 66
     1
 10
0.0
 20
0.0
 30
0.0
 70
    64
 71
     6
 72
     4
  0
VERTEX
  5
2131
  8
0
 10
-222.0
 20
290.9291984132541
 30
-2.0
 70
   192
  0
VERTEX
  5
2132
  8
0
 10
-222.0
 20
290.9291984132541
 30
-15.0
 70
   192
  0
VERTEX
  5
2133
  8
0
 10
-222.0
 20
265.9291984132541
 30
-15.0
 70
   192
  0
VERTEX
  5
2134
  8
0
 10
-222.0
 20
265.9291984132541
 30
-5.0
 70
   192
  0
VERTEX
  5
2135
  8
0
 10
-222.0
 20
234.9581696432134
 30
-5.0
 70
   192
  0
VERTEX
  5
2136
  8
0
 10
-222.0
 20
234.9581696432134
 30
-2.0
 70
   192
  0
VERTEX
  5
2137
  8
0
 10
0.0
 20
0.0
 30
0.0
 70
   128
 71
     4
 72
     3
 73
    -2
  0
VERTEX
  5
2138
  8
0
 10
0.0
 20
0.0
 30
0.0
 70
   128
 71
    -4
 72
     2
 73
    -1
  0
VERTEX
  5
2139
  8
0
 10
0.0
 20
0.0
 30
0.0
 70
   128
 71
     1
 72
     6
 73
    -5
  0
VERTEX
  5
213A
  8
0
 10
0.0
 20
0.0
 30
0.0
 70
   128
 71
    -1
 72
     5
 73
    -4
  0
SEQEND
  5
240C
  8
0
  0
POLYLINE
  5
213B
  8
0
 66
     1
 10
0.0
 20
0.0
 30
0.0
 70
    64
 71
     4
 72
     2
  0
VERTEX
  5
213C
  8
0
 10
-222.0
 20
234.9581696432134
 30
-2.0
 70
   192
  0
VERTEX
  5
213D
  8
0
 10
-302.0
 20
234.9581696432134
 30
-2.0
 70
   192
  0
VERTEX
  5
213E
  8
0
 10
-302.0
 20
234.9581696432134
 30
-5.0
 70
   192
  0
VERTEX
  5
213F
  8
0
 10
-222.0
 20
234.9581696432134
 30
-5.0
 70
   192
  0
VERTEX
  5
2140
  8
0
 10
0.0
 20
0.0
 30
0.0
 70
   128
 71
     3
 72
     4
 73
    -1
  0
VERTEX
  5
2141
  8
0
 10
0.0
 20
0.0
 30
0.0
 70
   128
 71
     2
 72
    -3
 73
     1
  0
SEQEND
  5
240D
  8
0
  0
POLYLINE
  5
2142
  8
0
 66
     1
 10
0.0
 20
0.0
 30
0.0
 70
    64
 71
     8
 72
     6
  0
VERTEX
  5
2143
  8
0
 10
-225.0
 20
287.9291984132541
 30
-5.0
 70
   192
  0
VERTEX
  5
2144
  8
0
 10
-299.0000000000001
 20
287.929198413254
 30
-5.0
 70
   192
  0
VERTEX
  5
2145
  8
0
 10
-299.0000000000001
 20
265.9291984132541
 30
-5.0
 70
   192
  0
VERTEX
  5
2146
  8
0
 10
-302.0000000000001
 20
265.9291984132541
 30
-5.0
 70
   192
  0
VERTEX
  5
2147
  8
0
 10
-302.0
 20
234.9581696432134
 30
-5.0
 70
   192
  0
VERTEX
  5
2148
  8
0
 10
-222.0
 20
234.9581696432134
 30
-5.0
 70
   192
  0
VERTEX
  5
2149
  8
0
 10
-222.0
 20
265.9291984132541
 30
-5.0
 70
   192
  0
VERTEX
  5
214A
  8
0
 10
-225.0
 20
265.9291984132541
 30
-5.0
 70
   192
  0
VERTEX
  5
214B
  8
0
 10
0.0
 20
0.0
 30
0.0
 70
   128
 71
     8
 72
     7
 73
    -6
  0
VERTEX
  5
214C
  8
0
 10
0.0
 20
0.0
 30
0.0
 70
   128
 71
     3
 72
     2
 73
    -1
  0
VERTEX
  5
214D
  8
0
 10
0.0
 20
0.0
 30
0.0
 70
   128
 71
    -3
 72
     1
 73
    -8
  0
VERTEX
  5
214E
  8
0
 10
0.0
 20
0.0
 30
0.0
 70
   128
 71
    -8
 72
     6
 73
    -5
  0
VERTEX
  5
214F
  8
0
 10
0.0
 20
0.0
 30
0.0
 70
   128
 71
    -8
 72
    -5
 73
    -3
  0
VERTEX
  5
2150
  8
0
 10
0.0
 20
0.0
 30
0.0
 70
   128
 71
     5
 72
     4
 73
    -3
  0
SEQEND
  5
240E
  8
0
  0
POLYLINE
  5
2151
  8
0
 66
     1
 10
0.0
 20
0.0
 30
0.0
 70
    64
 71
     4
 72
     2
  0
VERTEX
  5
2152
  8
0
 10
-302.0000000000001
 20
290.9291984132541
 30
-2.0
 70
   192
  0
VERTEX
  5
2153
  8
0
 10
-302.0
 20
234.9581696432134
 30
-2.0
 70
   192
  0
VERTEX
  5
2154
  8
0
 10
-222.0
 20
234.9581696432134
 30
-2.0
 70
   192
  0
VERTEX
  5
2155
  8
0
 10
-222.0
 20
290.9291984132541
 30
-2.0
 70
   192
  0
VERTEX
  5
2156
  8
0
 10
0.0
 20
0.0
 30
0.0
 70
   128
 71
     3
 72
     4
 73
    -1
  0
VERTEX
  5
2157
  8
0
 10
0.0
 20
0.0
 30
0.0
 70
   128
 71
     2
 72
    -3
 73
     1
  0
SEQEND
  5
240F
  8
0
  0
POLYLINE
  5
2158
  8
0
 66
     1
 10
0.0
 20
0.0
 30
0.0
 70
    64
 71
     4
 72
     2
  0
VERTEX
  5
2159
  8
0
 10
-259.0
 20
285.9291984132541
 30
-12.0
 70
   192
  0
VERTEX
  5
215A
  8
0
 10
-265.0
 20
285.9291984132541
 30
-12.0
 70
   192
  0
VERTEX
  5
215B
  8
0
 10
-265.0
 20
285.9291984132541
 30
-15.0
 70
   192
  0
VERTEX
  5
215C
  8
0
 10
-259.0
 20
285.9291984132541
 30
-15.0
 70
   192
  0
VERTEX
  5
215D
  8
0
 10
0.0
 20
0.0
 30
0.0
 70
   128
 71
     3
 72
     4
 73
    -1
  0
VERTEX
  5
215E
  8
0
 10
0.0
 20
0.0
 30
0.0
 70
   128
 71
     2
 72
    -3
 73
     1
  0
SEQEND
  5
2410
  8
0
  0
POLYLINE
  5
215F
  8
0
 66
     1
 10
0.0
 20
0.0
 30
0.0
 70
    64
 71
     4
 72
     2
  0
VERTEX
  5
2160
  8
0
 10
-265.0
 20
285.9291984132541
 30
-12.0
 70
   192
  0
VERTEX
  5
2161
  8
0
 10
-265.0000000000001
 20
265.9291984132541
 30
-12.0
 70
   192
  0
VERTEX
  5
2162
  8
0
 10
-265.0000000000001
 20
265.9291984132541
 30
-15.0
 70
   192
  0
VERTEX
  5
2163
  8
0
 10
-265.0
 20
285.9291984132541
 30
-15.0
 70
   192
  0
VERTEX
  5
2164
  8
0
 10
0.0
 20
0.0
 30
0.0
 70
   128
 71
     3
 72
     4
 73
    -1
  0
VERTEX
  5
2165
  8
0
 10
0.0
 20
0.0
 30
0.0
 70
   128
 71
     2
 72
    -3
 73
     1
  0
SEQEND
  5
2411
  8
0
  0
POLYLINE
  5
2166
  8
0
 66
     1
 10
0.0
 20
0.0
 30
0.0
 70
    64
 71
     6
 72
     4
  0
VERTEX
  5
2167
  8
0
 10
-225.0
 20
265.9291984132541
 30
-5.0
 70
   192
  0
VERTEX
  5
2168
  8
0
 10
-225.0
 20
265.9291984132541
 30
-12.0
 70
   192
  0
VERTEX
  5
2169
  8
0
 10
-258.9999999999999
 20
265.9291984132541
 30
-12.0
 70
   192
  0
VERTEX
  5
216A
  8
0
 10
-258.9999999999999
 20
265.9291984132541
 30
-15.0
 70
   192
  0
VERTEX
  5
216B
  8
0
 10
-222.0
 20
265.9291984132541
 30
-15.0
 70
   192
  0
VERTEX
  5
216C
  8
0
 10
-222.0
 20
265.9291984132541
 30
-5.0
 70
   192
  0
VERTEX
  5
216D
  8
0
 10
0.0
 20
0.0
 30
0.0
 70
   128
 71
     6
 72
     1
 73
    -2
  0
VERTEX
  5
216E
  8
0
 10
0.0
 20
0.0
 30
0.0
 70
   128
 71
     5
 72
    -6
 73
    -2
  0
VERTEX
  5
216F
  8
0
 10
0.0
 20
0.0
 30
0.0
 70
   128
 71
     3
 72
     4
 73
    -5
  0
VERTEX
  5
2170
  8
0
 10
0.0
 20
0.0
 30
0.0
 70
   128
 71
     2
 72
    -3
 73
    -5
  0
SEQEND
  5
2412
  8
0
  0
POLYLINE
  5
2171
  8
0
 66
     1
 10
0.0
 20
0.0
 30
0.0
 70
    64
 71
     4
 72
     2
  0
VERTEX
  5
2172
  8
0
 10
-258.9999999999999
 20
265.9291984132541
 30
-12.0
 70
   192
  0
VERTEX
  5
2173
  8
0
 10
-259.0
 20
285.9291984132541
 30
-12.0
 70
   192
  0
VERTEX
  5
2174
  8
0
 10
-259.0
 20
285.9291984132541
 30
-15.0
 70
   192
  0
VERTEX
  5
2175
  8
0
 10
-258.9999999999999
 20
265.9291984132541
 30
-15.0
 70
   192
  0
VERTEX
  5
2176
  8
0
 10
0.0
 20
0.0
 30
0.0
 70
   128
 71
     3
 72
     4
 73
    -1
  0
VERTEX
  5
2177
  8
0
 10
0.0
 20
0.0
 30
0.0
 70
   128
 71
     2
 72
    -3
 73
     1
  0
SEQEND
  5
2413
  8
0
  0
POLYLINE
  5
2178
  8
0
 66
     1
 10
0.0
 20
0.0
 30
0.0
 70
    64
 71
     8
 72
     6
  0
VERTEX
  5
2179
  8
0
 10
-259.0
 20
285.9291984132541
 30
-15.0
 70
   192
  0
VERTEX
  5
217A
  8
0
 10
-265.0
 20
285.9291984132541
 30
-15.0
 70
   192
  0
VERTEX
  5
217B
  8
0
 10
-265.0000000000001
 20
265.9291984132541
 30
-15.0
 70
   192
  0
VERTEX
  5
217C
  8
0
 10
-302.0000000000001
 20
265.9291984132541
 30
-15.0
 70
   192
  0
VERTEX
  5
217D
  8
0
 10
-302.0000000000001
 20
290.929198413254
 30
-15.0
 70
   192
  0
VERTEX
  5
217E
  8
0
 10
-222.0
 20
290.9291984132541
 30
-15.0
 70
   192
  0
VERTEX
  5
217F
  8
0
 10
-222.0
 20
265.9291984132541
 30
-15.0
 70
   192
  0
VERTEX
  5
2180
  8
0
 10
-258.9999999999999
 20
265.9291984132541
 30
-15.0
 70
   192
  0
VERTEX
  5
2181
  8
0
 10
0.0
 20
0.0
 30
0.0
 70
   128
 71
     7
 72
     8
 73
    -1
  0
VERTEX
  5
2182
  8
0
 10
0.0
 20
0.0
 30
0.0
 70
   128
 71
     6
 72
    -7
 73
    -1
  0
VERTEX
  5
2183
  8
0
 10
0.0
 20
0.0
 30
0.0
 70
   128
 71
    -6
 72
     1
 73
    -2
  0
VERTEX
  5
2184
  8
0
 10
0.0
 20
0.0
 30
0.0
 70
   128
 71
     5
 72
    -6
 73
    -2
  0
VERTEX
  5
2185
  8
0
 10
0.0
 20
0.0
 30
0.0
 70
   128
 71
     3
 72
     4
 73
    -5
  0
VERTEX
  5
2186
  8
0
 10
0.0
 20
0.0
 30
0.0
 70
   128
 71
     2
 72
    -3
 73
    -5
  0
SEQEND
  5
2414
  8
0
  0
POLYLINE
  5
2187
  8
0
 66
     1
 10
0.0
 20
0.0
 30
0.0
 70
    64
 71
     4
 72
     2
  0
VERTEX
  5
2188
  8
0
 10
-299.0000000000001
 20
265.9291984132541
 30
-5.0
 70
   192
  0
VERTEX
  5
2189
  8
0
 10
-299.0000000000001
 20
287.9291984132541
 30
-5.0
 70
   192
  0
VERTEX
  5
218A
  8
0
 10
-299.0000000000001
 20
287.9291984132541
 30
-12.0
 70
   192
  0
VERTEX
  5
218B
  8
0
 10
-299.0000000000001
 20
265.9291984132541
 30
-12.0
 70
   192
  0
VERTEX
  5
218C
  8
0
 10
0.0
 20
0.0
 30
0.0
 70
   128
 71
     1
 72
     4
 73
    -3
  0
VERTEX
  5
218D
  8
0
 10
0.0
 20
0.0
 30
0.0
 70
   128
 71
    -1
 72
     3
 73
     2
  0
SEQEND
  5
2415
  8
0
  0
POLYLINE
  5
218E
  8
0
 66
     1
 10
0.0
 20
0.0
 30
0.0
 70
    64
 71
     4
 72
     2
  0
VERTEX
  5
218F
  8
0
 10
-225.0
 20
287.9291984132541
 30
-5.0
 70
   192
  0
VERTEX
  5
2190
  8
0
 10
-299.0000000000001
 20
287.9291984132541
 30
-5.0
 70
   192
  0
VERTEX
  5
2191
  8
0
 10
-299.0000000000001
 20
287.9291984132541
 30
-12.0
 70
   192
  0
VERTEX
  5
2192
  8
0
 10
-225.0
 20
287.9291984132541
 30
-12.0
 70
   192
  0
VERTEX
  5
2193
  8
0
 10
0.0
 20
0.0
 30
0.0
 70
   128
 71
     3
 72
     4
 73
    -1
  0
VERTEX
  5
2194
  8
0
 10
0.0
 20
0.0
 30
0.0
 70
   128
 71
     2
 72
    -3
 73
     1
  0
SEQEND
  5
2416
  8
0
  0
POLYLINE
  5
2195
  8
0
 66
     1
 10
0.0
 20
0.0
 30
0.0
 70
    64
 71
     4
 72
     2
  0
VERTEX
  5
2196
  8
0
 10
-225.0
 20
265.9291984132541
 30
-5.0
 70
   192
  0
VERTEX
  5
2197
  8
0
 10
-225.0
 20
287.9291984132541
 30
-5.0
 70
   192
  0
VERTEX
  5
2198
  8
0
 10
-225.0
 20
287.9291984132541
 30
-12.0
 70
   192
  0
VERTEX
  5
2199
  8
0
 10
-225.0
 20
265.9291984132541
 30
-12.0
 70
   192
  0
VERTEX
  5
219A
  8
0
 10
0.0
 20
0.0
 30
0.0
 70
   128
 71
     3
 72
     4
 73
    -1
  0
VERTEX
  5
219B
  8
0
 10
0.0
 20
0.0
 30
0.0
 70
   128
 71
     2
 72
    -3
 73
     1
  0
SEQEND
  5
2417
  8
0
  0
POLYLINE
  5
219C
  8
0
 66
     1
 10
0.0
 20
0.0
 30
0.0
 70
    64
 71
     8
 72
     6
  0
VERTEX
  5
219D
  8
0
 10
-265.0
 20
285.9291984132541
 30
-12.0
 70
   192
  0
VERTEX
  5
219E
  8
0
 10
-265.0
 20
265.9291984132541
 30
-12.0
 70
   192
  0
VERTEX
  5
219F
  8
0
 10
-299.0000000000001
 20
265.9291984132541
 30
-12.0
 70
   192
  0
VERTEX
  5
21A0
  8
0
 10
-299.0000000000001
 20
287.9291984132541
 30
-12.0
 70
   192
  0
VERTEX
  5
21A1
  8
0
 10
-225.0
 20
287.9291984132541
 30
-12.0
 70
   192
  0
VERTEX
  5
21A2
  8
0
 10
-225.0
 20
265.9291984132541
 30
-12.0
 70
   192
  0
VERTEX
  5
21A3
  8
0
 10
-258.9999999999999
 20
265.9291984132541
 30
-12.0
 70
   192
  0
VERTEX
  5
21A4
  8
0
 10
-259.0
 20
285.9291984132541
 30
-12.0
 70
   192
  0
VERTEX
  5
21A5
  8
0
 10
0.0
 20
0.0
 30
0.0
 70
   128
 71
     8
 72
     7
 73
    -6
  0
VERTEX
  5
21A6
  8
0
 10
0.0
 20
0.0
 30
0.0
 70
   128
 71
    -8
 72
     6
 73
    -5
  0
VERTEX
  5
21A7
  8
0
 10
0.0
 20
0.0
 30
0.0
 70
   128
 71
    -5
 72
     1
 73
    -8
  0
VERTEX
  5
21A8
  8
0
 10
0.0
 20
0.0
 30
0.0
 70
   128
 71
     5
 72
    -4
 73
    -1
  0
VERTEX
  5
21A9
  8
0
 10
0.0
 20
0.0
 30
0.0
 70
   128
 71
     4
 72
     3
 73
    -2
  0
VERTEX
  5
21AA
  8
0
 10
0.0
 20
0.0
 30
0.0
 70
   128
 71
    -4
 72
     2
 73
    -1
  0
SEQEND
  5
2418
  8
0
  0
ENDBLK
  5
2408
  8
0
  0
BLOCK
  8
0
  2
*X3
 70
     1
 10
0.0
 20
0.0
 30
0.0
  3
*X3
  1

  0
POLYLINE
  5
21AC
  8
0
 66
     1
 10
0.0
 20
0.0
 30
0.0
 70
    64
 71
     8
 72
     6
  0
VERTEX
  5
21AD
  8
0
 10
222.0
 20
265.9291984132541
 30
-5.0
 70
   192
  0
VERTEX
  5
21AE
  8
0
 10
222.0
 20
234.9581696432134
 30
-5.0
 70
   192
  0
VERTEX
  5
21AF
  8
0
 10
302.0000000000001
 20
234.9581696432133
 30
-5.0
 70
   192
  0
VERTEX
  5
21B0
  8
0
 10
302.0000000000001
 20
265.9291984132541
 30
-5.0
 70
   192
  0
VERTEX
  5
21B1
  8
0
 10
299.0000000000001
 20
265.9291984132542
 30
-5.0
 70
   192
  0
VERTEX
  5
21B2
  8
0
 10
299.0000000000001
 20
287.9291984132541
 30
-5.0
 70
   192
  0
VERTEX
  5
21B3
  8
0
 10
225.0
 20
287.9291984132541
 30
-5.0
 70
   192
  0
VERTEX
  5
21B4
  8
0
 10
225.0
 20
265.9291984132541
 30
-5.0
 70
   192
  0
VERTEX
  5
21B5
  8
0
 10
0.0
 20
0.0
 30
0.0
 70
   128
 71
     5
 72
    -4
 73
    -8
  0
VERTEX
  5
21B6
  8
0
 10
0.0
 20
0.0
 30
0.0
 70
   128
 71
     8
 72
     7
 73
    -6
  0
VERTEX
  5
21B7
  8
0
 10
0.0
 20
0.0
 30
0.0
 70
   128
 71
    -8
 72
     6
 73
    -5
  0
VERTEX
  5
21B8
  8
0
 10
0.0
 20
0.0
 30
0.0
 70
   128
 71
     4
 72
     3
 73
    -2
  0
VERTEX
  5
21B9
  8
0
 10
0.0
 20
0.0
 30
0.0
 70
   128
 71
    -4
 72
    -2
 73
    -8
  0
VERTEX
  5
21BA
  8
0
 10
0.0
 20
0.0
 30
0.0
 70
   128
 71
     2
 72
     1
 73
    -8
  0
SEQEND
  5
241B
  8
0
  0
POLYLINE
  5
21BB
  8
0
 66
     1
 10
0.0
 20
0.0
 30
0.0
 70
    64
 71
     6
 72
     4
  0
VERTEX
  5
21BC
  8
0
 10
222.0
 20
234.9581696432134
 30
-2.0
 70
   192
  0
VERTEX
  5
21BD
  8
0
 10
222.0
 20
290.9291984132541
 30
-2.0
 70
   192
  0
VERTEX
  5
21BE
  8
0
 10
222.0
 20
290.9291984132541
 30
-15.0
 70
   192
  0
VERTEX
  5
21BF
  8
0
 10
222.0
 20
265.9291984132542
 30
-15.0
 70
   192
  0
VERTEX
  5
21C0
  8
0
 10
222.0
 20
265.9291984132541
 30
-5.0
 70
   192
  0
VERTEX
  5
21C1
  8
0
 10
222.0
 20
234.9581696432134
 30
-5.0
 70
   192
  0
VERTEX
  5
21C2
  8
0
 10
0.0
 20
0.0
 30
0.0
 70
   128
 71
     3
 72
     4
 73
    -5
  0
VERTEX
  5
21C3
  8
0
 10
0.0
 20
0.0
 30
0.0
 70
   128
 71
     2
 72
    -3
 73
    -5
  0
VERTEX
  5
21C4
  8
0
 10
0.0
 20
0.0
 30
0.0
 70
   128
 71
     6
 72
     1
 73
    -2
  0
VERTEX
  5
21C5
  8
0
 10
0.0
 20
0.0
 30
0.0
 70
   128
 71
     5
 72
    -6
 73
    -2
  0
SEQEND
  5
241C
  8
0
  0
POLYLINE
  5
21C6
  8
0
 66
     1
 10
0.0
 20
0.0
 30
0.0
 70
    64
 71
     4
 72
     2
  0
VERTEX
  5
21C7
  8
0
 10
222.0
 20
290.9291984132541
 30
-2.0
 70
   192
  0
VERTEX
  5
21C8
  8
0
 10
222.0
 20
290.9291984132541
 30
-15.0
 70
   192
  0
VERTEX
  5
21C9
  8
0
 10
302.0000000000001
 20
290.9291984132541
 30
-15.0
 70
   192
  0
VERTEX
  5
21CA
  8
0
 10
302.0000000000001
 20
290.9291984132541
 30
-2.0
 70
   192
  0
VERTEX
  5
21CB
  8
0
 10
0.0
 20
0.0
 30
0.0
 70
   128
 71
     1
 72
     4
 73
    -3
  0
VERTEX
  5
21CC
  8
0
 10
0.0
 20
0.0
 30
0.0
 70
   128
 71
    -1
 72
     3
 73
     2
  0
SEQEND
  5
241D
  8
0
  0
POLYLINE
  5
21CD
  8
0
 66
     1
 10
0.0
 20
0.0
 30
0.0
 70
    64
 71
     6
 72
     4
  0
VERTEX
  5
21CE
  8
0
 10
302.0000000000001
 20
290.9291984132541
 30
-2.0
 70
   192
  0
VERTEX
  5
21CF
  8
0
 10
302.0000000000001
 20
290.9291984132541
 30
-15.0
 70
   192
  0
VERTEX
  5
21D0
  8
0
 10
302.0000000000001
 20
265.9291984132541
 30
-15.0
 70
   192
  0
VERTEX
  5
21D1
  8
0
 10
302.0000000000001
 20
265.9291984132541
 30
-5.0
 70
   192
  0
VERTEX
  5
21D2
  8
0
 10
302.0000000000001
 20
234.9581696432133
 30
-5.0
 70
   192
  0
VERTEX
  5
21D3
  8
0
 10
302.0000000000001
 20
234.9581696432133
 30
-2.0
 70
   192
  0
VERTEX
  5
21D4
  8
0
 10
0.0
 20
0.0
 30
0.0
 70
   128
 71
     4
 72
     3
 73
    -2
  0
VERTEX
  5
21D5
  8
0
 10
0.0
 20
0.0
 30
0.0
 70
   128
 71
    -4
 72
     2
 73
    -1
  0
VERTEX
  5
21D6
  8
0
 10
0.0
 20
0.0
 30
0.0
 70
   128
 71
     1
 72
     6
 73
    -5
  0
VERTEX
  5
21D7
  8
0
 10
0.0
 20
0.0
 30
0.0
 70
   128
 71
    -1
 72
     5
 73
    -4
  0
SEQEND
  5
241E
  8
0
  0
POLYLINE
  5
21D8
  8
0
 66
     1
 10
0.0
 20
0.0
 30
0.0
 70
    64
 71
     4
 72
     2
  0
VERTEX
  5
21D9
  8
0
 10
302.0000000000001
 20
234.9581696432133
 30
-2.0
 70
   192
  0
VERTEX
  5
21DA
  8
0
 10
222.0
 20
234.9581696432134
 30
-2.0
 70
   192
  0
VERTEX
  5
21DB
  8
0
 10
222.0
 20
234.9581696432134
 30
-5.0
 70
   192
  0
VERTEX
  5
21DC
  8
0
 10
302.0000000000001
 20
234.9581696432133
 30
-5.0
 70
   192
  0
VERTEX
  5
21DD
  8
0
 10
0.0
 20
0.0
 30
0.0
 70
   128
 71
     3
 72
     4
 73
    -1
  0
VERTEX
  5
21DE
  8
0
 10
0.0
 20
0.0
 30
0.0
 70
   128
 71
     2
 72
    -3
 73
     1
  0
SEQEND
  5
241F
  8
0
  0
POLYLINE
  5
21DF
  8
0
 66
     1
 10
0.0
 20
0.0
 30
0.0
 70
    64
 71
     4
 72
     2
  0
VERTEX
  5
21E0
  8
0
 10
222.0
 20
290.9291984132541
 30
-2.0
 70
   192
  0
VERTEX
  5
21E1
  8
0
 10
222.0
 20
234.9581696432134
 30
-2.0
 70
   192
  0
VERTEX
  5
21E2
  8
0
 10
302.0000000000001
 20
234.9581696432133
 30
-2.0
 70
   192
  0
VERTEX
  5
21E3
  8
0
 10
302.0000000000001
 20
290.9291984132541
 30
-2.0
 70
   192
  0
VERTEX
  5
21E4
  8
0
 10
0.0
 20
0.0
 30
0.0
 70
   128
 71
     3
 72
     4
 73
    -1
  0
VERTEX
  5
21E5
  8
0
 10
0.0
 20
0.0
 30
0.0
 70
   128
 71
     2
 72
    -3
 73
     1
  0
SEQEND
  5
2420
  8
0
  0
POLYLINE
  5
21E6
  8
0
 66
     1
 10
0.0
 20
0.0
 30
0.0
 70
    64
 71
     4
 72
     2
  0
VERTEX
  5
21E7
  8
0
 10
259.0
 20
285.9291984132542
 30
-15.0
 70
   192
  0
VERTEX
  5
21E8
  8
0
 10
258.9999999999999
 20
265.9291984132542
 30
-15.0
 70
   192
  0
VERTEX
  5
21E9
  8
0
 10
258.9999999999999
 20
265.9291984132541
 30
-12.0
 70
   192
  0
VERTEX
  5
21EA
  8
0
 10
259.0
 20
285.9291984132542
 30
-12.0
 70
   192
  0
VERTEX
  5
21EB
  8
0
 10
0.0
 20
0.0
 30
0.0
 70
   128
 71
     1
 72
     4
 73
    -3
  0
VERTEX
  5
21EC
  8
0
 10
0.0
 20
0.0
 30
0.0
 70
   128
 71
    -1
 72
     3
 73
     2
  0
SEQEND
  5
2421
  8
0
  0
POLYLINE
  5
21ED
  8
0
 66
     1
 10
0.0
 20
0.0
 30
0.0
 70
    64
 71
     6
 72
     4
  0
VERTEX
  5
21EE
  8
0
 10
258.9999999999999
 20
265.9291984132542
 30
-12.0
 70
   192
  0
VERTEX
  5
21EF
  8
0
 10
258.9999999999999
 20
265.9291984132542
 30
-15.0
 70
   192
  0
VERTEX
  5
21F0
  8
0
 10
222.0
 20
265.9291984132541
 30
-15.0
 70
   192
  0
VERTEX
  5
21F1
  8
0
 10
222.0
 20
265.9291984132541
 30
-5.0
 70
   192
  0
VERTEX
  5
21F2
  8
0
 10
225.0
 20
265.9291984132541
 30
-5.0
 70
   192
  0
VERTEX
  5
21F3
  8
0
 10
225.0
 20
265.9291984132541
 30
-12.0
 70
   192
  0
VERTEX
  5
21F4
  8
0
 10
0.0
 20
0.0
 30
0.0
 70
   128
 71
     6
 72
     5
 73
    -4
  0
VERTEX
  5
21F5
  8
0
 10
0.0
 20
0.0
 30
0.0
 70
   128
 71
    -6
 72
     4
 73
    -3
  0
VERTEX
  5
21F6
  8
0
 10
0.0
 20
0.0
 30
0.0
 70
   128
 71
     3
 72
     2
 73
    -1
  0
VERTEX
  5
21F7
  8
0
 10
0.0
 20
0.0
 30
0.0
 70
   128
 71
    -3
 72
     1
 73
    -6
  0
SEQEND
  5
2422
  8
0
  0
POLYLINE
  5
21F8
  8
0
 66
     1
 10
0.0
 20
0.0
 30
0.0
 70
    64
 71
     6
 72
     4
  0
VERTEX
  5
21F9
  8
0
 10
299.0000000000001
 20
265.9291984132541
 30
-5.0
 70
   192
  0
VERTEX
  5
21FA
  8
0
 10
302.0000000000001
 20
265.9291984132541
 30
-5.0
 70
   192
  0
VERTEX
  5
21FB
  8
0
 10
302.0000000000001
 20
265.9291984132541
 30
-15.0
 70
   192
  0
VERTEX
  5
21FC
  8
0
 10
265.0000000000001
 20
265.9291984132542
 30
-15.0
 70
   192
  0
VERTEX
  5
21FD
  8
0
 10
265.0
 20
265.9291984132542
 30
-12.0
 70
   192
  0
VERTEX
  5
21FE
  8
0
 10
299.0000000000001
 20
265.9291984132541
 30
-12.0
 70
   192
  0
VERTEX
  5
21FF
  8
0
 10
0.0
 20
0.0
 30
0.0
 70
   128
 71
     6
 72
     5
 73
    -4
  0
VERTEX
  5
2200
  8
0
 10
0.0
 20
0.0
 30
0.0
 70
   128
 71
    -6
 72
     4
 73
    -3
  0
VERTEX
  5
2201
  8
0
 10
0.0
 20
0.0
 30
0.0
 70
   128
 71
     3
 72
     2
 73
    -1
  0
VERTEX
  5
2202
  8
0
 10
0.0
 20
0.0
 30
0.0
 70
   128
 71
    -3
 72
     1
 73
    -6
  0
SEQEND
  5
2423
  8
0
  0
POLYLINE
  5
2203
  8
0
 66
     1
 10
0.0
 20
0.0
 30
0.0
 70
    64
 71
     4
 72
     2
  0
VERTEX
  5
2204
  8
0
 10
265.0000000000001
 20
265.9291984132542
 30
-15.0
 70
   192
  0
VERTEX
  5
2205
  8
0
 10
265.0
 20
285.9291984132542
 30
-15.0
 70
   192
  0
VERTEX
  5
2206
  8
0
 10
265.0
 20
285.9291984132542
 30
-12.0
 70
   192
  0
VERTEX
  5
2207
  8
0
 10
265.0000000000001
 20
265.9291984132542
 30
-12.0
 70
   192
  0
VERTEX
  5
2208
  8
0
 10
0.0
 20
0.0
 30
0.0
 70
   128
 71
     1
 72
     4
 73
    -3
  0
VERTEX
  5
2209
  8
0
 10
0.0
 20
0.0
 30
0.0
 70
   128
 71
    -1
 72
     3
 73
     2
  0
SEQEND
  5
2424
  8
0
  0
POLYLINE
  5
220A
  8
0
 66
     1
 10
0.0
 20
0.0
 30
0.0
 70
    64
 71
     4
 72
     2
  0
VERTEX
  5
220B
  8
0
 10
265.0
 20
285.9291984132542
 30
-15.0
 70
   192
  0
VERTEX
  5
220C
  8
0
 10
259.0
 20
285.9291984132542
 30
-15.0
 70
   192
  0
VERTEX
  5
220D
  8
0
 10
259.0
 20
285.9291984132542
 30
-12.0
 70
   192
  0
VERTEX
  5
220E
  8
0
 10
265.0
 20
285.9291984132542
 30
-12.0
 70
   192
  0
VERTEX
  5
220F
  8
0
 10
0.0
 20
0.0
 30
0.0
 70
   128
 71
     1
 72
     4
 73
    -3
  0
VERTEX
  5
2210
  8
0
 10
0.0
 20
0.0
 30
0.0
 70
   128
 71
    -1
 72
     3
 73
     2
  0
SEQEND
  5
2425
  8
0
  0
POLYLINE
  5
2211
  8
0
 66
     1
 10
0.0
 20
0.0
 30
0.0
 70
    64
 71
     8
 72
     6
  0
VERTEX
  5
2212
  8
0
 10
259.0
 20
285.9291984132542
 30
-15.0
 70
   192
  0
VERTEX
  5
2213
  8
0
 10
258.9999999999999
 20
265.9291984132541
 30
-15.0
 70
   192
  0
VERTEX
  5
2214
  8
0
 10
222.0
 20
265.9291984132541
 30
-15.0
 70
   192
  0
VERTEX
  5
2215
  8
0
 10
222.0
 20
290.9291984132541
 30
-15.0
 70
   192
  0
VERTEX
  5
2216
  8
0
 10
302.0000000000001
 20
290.9291984132541
 30
-15.0
 70
   192
  0
VERTEX
  5
2217
  8
0
 10
302.0000000000001
 20
265.9291984132542
 30
-15.0
 70
   192
  0
VERTEX
  5
2218
  8
0
 10
265.0
 20
265.9291984132542
 30
-15.0
 70
   192
  0
VERTEX
  5
2219
  8
0
 10
265.0
 20
285.9291984132542
 30
-15.0
 70
   192
  0
VERTEX
  5
221A
  8
0
 10
0.0
 20
0.0
 30
0.0
 70
   128
 71
     6
 72
     7
 73
    -8
  0
VERTEX
  5
221B
  8
0
 10
0.0
 20
0.0
 30
0.0
 70
   128
 71
     5
 72
    -6
 73
    -8
  0
VERTEX
  5
221C
  8
0
 10
0.0
 20
0.0
 30
0.0
 70
   128
 71
    -1
 72
     4
 73
    -5
  0
VERTEX
  5
221D
  8
0
 10
0.0
 20
0.0
 30
0.0
 70
   128
 71
     8
 72
    -1
 73
    -5
  0
VERTEX
  5
221E
  8
0
 10
0.0
 20
0.0
 30
0.0
 70
   128
 71
     2
 72
     3
 73
    -4
  0
VERTEX
  5
221F
  8
0
 10
0.0
 20
0.0
 30
0.0
 70
   128
 71
     1
 72
    -2
 73
    -4
  0
SEQEND
  5
2426
  8
0
  0
POLYLINE
  5
2220
  8
0
 66
     1
 10
0.0
 20
0.0
 30
0.0
 70
    64
 71
     4
 72
     2
  0
VERTEX
  5
2221
  8
0
 10
225.0
 20
265.9291984132542
 30
-5.0
 70
   192
  0
VERTEX
  5
2222
  8
0
 10
225.0
 20
287.9291984132541
 30
-5.0
 70
   192
  0
VERTEX
  5
2223
  8
0
 10
225.0
 20
287.9291984132541
 30
-12.0
 70
   192
  0
VERTEX
  5
2224
  8
0
 10
225.0
 20
265.9291984132541
 30
-12.0
 70
   192
  0
VERTEX
  5
2225
  8
0
 10
0.0
 20
0.0
 30
0.0
 70
   128
 71
     1
 72
     4
 73
    -3
  0
VERTEX
  5
2226
  8
0
 10
0.0
 20
0.0
 30
0.0
 70
   128
 71
    -1
 72
     3
 73
     2
  0
SEQEND
  5
2427
  8
0
  0
POLYLINE
  5
2227
  8
0
 66
     1
 10
0.0
 20
0.0
 30
0.0
 70
    64
 71
     4
 72
     2
  0
VERTEX
  5
2228
  8
0
 10
299.0000000000001
 20
287.9291984132541
 30
-5.0
 70
   192
  0
VERTEX
  5
2229
  8
0
 10
225.0
 20
287.9291984132541
 30
-5.0
 70
   192
  0
VERTEX
  5
222A
  8
0
 10
225.0
 20
287.9291984132541
 30
-12.0
 70
   192
  0
VERTEX
  5
222B
  8
0
 10
299.0000000000001
 20
287.9291984132541
 30
-12.0
 70
   192
  0
VERTEX
  5
222C
  8
0
 10
0.0
 20
0.0
 30
0.0
 70
   128
 71
     3
 72
     4
 73
    -1
  0
VERTEX
  5
222D
  8
0
 10
0.0
 20
0.0
 30
0.0
 70
   128
 71
     2
 72
    -3
 73
     1
  0
SEQEND
  5
2428
  8
0
  0
POLYLINE
  5
222E
  8
0
 66
     1
 10
0.0
 20
0.0
 30
0.0
 70
    64
 71
     4
 72
     2
  0
VERTEX
  5
222F
  8
0
 10
299.0000000000001
 20
265.9291984132542
 30
-5.0
 70
   192
  0
VERTEX
  5
2230
  8
0
 10
299.0000000000001
 20
287.9291984132541
 30
-5.0
 70
   192
  0
VERTEX
  5
2231
  8
0
 10
299.0000000000001
 20
287.9291984132541
 30
-12.0
 70
   192
  0
VERTEX
  5
2232
  8
0
 10
299.0000000000001
 20
265.9291984132541
 30
-12.0
 70
   192
  0
VERTEX
  5
2233
  8
0
 10
0.0
 20
0.0
 30
0.0
 70
   128
 71
     3
 72
     4
 73
    -1
  0
VERTEX
  5
2234
  8
0
 10
0.0
 20
0.0
 30
0.0
 70
   128
 71
     2
 72
    -3
 73
     1
  0
SEQEND
  5
2429
  8
0
  0
POLYLINE
  5
2235
  8
0
 66
     1
 10
0.0
 20
0.0
 30
0.0
 70
    64
 71
     8
 72
     6
  0
VERTEX
  5
2236
  8
0
 10
258.9999999999999
 20
265.9291984132542
 30
-12.0
 70
   192
  0
VERTEX
  5
2237
  8
0
 10
225.0
 20
265.9291984132541
 30
-12.0
 70
   192
  0
VERTEX
  5
2238
  8
0
 10
225.0
 20
287.9291984132541
 30
-12.0
 70
   192
  0
VERTEX
  5
2239
  8
0
 10
299.0000000000001
 20
287.9291984132541
 30
-12.0
 70
   192
  0
VERTEX
  5
223A
  8
0
 10
299.0000000000001
 20
265.9291984132541
 30
-12.0
 70
   192
  0
VERTEX
  5
223B
  8
0
 10
265.0000000000001
 20
265.9291984132542
 30
-12.0
 70
   192
  0
VERTEX
  5
223C
  8
0
 10
265.0
 20
285.9291984132542
 30
-12.0
 70
   192
  0
VERTEX
  5
223D
  8
0
 10
259.0
 20
285.9291984132542
 30
-12.0
 70
   192
  0
VERTEX
  5
223E
  8
0
 10
0.0
 20
0.0
 30
0.0
 70
   128
 71
     7
 72
     6
 73
    -5
  0
VERTEX
  5
223F
  8
0
 10
0.0
 20
0.0
 30
0.0
 70
   128
 71
    -7
 72
     5
 73
    -4
  0
VERTEX
  5
2240
  8
0
 10
0.0
 20
0.0
 30
0.0
 70
   128
 71
    -4
 72
     8
 73
    -7
  0
VERTEX
  5
2241
  8
0
 10
0.0
 20
0.0
 30
0.0
 70
   128
 71
     4
 72
    -3
 73
    -8
  0
VERTEX
  5
2242
  8
0
 10
0.0
 20
0.0
 30
0.0
 70
   128
 71
     3
 72
     2
 73
    -1
  0
VERTEX
  5
2243
  8
0
 10
0.0
 20
0.0
 30
0.0
 70
   128
 71
    -3
 72
     1
 73
    -8
  0
SEQEND
  5
242A
  8
0
  0
ENDBLK
  5
241A
  8
0
  0
BLOCK
  8
0
  2
*X4
 70
     1
 10
0.0
 20
0.0
 30
0.0
  3
*X4
  1

  0
POLYLINE
  5
2245
  8
0
 66
     1
 10
0.0
 20
0.0
 30
0.0
 70
    64
 71
    10
 72
     8
  0
VERTEX
  5
2246
  8
0
 10
304.9999999999999
 20
-173.5000000000001
 30
-7.0
 70
   192
  0
VERTEX
  5
2247
  8
0
 10
304.9999999999999
 20
-166.5000000000001
 30
-7.0
 70
   192
  0
VERTEX
  5
2248
  8
0
 10
299.9999999999999
 20
-166.5000000000001
 30
-7.0
 70
   192
  0
VERTEX
  5
2249
  8
0
 10
299.9999999999999
 20
-173.5000000000001
 30
-7.0
 70
   192
  0
VERTEX
  5
224A
  8
0
 10
299.9999999999999
 20
-170.0000000000001
 30
-3.499999999999968
 70
   192
  0
VERTEX
  5
224B
  8
0
 10
304.9999999999999
 20
-170.0000000000001
 30
-3.499999999999968
 70
   192
  0
VERTEX
  5
224C
  8
0
 10
299.9999999999999
 20
-172.4748737341531
 30
-4.525126265847062
 70
   192
  0
VERTEX
  5
224D
  8
0
 10
304.9999999999999
 20
-172.4748737341531
 30
-4.525126265847062
 70
   192
  0
VERTEX
  5
224E
  8
0
 10
299.9999999999999
 20
-167.5251262658472
 30
-4.525126265847061
 70
   192
  0
VERTEX
  5
224F
  8
0
 10
304.9999999999999
 20
-167.5251262658472
 30
-4.525126265847061
 70
   192
  0
VERTEX
  5
2250
  8
0
 10
0.0
 20
0.0
 30
0.0
 70
   128
 71
     7
 72
     4
 73
    -1
  0
VERTEX
  5
2251
  8
0
 10
0.0
 20
0.0
 30
0.0
 70
   128
 71
    -7
 72
     1
 73
     8
  0
VERTEX
  5
2252
  8
0
 10
0.0
 20
0.0
 30
0.0
 70
   128
 71
     6
 72
     5
 73
    -7
  0
VERTEX
  5
2253
  8
0
 10
0.0
 20
0.0
 30
0.0
 70
   128
 71
    -6
 72
     7
 73
     8
  0
VERTEX
  5
2254
  8
0
 10
0.0
 20
0.0
 30
0.0
 70
   128
 71
    10
 72
     9
 73
    -5
  0
VERTEX
  5
2255
  8
0
 10
0.0
 20
0.0
 30
0.0
 70
   128
 71
   -10
 72
     5
 73
     6
  0
VERTEX
  5
2256
  8
0
 10
0.0
 20
0.0
 30
0.0
 70
   128
 71
     2
 72
     3
 73
    -9
  0
VERTEX
  5
2257
  8
0
 10
0.0
 20
0.0
 30
0.0
 70
   128
 71
    -2
 72
     9
 73
    10
  0
SEQEND
  5
242D
  8
0
  0
POLYLINE
  5
2258
  8
0
 66
     1
 10
0.0
 20
0.0
 30
0.0
 70
    64
 71
     8
 72
     6
  0
VERTEX
  5
2259
  8
0
 10
295.0
 20
-298.6602540378444
 30
-2.0
 70
   192
  0
VERTEX
  5
225A
  8
0
 10
295.0
 20
-298.6602540378444
 30
-12.0
 70
   192
  0
VERTEX
  5
225B
  8
0
 10
298.6602540378444
 20
-295.0000000000001
 30
-12.0
 70
   192
  0
VERTEX
  5
225C
  8
0
 10
298.6602540378444
 20
-295.0000000000001
 30
-2.0
 70
   192
  0
VERTEX
  5
225D
  8
0
 10
290.0
 20
-300.0000000000001
 30
-2.0
 70
   192
  0
VERTEX
  5
225E
  8
0
 10
290.0
 20
-300.0000000000001
 30
-12.0
 70
   192
  0
VERTEX
  5
225F
  8
0
 10
300.0
 20
-290.0000000000001
 30
-12.0
 70
   192
  0
VERTEX
  5
2260
  8
0
 10
300.0
 20
-290.0000000000001
 30
-2.0
 70
   192
  0
VERTEX
  5
2261
  8
0
 10
0.0
 20
0.0
 30
0.0
 70
   128
 71
     1
 72
     2
 73
    -3
  0
VERTEX
  5
2262
  8
0
 10
0.0
 20
0.0
 30
0.0
 70
   128
 71
    -1
 72
     3
 73
     4
  0
VERTEX
  5
2263
  8
0
 10
0.0
 20
0.0
 30
0.0
 70
   128
 71
     5
 72
     6
 73
    -2
  0
VERTEX
  5
2264
  8
0
 10
0.0
 20
0.0
 30
0.0
 70
   128
 71
    -5
 72
     2
 73
     1
  0
VERTEX
  5
2265
  8
0
 10
0.0
 20
0.0
 30
0.0
 70
   128
 71
     4
 72
     3
 73
    -7
  0
VERTEX
  5
2266
  8
0
 10
0.0
 20
0.0
 30
0.0
 70
   128
 71
    -4
 72
     7
 73
     8
  0
SEQEND
  5
242E
  8
0
  0
POLYLINE
  5
2267
  8
0
 66
     1
 10
0.0
 20
0.0
 30
0.0
 70
    64
 71
     4
 72
     2
  0
VERTEX
  5
2268
  8
0
 10
290.0
 20
-300.0000000000001
 30
-2.0
 70
   192
  0
VERTEX
  5
2269
  8
0
 10
290.0
 20
-300.0000000000001
 30
-12.0
 70
   192
  0
VERTEX
  5
226A
  8
0
 10
110.0
 20
-300.0000000000001
 30
-12.0
 70
   192
  0
VERTEX
  5
226B
  8
0
 10
109.9999999999999
 20
-300.0000000000001
 30
-2.0
 70
   192
  0
VERTEX
  5
226C
  8
0
 10
0.0
 20
0.0
 30
0.0
 70
   128
 71
     1
 72
     4
 73
    -3
  0
VERTEX
  5
226D
  8
0
 10
0.0
 20
0.0
 30
0.0
 70
   128
 71
    -1
 72
     3
 73
     2
  0
SEQEND
  5
242F
  8
0
  0
POLYLINE
  5
226E
  8
0
 66
     1
 10
0.0
 20
0.0
 30
0.0
 70
    64
 71
     8
 72
     6
  0
VERTEX
  5
226F
  8
0
 10
101.3397459621556
 20
-295.0000000000001
 30
-2.0
 70
   192
  0
VERTEX
  5
2270
  8
0
 10
101.3397459621556
 20
-295.0000000000001
 30
-12.0
 70
   192
  0
VERTEX
  5
2271
  8
0
 10
105.0
 20
-298.6602540378444
 30
-12.0
 70
   192
  0
VERTEX
  5
2272
  8
0
 10
105.0
 20
-298.6602540378444
 30
-2.0
 70
   192
  0
VERTEX
  5
2273
  8
0
 10
99.99999999999994
 20
-290.0000000000001
 30
-2.0
 70
   192
  0
VERTEX
  5
2274
  8
0
 10
99.99999999999996
 20
-290.0000000000001
 30
-12.0
 70
   192
  0
VERTEX
  5
2275
  8
0
 10
110.0
 20
-300.0000000000001
 30
-12.0
 70
   192
  0
VERTEX
  5
2276
  8
0
 10
110.0
 20
-300.0000000000001
 30
-2.0
 70
   192
  0
VERTEX
  5
2277
  8
0
 10
0.0
 20
0.0
 30
0.0
 70
   128
 71
     1
 72
     2
 73
    -3
  0
VERTEX
  5
2278
  8
0
 10
0.0
 20
0.0
 30
0.0
 70
   128
 71
    -1
 72
     3
 73
     4
  0
VERTEX
  5
2279
  8
0
 10
0.0
 20
0.0
 30
0.0
 70
   128
 71
     5
 72
     6
 73
    -2
  0
VERTEX
  5
227A
  8
0
 10
0.0
 20
0.0
 30
0.0
 70
   128
 71
    -5
 72
     2
 73
     1
  0
VERTEX
  5
227B
  8
0
 10
0.0
 20
0.0
 30
0.0
 70
   128
 71
     4
 72
     3
 73
    -7
  0
VERTEX
  5
227C
  8
0
 10
0.0
 20
0.0
 30
0.0
 70
   128
 71
    -4
 72
     7
 73
     8
  0
SEQEND
  5
2430
  8
0
  0
POLYLINE
  5
227D
  8
0
 66
     1
 10
0.0
 20
0.0
 30
0.0
 70
    64
 71
     4
 72
     2
  0
VERTEX
  5
227E
  8
0
 10
99.99999999999996
 20
-290.0000000000001
 30
-2.0
 70
   192
  0
VERTEX
  5
227F
  8
0
 10
99.99999999999996
 20
-290.0000000000001
 30
-12.0
 70
   192
  0
VERTEX
  5
2280
  8
0
 10
99.99999999999997
 20
-130.0000000000001
 30
-12.0
 70
   192
  0
VERTEX
  5
2281
  8
0
 10
99.99999999999997
 20
-130.0000000000001
 30
-2.0
 70
   192
  0
VERTEX
  5
2282
  8
0
 10
0.0
 20
0.0
 30
0.0
 70
   128
 71
     1
 72
     4
 73
    -3
  0
VERTEX
  5
2283
  8
0
 10
0.0
 20
0.0
 30
0.0
 70
   128
 71
    -1
 72
     3
 73
     2
  0
SEQEND
  5
2431
  8
0
  0
POLYLINE
  5
2284
  8
0
 66
     1
 10
0.0
 20
0.0
 30
0.0
 70
    64
 71
     8
 72
     6
  0
VERTEX
  5
2285
  8
0
 10
105.0
 20
-121.3397459621557
 30
-2.0
 70
   192
  0
VERTEX
  5
2286
  8
0
 10
105.0
 20
-121.3397459621557
 30
-12.0
 70
   192
  0
VERTEX
  5
2287
  8
0
 10
101.3397459621556
 20
-125.0000000000001
 30
-12.0
 70
   192
  0
VERTEX
  5
2288
  8
0
 10
101.3397459621556
 20
-125.0000000000001
 30
-2.0
 70
   192
  0
VERTEX
  5
2289
  8
0
 10
110.0
 20
-120.0000000000001
 30
-2.0
 70
   192
  0
VERTEX
  5
228A
  8
0
 10
110.0
 20
-120.0000000000001
 30
-12.0
 70
   192
  0
VERTEX
  5
228B
  8
0
 10
99.99999999999997
 20
-130.0000000000001
 30
-12.0
 70
   192
  0
VERTEX
  5
228C
  8
0
 10
99.99999999999997
 20
-130.0000000000001
 30
-2.0
 70
   192
  0
VERTEX
  5
228D
  8
0
 10
0.0
 20
0.0
 30
0.0
 70
   128
 71
     1
 72
     2
 73
    -3
  0
VERTEX
  5
228E
  8
0
 10
0.0
 20
0.0
 30
0.0
 70
   128
 71
    -1
 72
     3
 73
     4
  0
VERTEX
  5
228F
  8
0
 10
0.0
 20
0.0
 30
0.0
 70
   128
 71
     5
 72
     6
 73
    -2
  0
VERTEX
  5
2290
  8
0
 10
0.0
 20
0.0
 30
0.0
 70
   128
 71
    -5
 72
     2
 73
     1
  0
VERTEX
  5
2291
  8
0
 10
0.0
 20
0.0
 30
0.0
 70
   128
 71
     4
 72
     3
 73
    -7
  0
VERTEX
  5
2292
  8
0
 10
0.0
 20
0.0
 30
0.0
 70
   128
 71
    -4
 72
     7
 73
     8
  0
SEQEND
  5
2432
  8
0
  0
POLYLINE
  5
2293
  8
0
 66
     1
 10
0.0
 20
0.0
 30
0.0
 70
    64
 71
     4
 72
     2
  0
VERTEX
  5
2294
  8
0
 10
110.0
 20
-120.0000000000001
 30
-2.0
 70
   192
  0
VERTEX
  5
2295
  8
0
 10
110.0
 20
-120.0000000000001
 30
-12.0
 70
   192
  0
VERTEX
  5
2296
  8
0
 10
290.0000000000001
 20
-120.0000000000001
 30
-12.0
 70
   192
  0
VERTEX
  5
2297
  8
0
 10
290.0000000000001
 20
-120.0000000000001
 30
-2.0
 70
   192
  0
VERTEX
  5
2298
  8
0
 10
0.0
 20
0.0
 30
0.0
 70
   128
 71
     1
 72
     4
 73
    -3
  0
VERTEX
  5
2299
  8
0
 10
0.0
 20
0.0
 30
0.0
 70
   128
 71
    -1
 72
     3
 73
     2
  0
SEQEND
  5
2433
  8
0
  0
POLYLINE
  5
229A
  8
0
 66
     1
 10
0.0
 20
0.0
 30
0.0
 70
    64
 71
     8
 72
     6
  0
VERTEX
  5
229B
  8
0
 10
298.6602540378444
 20
-125.0000000000001
 30
-2.0
 70
   192
  0
VERTEX
  5
229C
  8
0
 10
298.6602540378444
 20
-125.0000000000001
 30
-12.0
 70
   192
  0
VERTEX
  5
229D
  8
0
 10
295.0000000000001
 20
-121.3397459621557
 30
-12.0
 70
   192
  0
VERTEX
  5
229E
  8
0
 10
295.0000000000001
 20
-121.3397459621557
 30
-2.0
 70
   192
  0
VERTEX
  5
229F
  8
0
 10
300.0000000000001
 20
-130.0000000000001
 30
-2.0
 70
   192
  0
VERTEX
  5
22A0
  8
0
 10
300.0000000000001
 20
-130.0000000000001
 30
-12.0
 70
   192
  0
VERTEX
  5
22A1
  8
0
 10
290.0000000000001
 20
-120.0000000000001
 30
-12.0
 70
   192
  0
VERTEX
  5
22A2
  8
0
 10
290.0000000000001
 20
-120.0000000000001
 30
-2.0
 70
   192
  0
VERTEX
  5
22A3
  8
0
 10
0.0
 20
0.0
 30
0.0
 70
   128
 71
     1
 72
     2
 73
    -3
  0
VERTEX
  5
22A4
  8
0
 10
0.0
 20
0.0
 30
0.0
 70
   128
 71
    -1
 72
     3
 73
     4
  0
VERTEX
  5
22A5
  8
0
 10
0.0
 20
0.0
 30
0.0
 70
   128
 71
     5
 72
     6
 73
    -2
  0
VERTEX
  5
22A6
  8
0
 10
0.0
 20
0.0
 30
0.0
 70
   128
 71
    -5
 72
     2
 73
     1
  0
VERTEX
  5
22A7
  8
0
 10
0.0
 20
0.0
 30
0.0
 70
   128
 71
     4
 72
     3
 73
    -7
  0
VERTEX
  5
22A8
  8
0
 10
0.0
 20
0.0
 30
0.0
 70
   128
 71
    -4
 72
     7
 73
     8
  0
SEQEND
  5
2434
  8
0
  0
POLYLINE
  5
22A9
  8
0
 66
     1
 10
0.0
 20
0.0
 30
0.0
 70
    64
 71
    12
 72
    12
  0
VERTEX
  5
22AA
  8
0
 10
300.0000000000001
 20
-130.0000000000001
 30
-2.0
 70
   192
  0
VERTEX
  5
22AB
  8
0
 10
300.0000000000001
 20
-130.0000000000001
 30
-12.0
 70
   192
  0
VERTEX
  5
22AC
  8
0
 10
300.0
 20
-290.0000000000001
 30
-12.0
 70
   192
  0
VERTEX
  5
22AD
  8
0
 10
300.0
 20
-290.0000000000001
 30
-2.0
 70
   192
  0
VERTEX
  5
22AE
  8
0
 10
299.9999999999999
 20
-173.5000000000001
 30
-7.0
 70
   192
  0
VERTEX
  5
22AF
  8
0
 10
299.9999999999999
 20
-172.4748737341531
 30
-9.47487373415294
 70
   192
  0
VERTEX
  5
22B0
  8
0
 10
299.9999999999999
 20
-170.0000000000001
 30
-10.50000000000003
 70
   192
  0
VERTEX
  5
22B1
  8
0
 10
299.9999999999999
 20
-167.5251262658472
 30
-9.474873734152938
 70
   192
  0
VERTEX
  5
22B2
  8
0
 10
299.9999999999999
 20
-166.5000000000001
 30
-7.0
 70
   192
  0
VERTEX
  5
22B3
  8
0
 10
299.9999999999999
 20
-167.5251262658472
 30
-4.525126265847061
 70
   192
  0
VERTEX
  5
22B4
  8
0
 10
299.9999999999999
 20
-170.0000000000001
 30
-3.499999999999968
 70
   192
  0
VERTEX
  5
22B5
  8
0
 10
299.9999999999999
 20
-172.4748737341531
 30
-4.525126265847062
 70
   192
  0
VERTEX
  5
22B6
  8
0
 10
0.0
 20
0.0
 30
0.0
 70
   128
 71
     6
 72
    -5
 73
    -3
  0
VERTEX
  5
22B7
  8
0
 10
0.0
 20
0.0
 30
0.0
 70
   128
 71
    -3
 72
     7
 73
    -6
  0
VERTEX
  5
22B8
  8
0
 10
0.0
 20
0.0
 30
0.0
 70
   128
 71
     3
 72
    -2
 73
    -7
  0
VERTEX
  5
22B9
  8
0
 10
0.0
 20
0.0
 30
0.0
 70
   128
 71
    -2
 72
     8
 73
    -7
  0
VERTEX
  5
22BA
  8
0
 10
0.0
 20
0.0
 30
0.0
 70
   128
 71
     2
 72
    -1
 73
    -9
  0
VERTEX
  5
22BB
  8
0
 10
0.0
 20
0.0
 30
0.0
 70
   128
 71
    -2
 72
     9
 73
    -8
  0
VERTEX
  5
22BC
  8
0
 10
0.0
 20
0.0
 30
0.0
 70
   128
 71
    -1
 72
    10
 73
    -9
  0
VERTEX
  5
22BD
  8
0
 10
0.0
 20
0.0
 30
0.0
 70
   128
 71
    -1
 72
    11
 73
   -10
  0
VERTEX
  5
22BE
  8
0
 10
0.0
 20
0.0
 30
0.0
 70
   128
 71
   -11
 72
     1
 73
    -4
  0
VERTEX
  5
22BF
  8
0
 10
0.0
 20
0.0
 30
0.0
 70
   128
 71
    -4
 72
    12
 73
   -11
  0
VERTEX
  5
22C0
  8
0
 10
0.0
 20
0.0
 30
0.0
 70
   128
 71
     4
 72
    -3
 73
    -5
  0
VERTEX
  5
22C1
  8
0
 10
0.0
 20
0.0
 30
0.0
 70
   128
 71
    -4
 72
     5
 73
   -12
  0
SEQEND
  5
2435
  8
0
  0
POLYLINE
  5
22C2
  8
0
 66
     1
 10
0.0
 20
0.0
 30
0.0
 70
    64
 71
    16
 72
    14
  0
VERTEX
  5
22C3
  8
0
 10
300.0
 20
-290.0000000000001
 30
-12.0
 70
   192
  0
VERTEX
  5
22C4
  8
0
 10
298.6602540378444
 20
-295.0000000000001
 30
-12.0
 70
   192
  0
VERTEX
  5
22C5
  8
0
 10
295.0
 20
-298.6602540378444
 30
-12.0
 70
   192
  0
VERTEX
  5
22C6
  8
0
 10
290.0
 20
-300.0000000000001
 30
-12.0
 70
   192
  0
VERTEX
  5
22C7
  8
0
 10
109.9999999999999
 20
-300.0000000000001
 30
-12.0
 70
   192
  0
VERTEX
  5
22C8
  8
0
 10
105.0
 20
-298.6602540378444
 30
-12.0
 70
   192
  0
VERTEX
  5
22C9
  8
0
 10
101.3397459621556
 20
-295.0000000000001
 30
-12.0
 70
   192
  0
VERTEX
  5
22CA
  8
0
 10
99.99999999999994
 20
-290.0000000000001
 30
-12.0
 70
   192
  0
VERTEX
  5
22CB
  8
0
 10
99.99999999999997
 20
-130.0000000000001
 30
-12.0
 70
   192
  0
VERTEX
  5
22CC
  8
0
 10
101.3397459621556
 20
-125.0000000000001
 30
-12.0
 70
   192
  0
VERTEX
  5
22CD
  8
0
 10
105.0
 20
-121.3397459621557
 30
-12.0
 70
   192
  0
VERTEX
  5
22CE
  8
0
 10
110.0
 20
-120.0000000000001
 30
-12.0
 70
   192
  0
VERTEX
  5
22CF
  8
0
 10
290.0000000000001
 20
-120.0000000000001
 30
-12.0
 70
   192
  0
VERTEX
  5
22D0
  8
0
 10
295.0000000000001
 20
-121.3397459621557
 30
-12.0
 70
   192
  0
VERTEX
  5
22D1
  8
0
 10
298.6602540378444
 20
-125.0000000000001
 30
-12.0
 70
   192
  0
VERTEX
  5
22D2
  8
0
 10
300.0000000000001
 20
-130.0000000000001
 30
-12.0
 70
   192
  0
VERTEX
  5
22D3
  8
0
 10
0.0
 20
0.0
 30
0.0
 70
   128
 71
    15
 72
    16
 73
    -1
  0
VERTEX
  5
22D4
  8
0
 10
0.0
 20
0.0
 30
0.0
 70
   128
 71
    14
 72
   -15
 73
    -1
  0
VERTEX
  5
22D5
  8
0
 10
0.0
 20
0.0
 30
0.0
 70
   128
 71
    13
 72
   -14
 73
    -1
  0
VERTEX
  5
22D6
  8
0
 10
0.0
 20
0.0
 30
0.0
 70
   128
 71
    12
 72
   -13
 73
    -1
  0
VERTEX
  5
22D7
  8
0
 10
0.0
 20
0.0
 30
0.0
 70
   128
 71
    11
 72
   -12
 73
    -1
  0
VERTEX
  5
22D8
  8
0
 10
0.0
 20
0.0
 30
0.0
 70
   128
 71
    10
 72
   -11
 73
    -1
  0
VERTEX
  5
22D9
  8
0
 10
0.0
 20
0.0
 30
0.0
 70
   128
 71
     9
 72
   -10
 73
    -1
  0
VERTEX
  5
22DA
  8
0
 10
0.0
 20
0.0
 30
0.0
 70
   128
 71
     8
 72
    -9
 73
    -1
  0
VERTEX
  5
22DB
  8
0
 10
0.0
 20
0.0
 30
0.0
 70
   128
 71
     7
 72
    -8
 73
    -1
  0
VERTEX
  5
22DC
  8
0
 10
0.0
 20
0.0
 30
0.0
 70
   128
 71
     6
 72
    -7
 73
    -1
  0
VERTEX
  5
22DD
  8
0
 10
0.0
 20
0.0
 30
0.0
 70
   128
 71
     5
 72
    -6
 73
    -1
  0
VERTEX
  5
22DE
  8
0
 10
0.0
 20
0.0
 30
0.0
 70
   128
 71
     4
 72
    -5
 73
    -1
  0
VERTEX
  5
22DF
  8
0
 10
0.0
 20
0.0
 30
0.0
 70
   128
 71
     3
 72
    -4
 73
    -1
  0
VERTEX
  5
22E0
  8
0
 10
0.0
 20
0.0
 30
0.0
 70
   128
 71
     2
 72
    -3
 73
     1
  0
SEQEND
  5
2436
  8
0
  0
POLYLINE
  5
22E1
  8
0
 66
     1
 10
0.0
 20
0.0
 30
0.0
 70
    64
 71
    16
 72
    14
  0
VERTEX
  5
22E2
  8
0
 10
290.0
 20
-300.0000000000001
 30
-2.0
 70
   192
  0
VERTEX
  5
22E3
  8
0
 10
110.0
 20
-300.0000000000001
 30
-2.0
 70
   192
  0
VERTEX
  5
22E4
  8
0
 10
105.0
 20
-298.6602540378444
 30
-2.0
 70
   192
  0
VERTEX
  5
22E5
  8
0
 10
101.3397459621556
 20
-295.0000000000001
 30
-2.0
 70
   192
  0
VERTEX
  5
22E6
  8
0
 10
99.99999999999996
 20
-290.0000000000001
 30
-2.0
 70
   192
  0
VERTEX
  5
22E7
  8
0
 10
99.99999999999997
 20
-130.0000000000001
 30
-2.0
 70
   192
  0
VERTEX
  5
22E8
  8
0
 10
101.3397459621556
 20
-125.0000000000001
 30
-2.0
 70
   192
  0
VERTEX
  5
22E9
  8
0
 10
105.0
 20
-121.3397459621557
 30
-2.0
 70
   192
  0
VERTEX
  5
22EA
  8
0
 10
110.0
 20
-120.0000000000001
 30
-2.0
 70
   192
  0
VERTEX
  5
22EB
  8
0
 10
290.0000000000001
 20
-120.0000000000001
 30
-2.0
 70
   192
  0
VERTEX
  5
22EC
  8
0
 10
295.0000000000001
 20
-121.3397459621557
 30
-2.0
 70
   192
  0
VERTEX
  5
22ED
  8
0
 10
298.6602540378444
 20
-125.0000000000001
 30
-2.0
 70
   192
  0
VERTEX
  5
22EE
  8
0
 10
300.0000000000001
 20
-130.0000000000001
 30
-2.0
 70
   192
  0
VERTEX
  5
22EF
  8
0
 10
300.0
 20
-290.0000000000001
 30
-2.0
 70
   192
  0
VERTEX
  5
22F0
  8
0
 10
298.6602540378444
 20
-295.0000000000001
 30
-2.0
 70
   192
  0
VERTEX
  5
22F1
  8
0
 10
295.0
 20
-298.6602540378444
 30
-2.0
 70
   192
  0
VERTEX
  5
22F2
  8
0
 10
0.0
 20
0.0
 30
0.0
 70
   128
 71
     1
 72
    16
 73
   -15
  0
VERTEX
  5
22F3
  8
0
 10
0.0
 20
0.0
 30
0.0
 70
   128
 71
    -1
 72
    15
 73
   -14
  0
VERTEX
  5
22F4
  8
0
 10
0.0
 20
0.0
 30
0.0
 70
   128
 71
    -1
 72
    14
 73
   -13
  0
VERTEX
  5
22F5
  8
0
 10
0.0
 20
0.0
 30
0.0
 70
   128
 71
    -1
 72
    13
 73
   -12
  0
VERTEX
  5
22F6
  8
0
 10
0.0
 20
0.0
 30
0.0
 70
   128
 71
    -1
 72
    12
 73
   -11
  0
VERTEX
  5
22F7
  8
0
 10
0.0
 20
0.0
 30
0.0
 70
   128
 71
    -1
 72
    11
 73
   -10
  0
VERTEX
  5
22F8
  8
0
 10
0.0
 20
0.0
 30
0.0
 70
   128
 71
    -1
 72
    10
 73
    -9
  0
VERTEX
  5
22F9
  8
0
 10
0.0
 20
0.0
 30
0.0
 70
   128
 71
    -1
 72
     9
 73
    -8
  0
VERTEX
  5
22FA
  8
0
 10
0.0
 20
0.0
 30
0.0
 70
   128
 71
    -1
 72
     8
 73
    -7
  0
VERTEX
  5
22FB
  8
0
 10
0.0
 20
0.0
 30
0.0
 70
   128
 71
    -1
 72
     7
 73
    -6
  0
VERTEX
  5
22FC
  8
0
 10
0.0
 20
0.0
 30
0.0
 70
   128
 71
    -1
 72
     6
 73
    -5
  0
VERTEX
  5
22FD
  8
0
 10
0.0
 20
0.0
 30
0.0
 70
   128
 71
    -1
 72
     5
 73
    -4
  0
VERTEX
  5
22FE
  8
0
 10
0.0
 20
0.0
 30
0.0
 70
   128
 71
    -1
 72
     4
 73
    -3
  0
VERTEX
  5
22FF
  8
0
 10
0.0
 20
0.0
 30
0.0
 70
   128
 71
    -1
 72
     3
 73
     2
  0
SEQEND
  5
2437
  8
0
  0
POLYLINE
  5
2300
  8
0
 66
     1
 10
0.0
 20
0.0
 30
0.0
 70
    64
 71
    10
 72
     8
  0
VERTEX
  5
2301
  8
0
 10
304.9999999999999
 20
-166.5000000000001
 30
-7.0
 70
   192
  0
VERTEX
  5
2302
  8
0
 10
304.9999999999999
 20
-173.5000000000001
 30
-7.0
 70
   192
  0
VERTEX
  5
2303
  8
0
 10
299.9999999999999
 20
-173.5000000000001
 30
-7.0
 70
   192
  0
VERTEX
  5
2304
  8
0
 10
299.9999999999999
 20
-166.5000000000001
 30
-7.0
 70
   192
  0
VERTEX
  5
2305
  8
0
 10
299.9999999999999
 20
-170.0000000000001
 30
-10.50000000000003
 70
   192
  0
VERTEX
  5
2306
  8
0
 10
304.9999999999999
 20
-170.0000000000001
 30
-10.50000000000003
 70
   192
  0
VERTEX
  5
2307
  8
0
 10
299.9999999999999
 20
-167.5251262658472
 30
-9.474873734152938
 70
   192
  0
VERTEX
  5
2308
  8
0
 10
304.9999999999999
 20
-167.5251262658472
 30
-9.474873734152938
 70
   192
  0
VERTEX
  5
2309
  8
0
 10
299.9999999999999
 20
-172.4748737341531
 30
-9.47487373415294
 70
   192
  0
VERTEX
  5
230A
  8
0
 10
304.9999999999999
 20
-172.4748737341531
 30
-9.47487373415294
 70
   192
  0
VERTEX
  5
230B
  8
0
 10
0.0
 20
0.0
 30
0.0
 70
   128
 71
     8
 72
     7
 73
    -4
  0
VERTEX
  5
230C
  8
0
 10
0.0
 20
0.0
 30
0.0
 70
   128
 71
    -8
 72
     4
 73
     1
  0
VERTEX
  5
230D
  8
0
 10
0.0
 20
0.0
 30
0.0
 70
   128
 71
     6
 72
     5
 73
    -7
  0
VERTEX
  5
230E
  8
0
 10
0.0
 20
0.0
 30
0.0
 70
   128
 71
    -6
 72
     7
 73
     8
  0
VERTEX
  5
230F
  8
0
 10
0.0
 20
0.0
 30
0.0
 70
   128
 71
    10
 72
     9
 73
    -5
  0
VERTEX
  5
2310
  8
0
 10
0.0
 20
0.0
 30
0.0
 70
   128
 71
   -10
 72
     5
 73
     6
  0
VERTEX
  5
2311
  8
0
 10
0.0
 20
0.0
 30
0.0
 70
   128
 71
     2
 72
     3
 73
    -9
  0
VERTEX
  5
2312
  8
0
 10
0.0
 20
0.0
 30
0.0
 70
   128
 71
    -2
 72
     9
 73
    10
  0
SEQEND
  5
2438
  8
0
  0
POLYLINE
  5
2313
  8
0
 66
     1
 10
0.0
 20
0.0
 30
0.0
 70
    64
 71
     8
 72
     6
  0
VERTEX
  5
2314
  8
0
 10
304.9999999999999
 20
-166.5000000000001
 30
-7.0
 70
   192
  0
VERTEX
  5
2315
  8
0
 10
304.9999999999999
 20
-167.5251262658472
 30
-9.474873734152938
 70
   192
  0
VERTEX
  5
2316
  8
0
 10
304.9999999999999
 20
-170.0000000000001
 30
-10.50000000000003
 70
   192
  0
VERTEX
  5
2317
  8
0
 10
304.9999999999999
 20
-172.4748737341531
 30
-9.47487373415294
 70
   192
  0
VERTEX
  5
2318
  8
0
 10
304.9999999999999
 20
-173.5000000000001
 30
-7.0
 70
   192
  0
VERTEX
  5
2319
  8
0
 10
304.9999999999999
 20
-172.4748737341531
 30
-4.525126265847062
 70
   192
  0
VERTEX
  5
231A
  8
0
 10
304.9999999999999
 20
-170.0000000000001
 30
-3.499999999999968
 70
   192
  0
VERTEX
  5
231B
  8
0
 10
304.9999999999999
 20
-167.5251262658472
 30
-4.525126265847061
 70
   192
  0
VERTEX
  5
231C
  8
0
 10
0.0
 20
0.0
 30
0.0
 70
   128
 71
     1
 72
     8
 73
    -7
  0
VERTEX
  5
231D
  8
0
 10
0.0
 20
0.0
 30
0.0
 70
   128
 71
    -1
 72
     7
 73
    -6
  0
VERTEX
  5
231E
  8
0
 10
0.0
 20
0.0
 30
0.0
 70
   128
 71
    -1
 72
     6
 73
    -5
  0
VERTEX
  5
231F
  8
0
 10
0.0
 20
0.0
 30
0.0
 70
   128
 71
    -1
 72
     5
 73
    -4
  0
VERTEX
  5
2320
  8
0
 10
0.0
 20
0.0
 30
0.0
 70
   128
 71
    -1
 72
     4
 73
    -3
  0
VERTEX
  5
2321
  8
0
 10
0.0
 20
0.0
 30
0.0
 70
   128
 71
    -1
 72
     3
 73
     2
  0
SEQEND
  5
2439
  8
0
  0
ENDBLK
  5
242C
  8
0
  0
BLOCK
  8
0
  2
*X5
 70
     1
 10
0.0
 20
0.0
 30
0.0
  3
*X5
  1

  0
POLYLINE
  5
2323
  8
0
 66
     1
 10
0.0
 20
0.0
 30
0.0
 70
    64
 71
     4
 72
     2
  0
VERTEX
  5
2324
  8
0
 10
-395.0
 20
-350.0000000000002
 30
-2.0
 70
   192
  0
VERTEX
  5
2325
  8
0
 10
-395.0
 20
-350.0000000000002
 30
-20.0
 70
   192
  0
VERTEX
  5
2326
  8
0
 10
-395.0
 20
349.9999999999999
 30
-20.0
 70
   192
  0
VERTEX
  5
2327
  8
0
 10
-395.0
 20
349.9999999999999
 30
-2.0
 70
   192
  0
VERTEX
  5
2328
  8
0
 10
0.0
 20
0.0
 30
0.0
 70
   128
 71
     1
 72
     4
 73
    -3
  0
VERTEX
  5
2329
  8
0
 10
0.0
 20
0.0
 30
0.0
 70
   128
 71
    -1
 72
     3
 73
     2
  0
SEQEND
  5
243C
  8
0
  0
POLYLINE
  5
232A
  8
0
 66
     1
 10
0.0
 20
0.0
 30
0.0
 70
    64
 71
     8
 72
     6
  0
VERTEX
  5
232B
  8
0
 10
-372.5000000000001
 20
388.9711431702996
 30
-2.0
 70
   192
  0
VERTEX
  5
232C
  8
0
 10
-372.5000000000001
 20
388.9711431702996
 30
-20.0
 70
   192
  0
VERTEX
  5
232D
  8
0
 10
-388.9711431702998
 20
372.4999999999999
 30
-20.0
 70
   192
  0
VERTEX
  5
232E
  8
0
 10
-388.9711431702998
 20
372.4999999999999
 30
-2.0
 70
   192
  0
VERTEX
  5
232F
  8
0
 10
-350.0000000000001
 20
394.9999999999999
 30
-2.0
 70
   192
  0
VERTEX
  5
2330
  8
0
 10
-350.0000000000001
 20
394.9999999999999
 30
-20.0
 70
   192
  0
VERTEX
  5
2331
  8
0
 10
-395.0000000000001
 20
349.9999999999999
 30
-20.0
 70
   192
  0
VERTEX
  5
2332
  8
0
 10
-395.0
 20
349.9999999999999
 30
-2.0
 70
   192
  0
VERTEX
  5
2333
  8
0
 10
0.0
 20
0.0
 30
0.0
 70
   128
 71
     1
 72
     2
 73
    -3
  0
VERTEX
  5
2334
  8
0
 10
0.0
 20
0.0
 30
0.0
 70
   128
 71
    -1
 72
     3
 73
     4
  0
VERTEX
  5
2335
  8
0
 10
0.0
 20
0.0
 30
0.0
 70
   128
 71
     5
 72
     6
 73
    -2
  0
VERTEX
  5
2336
  8
0
 10
0.0
 20
0.0
 30
0.0
 70
   128
 71
    -5
 72
     2
 73
     1
  0
VERTEX
  5
2337
  8
0
 10
0.0
 20
0.0
 30
0.0
 70
   128
 71
     4
 72
     3
 73
    -7
  0
VERTEX
  5
2338
  8
0
 10
0.0
 20
0.0
 30
0.0
 70
   128
 71
    -4
 72
     7
 73
     8
  0
SEQEND
  5
243D
  8
0
  0
POLYLINE
  5
2339
  8
0
 66
     1
 10
0.0
 20
0.0
 30
0.0
 70
    64
 71
     4
 72
     2
  0
VERTEX
  5
233A
  8
0
 10
-350.0000000000001
 20
394.9999999999999
 30
-2.0
 70
   192
  0
VERTEX
  5
233B
  8
0
 10
-350.0000000000001
 20
394.9999999999999
 30
-20.0
 70
   192
  0
VERTEX
  5
233C
  8
0
 10
350.0000000000001
 20
395.0
 30
-20.0
 70
   192
  0
VERTEX
  5
233D
  8
0
 10
350.0000000000001
 20
395.0
 30
-2.0
 70
   192
  0
VERTEX
  5
233E
  8
0
 10
0.0
 20
0.0
 30
0.0
 70
   128
 71
     1
 72
     4
 73
    -3
  0
VERTEX
  5
233F
  8
0
 10
0.0
 20
0.0
 30
0.0
 70
   128
 71
    -1
 72
     3
 73
     2
  0
SEQEND
  5
243E
  8
0
  0
POLYLINE
  5
2340
  8
0
 66
     1
 10
0.0
 20
0.0
 30
0.0
 70
    64
 71
     8
 72
     6
  0
VERTEX
  5
2341
  8
0
 10
388.9711431702998
 20
372.5000000000001
 30
-2.0
 70
   192
  0
VERTEX
  5
2342
  8
0
 10
388.9711431702998
 20
372.5000000000001
 30
-20.0
 70
   192
  0
VERTEX
  5
2343
  8
0
 10
372.5000000000001
 20
388.9711431702998
 30
-20.0
 70
   192
  0
VERTEX
  5
2344
  8
0
 10
372.5000000000001
 20
388.9711431702998
 30
-2.0
 70
   192
  0
VERTEX
  5
2345
  8
0
 10
395.0000000000001
 20
350.0000000000001
 30
-2.0
 70
   192
  0
VERTEX
  5
2346
  8
0
 10
395.0
 20
350.0000000000001
 30
-20.0
 70
   192
  0
VERTEX
  5
2347
  8
0
 10
350.0000000000001
 20
395.0000000000001
 30
-20.0
 70
   192
  0
VERTEX
  5
2348
  8
0
 10
350.0000000000001
 20
395.0
 30
-2.0
 70
   192
  0
VERTEX
  5
2349
  8
0
 10
0.0
 20
0.0
 30
0.0
 70
   128
 71
     1
 72
     2
 73
    -3
  0
VERTEX
  5
234A
  8
0
 10
0.0
 20
0.0
 30
0.0
 70
   128
 71
    -1
 72
     3
 73
     4
  0
VERTEX
  5
234B
  8
0
 10
0.0
 20
0.0
 30
0.0
 70
   128
 71
     5
 72
     6
 73
    -2
  0
VERTEX
  5
234C
  8
0
 10
0.0
 20
0.0
 30
0.0
 70
   128
 71
    -5
 72
     2
 73
     1
  0
VERTEX
  5
234D
  8
0
 10
0.0
 20
0.0
 30
0.0
 70
   128
 71
     4
 72
     3
 73
    -7
  0
VERTEX
  5
234E
  8
0
 10
0.0
 20
0.0
 30
0.0
 70
   128
 71
    -4
 72
     7
 73
     8
  0
SEQEND
  5
243F
  8
0
  0
POLYLINE
  5
234F
  8
0
 66
     1
 10
0.0
 20
0.0
 30
0.0
 70
    64
 71
     4
 72
     2
  0
VERTEX
  5
2350
  8
0
 10
395.0
 20
350.0000000000001
 30
-2.0
 70
   192
  0
VERTEX
  5
2351
  8
0
 10
395.0
 20
350.0000000000001
 30
-20.0
 70
   192
  0
VERTEX
  5
2352
  8
0
 10
395.0
 20
-350.0000000000001
 30
-20.0
 70
   192
  0
VERTEX
  5
2353
  8
0
 10
395.0
 20
-350.0000000000001
 30
-2.0
 70
   192
  0
VERTEX
  5
2354
  8
0
 10
0.0
 20
0.0
 30
0.0
 70
   128
 71
     1
 72
     4
 73
    -3
  0
VERTEX
  5
2355
  8
0
 10
0.0
 20
0.0
 30
0.0
 70
   128
 71
    -1
 72
     3
 73
     2
  0
SEQEND
  5
2440
  8
0
  0
POLYLINE
  5
2356
  8
0
 66
     1
 10
0.0
 20
0.0
 30
0.0
 70
    64
 71
     8
 72
     6
  0
VERTEX
  5
2357
  8
0
 10
372.5000000000001
 20
-388.9711431702998
 30
-2.0
 70
   192
  0
VERTEX
  5
2358
  8
0
 10
372.5000000000001
 20
-388.9711431702998
 30
-20.0
 70
   192
  0
VERTEX
  5
2359
  8
0
 10
388.9711431702998
 20
-372.5000000000001
 30
-20.0
 70
   192
  0
VERTEX
  5
235A
  8
0
 10
388.9711431702998
 20
-372.5000000000001
 30
-2.0
 70
   192
  0
VERTEX
  5
235B
  8
0
 10
350.0000000000001
 20
-395.0000000000001
 30
-2.0
 70
   192
  0
VERTEX
  5
235C
  8
0
 10
350.0000000000001
 20
-395.0
 30
-20.0
 70
   192
  0
VERTEX
  5
235D
  8
0
 10
395.0000000000001
 20
-350.0000000000001
 30
-20.0
 70
   192
  0
VERTEX
  5
235E
  8
0
 10
395.0
 20
-350.0000000000001
 30
-2.0
 70
   192
  0
VERTEX
  5
235F
  8
0
 10
0.0
 20
0.0
 30
0.0
 70
   128
 71
     1
 72
     2
 73
    -3
  0
VERTEX
  5
2360
  8
0
 10
0.0
 20
0.0
 30
0.0
 70
   128
 71
    -1
 72
     3
 73
     4
  0
VERTEX
  5
2361
  8
0
 10
0.0
 20
0.0
 30
0.0
 70
   128
 71
     5
 72
     6
 73
    -2
  0
VERTEX
  5
2362
  8
0
 10
0.0
 20
0.0
 30
0.0
 70
   128
 71
    -5
 72
     2
 73
     1
  0
VERTEX
  5
2363
  8
0
 10
0.0
 20
0.0
 30
0.0
 70
   128
 71
     4
 72
     3
 73
    -7
  0
VERTEX
  5
2364
  8
0
 10
0.0
 20
0.0
 30
0.0
 70
   128
 71
    -4
 72
     7
 73
     8
  0
SEQEND
  5
2441
  8
0
  0
POLYLINE
  5
2365
  8
0
 66
     1
 10
0.0
 20
0.0
 30
0.0
 70
    64
 71
     4
 72
     2
  0
VERTEX
  5
2366
  8
0
 10
350.0000000000001
 20
-395.0
 30
-2.0
 70
   192
  0
VERTEX
  5
2367
  8
0
 10
350.0000000000001
 20
-395.0
 30
-20.0
 70
   192
  0
VERTEX
  5
2368
  8
0
 10
-350.0000000000001
 20
-395.0000000000001
 30
-20.0
 70
   192
  0
VERTEX
  5
2369
  8
0
 10
-350.0000000000001
 20
-395.0000000000001
 30
-2.0
 70
   192
  0
VERTEX
  5
236A
  8
0
 10
0.0
 20
0.0
 30
0.0
 70
   128
 71
     1
 72
     4
 73
    -3
  0
VERTEX
  5
236B
  8
0
 10
0.0
 20
0.0
 30
0.0
 70
   128
 71
    -1
 72
     3
 73
     2
  0
SEQEND
  5
2442
  8
0
  0
POLYLINE
  5
236C
  8
0
 66
     1
 10
0.0
 20
0.0
 30
0.0
 70
    64
 71
     4
 72
     2
  0
VERTEX
  5
236D
  8
0
 10
330.0
 20
330.0
 30
-2.0
 70
   192
  0
VERTEX
  5
236E
  8
0
 10
-330.0
 20
329.9999999999999
 30
-2.0
 70
   192
  0
VERTEX
  5
236F
  8
0
 10
-330.0
 20
329.9999999999999
 30
-20.0
 70
   192
  0
VERTEX
  5
2370
  8
0
 10
330.0
 20
330.0
 30
-20.0
 70
   192
  0
VERTEX
  5
2371
  8
0
 10
0.0
 20
0.0
 30
0.0
 70
   128
 71
     3
 72
     4
 73
    -1
  0
VERTEX
  5
2372
  8
0
 10
0.0
 20
0.0
 30
0.0
 70
   128
 71
     2
 72
    -3
 73
     1
  0
SEQEND
  5
2443
  8
0
  0
POLYLINE
  5
2373
  8
0
 66
     1
 10
0.0
 20
0.0
 30
0.0
 70
    64
 71
     4
 72
     2
  0
VERTEX
  5
2374
  8
0
 10
-330.0
 20
329.9999999999999
 30
-2.0
 70
   192
  0
VERTEX
  5
2375
  8
0
 10
-330.0
 20
-330.0000000000001
 30
-2.0
 70
   192
  0
VERTEX
  5
2376
  8
0
 10
-330.0
 20
-330.0000000000001
 30
-20.0
 70
   192
  0
VERTEX
  5
2377
  8
0
 10
-330.0
 20
329.9999999999999
 30
-20.0
 70
   192
  0
VERTEX
  5
2378
  8
0
 10
0.0
 20
0.0
 30
0.0
 70
   128
 71
     3
 72
     4
 73
    -1
  0
VERTEX
  5
2379
  8
0
 10
0.0
 20
0.0
 30
0.0
 70
   128
 71
     2
 72
    -3
 73
     1
  0
SEQEND
  5
2444
  8
0
  0
POLYLINE
  5
237A
  8
0
 66
     1
 10
0.0
 20
0.0
 30
0.0
 70
    64
 71
     4
 72
     2
  0
VERTEX
  5
237B
  8
0
 10
-330.0
 20
-330.0000000000001
 30
-2.0
 70
   192
  0
VERTEX
  5
237C
  8
0
 10
330.0
 20
-330.0
 30
-2.0
 70
   192
  0
VERTEX
  5
237D
  8
0
 10
330.0
 20
-330.0
 30
-20.0
 70
   192
  0
VERTEX
  5
237E
  8
0
 10
-330.0
 20
-330.0000000000001
 30
-20.0
 70
   192
  0
VERTEX
  5
237F
  8
0
 10
0.0
 20
0.0
 30
0.0
 70
   128
 71
     3
 72
     4
 73
    -1
  0
VERTEX
  5
2380
  8
0
 10
0.0
 20
0.0
 30
0.0
 70
   128
 71
     2
 72
    -3
 73
     1
  0
SEQEND
  5
2445
  8
0
  0
POLYLINE
  5
2381
  8
0
 66
     1
 10
0.0
 20
0.0
 30
0.0
 70
    64
 71
     4
 72
     2
  0
VERTEX
  5
2382
  8
0
 10
330.0
 20
-330.0
 30
-2.0
 70
   192
  0
VERTEX
  5
2383
  8
0
 10
330.0
 20
330.0
 30
-2.0
 70
   192
  0
VERTEX
  5
2384
  8
0
 10
330.0
 20
330.0
 30
-20.0
 70
   192
  0
VERTEX
  5
2385
  8
0
 10
330.0
 20
-330.0
 30
-20.0
 70
   192
  0
VERTEX
  5
2386
  8
0
 10
0.0
 20
0.0
 30
0.0
 70
   128
 71
     3
 72
     4
 73
    -1
  0
VERTEX
  5
2387
  8
0
 10
0.0
 20
0.0
 30
0.0
 70
   128
 71
     2
 72
    -3
 73
     1
  0
SEQEND
  5
2446
  8
0
  0
POLYLINE
  5
2388
  8
0
 66
     1
 10
0.0
 20
0.0
 30
0.0
 70
    64
 71
     8
 72
     6
  0
VERTEX
  5
2389
  8
0
 10
-388.9711431702998
 20
-372.5000000000002
 30
-2.0
 70
   192
  0
VERTEX
  5
238A
  8
0
 10
-388.9711431702998
 20
-372.5000000000002
 30
-20.0
 70
   192
  0
VERTEX
  5
238B
  8
0
 10
-372.5000000000001
 20
-388.9711431702999
 30
-20.0
 70
   192
  0
VERTEX
  5
238C
  8
0
 10
-372.5000000000001
 20
-388.9711431702999
 30
-2.0
 70
   192
  0
VERTEX
  5
238D
  8
0
 10
-395.0000000000001
 20
-350.0000000000002
 30
-2.0
 70
   192
  0
VERTEX
  5
238E
  8
0
 10
-395.0
 20
-350.0000000000002
 30
-20.0
 70
   192
  0
VERTEX
  5
238F
  8
0
 10
-350.0000000000001
 20
-395.0000000000002
 30
-20.0
 70
   192
  0
VERTEX
  5
2390
  8
0
 10
-350.0000000000001
 20
-395.0000000000001
 30
-2.0
 70
   192
  0
VERTEX
  5
2391
  8
0
 10
0.0
 20
0.0
 30
0.0
 70
   128
 71
     1
 72
     2
 73
    -3
  0
VERTEX
  5
2392
  8
0
 10
0.0
 20
0.0
 30
0.0
 70
   128
 71
    -1
 72
     3
 73
     4
  0
VERTEX
  5
2393
  8
0
 10
0.0
 20
0.0
 30
0.0
 70
   128
 71
     5
 72
     6
 73
    -2
  0
VERTEX
  5
2394
  8
0
 10
0.0
 20
0.0
 30
0.0
 70
   128
 71
    -5
 72
     2
 73
     1
  0
VERTEX
  5
2395
  8
0
 10
0.0
 20
0.0
 30
0.0
 70
   128
 71
     4
 72
     3
 73
    -7
  0
VERTEX
  5
2396
  8
0
 10
0.0
 20
0.0
 30
0.0
 70
   128
 71
    -4
 72
     7
 73
     8
  0
SEQEND
  5
2447
  8
0
  0
POLYLINE
  5
2397
  8
0
 66
     1
 10
0.0
 20
0.0
 30
0.0
 70
    64
 71
    20
 72
    20
  0
VERTEX
  5
2398
  8
0
 10
-395.0
 20
-350.0000000000002
 30
-20.0
 70
   192
  0
VERTEX
  5
2399
  8
0
 10
-395.0
 20
349.9999999999999
 30
-20.0
 70
   192
  0
VERTEX
  5
239A
  8
0
 10
-388.9711431702998
 20
372.4999999999999
 30
-20.0
 70
   192
  0
VERTEX
  5
239B
  8
0
 10
-372.5000000000001
 20
388.9711431702996
 30
-20.0
 70
   192
  0
VERTEX
  5
239C
  8
0
 10
-350.0000000000001
 20
394.9999999999999
 30
-20.0
 70
   192
  0
VERTEX
  5
239D
  8
0
 10
350.0000000000001
 20
395.0
 30
-20.0
 70
   192
  0
VERTEX
  5
239E
  8
0
 10
372.5000000000001
 20
388.9711431702998
 30
-20.0
 70
   192
  0
VERTEX
  5
239F
  8
0
 10
388.9711431702998
 20
372.5000000000001
 30
-20.0
 70
   192
  0
VERTEX
  5
23A0
  8
0
 10
395.0000000000001
 20
350.0000000000001
 30
-20.0
 70
   192
  0
VERTEX
  5
23A1
  8
0
 10
395.0
 20
-350.0000000000001
 30
-20.0
 70
   192
  0
VERTEX
  5
23A2
  8
0
 10
388.9711431702998
 20
-372.5000000000001
 30
-20.0
 70
   192
  0
VERTEX
  5
23A3
  8
0
 10
372.5000000000001
 20
-388.9711431702998
 30
-20.0
 70
   192
  0
VERTEX
  5
23A4
  8
0
 10
350.0000000000001
 20
-395.0000000000001
 30
-20.0
 70
   192
  0
VERTEX
  5
23A5
  8
0
 10
-350.0000000000001
 20
-395.0000000000001
 30
-20.0
 70
   192
  0
VERTEX
  5
23A6
  8
0
 10
-372.5000000000001
 20
-388.9711431702999
 30
-20.0
 70
   192
  0
VERTEX
  5
23A7
  8
0
 10
-388.9711431702998
 20
-372.5000000000002
 30
-20.0
 70
   192
  0
VERTEX
  5
23A8
  8
0
 10
330.0
 20
330.0
 30
-20.0
 70
   192
  0
VERTEX
  5
23A9
  8
0
 10
-330.0
 20
329.9999999999999
 30
-20.0
 70
   192
  0
VERTEX
  5
23AA
  8
0
 10
-330.0
 20
-330.0000000000001
 30
-20.0
 70
   192
  0
VERTEX
  5
23AB
  8
0
 10
330.0
 20
-330.0
 30
-20.0
 70
   192
  0
VERTEX
  5
23AC
  8
0
 10
0.0
 20
0.0
 30
0.0
 70
   128
 71
    -7
 72
    17
 73
   -18
  0
VERTEX
  5
23AD
  8
0
 10
0.0
 20
0.0
 30
0.0
 70
   128
 71
     6
 72
    -7
 73
   -18
  0
VERTEX
  5
23AE
  8
0
 10
0.0
 20
0.0
 30
0.0
 70
   128
 71
     5
 72
    -6
 73
   -18
  0
VERTEX
  5
23AF
  8
0
 10
0.0
 20
0.0
 30
0.0
 70
   128
 71
     4
 72
    -5
 73
   -18
  0
VERTEX
  5
23B0
  8
0
 10
0.0
 20
0.0
 30
0.0
 70
   128
 71
     2
 72
     3
 73
    -4
  0
VERTEX
  5
23B1
  8
0
 10
0.0
 20
0.0
 30
0.0
 70
   128
 71
     1
 72
    -2
 73
    -4
  0
VERTEX
  5
23B2
  8
0
 10
0.0
 20
0.0
 30
0.0
 70
   128
 71
    16
 72
    -1
 73
    -4
  0
VERTEX
  5
23B3
  8
0
 10
0.0
 20
0.0
 30
0.0
 70
   128
 71
    15
 72
   -16
 73
    -4
  0
VERTEX
  5
23B4
  8
0
 10
0.0
 20
0.0
 30
0.0
 70
   128
 71
   -19
 72
   -15
 73
    -4
  0
VERTEX
  5
23B5
  8
0
 10
0.0
 20
0.0
 30
0.0
 70
   128
 71
    18
 72
   -19
 73
    -4
  0
VERTEX
  5
23B6
  8
0
 10
0.0
 20
0.0
 30
0.0
 70
   128
 71
    13
 72
    14
 73
   -15
  0
VERTEX
  5
23B7
  8
0
 10
0.0
 20
0.0
 30
0.0
 70
   128
 71
    12
 72
   -13
 73
   -15
  0
VERTEX
  5
23B8
  8
0
 10
0.0
 20
0.0
 30
0.0
 70
   128
 71
    11
 72
   -12
 73
   -15
  0
VERTEX
  5
23B9
  8
0
 10
0.0
 20
0.0
 30
0.0
 70
   128
 71
   -20
 72
   -11
 73
   -15
  0
VERTEX
  5
23BA
  8
0
 10
0.0
 20
0.0
 30
0.0
 70
   128
 71
    19
 72
   -20
 73
   -15
  0
VERTEX
  5
23BB
  8
0
 10
0.0
 20
0.0
 30
0.0
 70
   128
 71
     9
 72
    10
 73
   -11
  0
VERTEX
  5
23BC
  8
0
 10
0.0
 20
0.0
 30
0.0
 70
   128
 71
     8
 72
    -9
 73
   -11
  0
VERTEX
  5
23BD
  8
0
 10
0.0
 20
0.0
 30
0.0
 70
   128
 71
     7
 72
    -8
 73
   -11
  0
VERTEX
  5
23BE
  8
0
 10
0.0
 20
0.0
 30
0.0
 70
   128
 71
   -17
 72
    -7
 73
   -11
  0
VERTEX
  5
23BF
  8
0
 10
0.0
 20
0.0
 30
0.0
 70
   128
 71
    20
 72
   -17
 73
   -11
  0
SEQEND
  5
2448
  8
0
  0
POLYLINE
  5
23C0
  8
0
 66
     1
 10
0.0
 20
0.0
 30
0.0
 70
    64
 71
    20
 72
    20
  0
VERTEX
  5
23C1
  8
0
 10
-395.0000000000001
 20
349.9999999999999
 30
-2.0
 70
   192
  0
VERTEX
  5
23C2
  8
0
 10
-388.9711431702998
 20
372.4999999999999
 30
-2.0
 70
   192
  0
VERTEX
  5
23C3
  8
0
 10
-372.5000000000001
 20
388.9711431702996
 30
-2.0
 70
   192
  0
VERTEX
  5
23C4
  8
0
 10
-350.0000000000001
 20
394.9999999999999
 30
-2.0
 70
   192
  0
VERTEX
  5
23C5
  8
0
 10
350.0000000000001
 20
395.0000000000001
 30
-2.0
 70
   192
  0
VERTEX
  5
23C6
  8
0
 10
372.5000000000001
 20
388.9711431702998
 30
-2.0
 70
   192
  0
VERTEX
  5
23C7
  8
0
 10
388.9711431702998
 20
372.5000000000001
 30
-2.0
 70
   192
  0
VERTEX
  5
23C8
  8
0
 10
395.0
 20
350.0000000000001
 30
-2.0
 70
   192
  0
VERTEX
  5
23C9
  8
0
 10
395.0000000000001
 20
-350.0000000000001
 30
-2.0
 70
   192
  0
VERTEX
  5
23CA
  8
0
 10
388.9711431702998
 20
-372.5000000000001
 30
-2.0
 70
   192
  0
VERTEX
  5
23CB
  8
0
 10
372.5000000000001
 20
-388.9711431702998
 30
-2.0
 70
   192
  0
VERTEX
  5
23CC
  8
0
 10
350.0000000000001
 20
-395.0
 30
-2.0
 70
   192
  0
VERTEX
  5
23CD
  8
0
 10
-350.0000000000001
 20
-395.0000000000002
 30
-2.0
 70
   192
  0
VERTEX
  5
23CE
  8
0
 10
-372.5000000000001
 20
-388.9711431702999
 30
-2.0
 70
   192
  0
VERTEX
  5
23CF
  8
0
 10
-388.9711431702998
 20
-372.5000000000002
 30
-2.0
 70
   192
  0
VERTEX
  5
23D0
  8
0
 10
-395.0
 20
-350.0000000000002
 30
-2.0
 70
   192
  0
VERTEX
  5
23D1
  8
0
 10
-330.0
 20
329.9999999999999
 30
-2.0
 70
   192
  0
VERTEX
  5
23D2
  8
0
 10
-330.0
 20
-330.0000000000001
 30
-2.0
 70
   192
  0
VERTEX
  5
23D3
  8
0
 10
330.0
 20
-330.0
 30
-2.0
 70
   192
  0
VERTEX
  5
23D4
  8
0
 10
330.0
 20
330.0
 30
-2.0
 70
   192
  0
VERTEX
  5
23D5
  8
0
 10
0.0
 20
0.0
 30
0.0
 70
   128
 71
    18
 72
   -17
 73
    -3
  0
VERTEX
  5
23D6
  8
0
 10
0.0
 20
0.0
 30
0.0
 70
   128
 71
   -18
 72
     3
 73
    -2
  0
VERTEX
  5
23D7
  8
0
 10
0.0
 20
0.0
 30
0.0
 70
   128
 71
   -18
 72
     2
 73
    -1
  0
VERTEX
  5
23D8
  8
0
 10
0.0
 20
0.0
 30
0.0
 70
   128
 71
   -18
 72
     1
 73
   -16
  0
VERTEX
  5
23D9
  8
0
 10
0.0
 20
0.0
 30
0.0
 70
   128
 71
   -18
 72
    16
 73
   -15
  0
VERTEX
  5
23DA
  8
0
 10
0.0
 20
0.0
 30
0.0
 70
   128
 71
   -18
 72
    15
 73
   -14
  0
VERTEX
  5
23DB
  8
0
 10
0.0
 20
0.0
 30
0.0
 70
   128
 71
    14
 72
    13
 73
   -12
  0
VERTEX
  5
23DC
  8
0
 10
0.0
 20
0.0
 30
0.0
 70
   128
 71
   -14
 72
    12
 73
   -11
  0
VERTEX
  5
23DD
  8
0
 10
0.0
 20
0.0
 30
0.0
 70
   128
 71
   -14
 72
    11
 73
   -10
  0
VERTEX
  5
23DE
  8
0
 10
0.0
 20
0.0
 30
0.0
 70
   128
 71
   -14
 72
   -10
 73
   -19
  0
VERTEX
  5
23DF
  8
0
 10
0.0
 20
0.0
 30
0.0
 70
   128
 71
   -14
 72
    19
 73
   -18
  0
VERTEX
  5
23E0
  8
0
 10
0.0
 20
0.0
 30
0.0
 70
   128
 71
    10
 72
     9
 73
    -8
  0
VERTEX
  5
23E1
  8
0
 10
0.0
 20
0.0
 30
0.0
 70
   128
 71
   -10
 72
     8
 73
    -7
  0
VERTEX
  5
23E2
  8
0
 10
0.0
 20
0.0
 30
0.0
 70
   128
 71
   -10
 72
     7
 73
    -6
  0
VERTEX
  5
23E3
  8
0
 10
0.0
 20
0.0
 30
0.0
 70
   128
 71
   -10
 72
    -6
 73
   -20
  0
VERTEX
  5
23E4
  8
0
 10
0.0
 20
0.0
 30
0.0
 70
   128
 71
   -10
 72
    20
 73
   -19
  0
VERTEX
  5
23E5
  8
0
 10
0.0
 20
0.0
 30
0.0
 70
   128
 71
     6
 72
     5
 73
    -4
  0
VERTEX
  5
23E6
  8
0
 10
0.0
 20
0.0
 30
0.0
 70
   128
 71
    -6
 72
     4
 73
    -3
  0
VERTEX
  5
23E7
  8
0
 10
0.0
 20
0.0
 30
0.0
 70
   128
 71
    -6
 72
    -3
 73
   -17
  0
VERTEX
  5
23E8
  8
0
 10
0.0
 20
0.0
 30
0.0
 70
   128
 71
    -6
 72
    17
 73
   -20
  0
SEQEND
  5
2449
  8
0
  0
ENDBLK
  5
243B
  8
0
  0
ENDSEC
  0
SECTION
  2
ENTITIES
  0
INSERT
  5
1A3C
  8
0
  2
*X1
 10
0.0
 20
0.0
 30
0.0
  0
INSERT
  5
1A3D
  8
0
  2
*X2
 10
0.0
 20
0.0
 30
0.0
  0
INSERT
  5
1A3E
  8
0
  2
*X3
 10
0.0
 20
0.0
 30
0.0
  0
INSERT
  5
1A3F
  8
0
  2
*X4
 10
0.0
 20
0.0
 30
0.0
  0
INSERT
  5
1A40
  8
0
  2
*X5
 10
0.0
 20
0.0
 30
0.0
  0
ENDSEC
  0
EOF
