  0
SECTION
  2
HEADER
  9
$ACADVER
  1
AC1009
  9
$DWGCODEPAGE
  3
ansi_1250
  9
$INSBASE
 10
0.0
 20
0.0
 30
0.0
  9
$EXTMIN
 10
-500.0
 20
-91.03856954752297
 30
-235.0000000000011
  9
$EXTMAX
 10
500.0
 20
63.00000000000006
 30
235.0000000000001
  9
$LIMMIN
 10
0.0
 20
0.0
  9
$LIMMAX
 10
420.0
 20
297.0
  9
$ORTHOMODE
 70
     0
  9
$REGENMODE
 70
     1
  9
$FILLMODE
 70
     1
  9
$QTEXTMODE
 70
     0
  9
$MIRRTEXT
 70
     0
  9
$DRAGMODE
 70
     2
  9
$LTSCALE
 40
1.0
  9
$OSMODE
 70
   511
  9
$ATTMODE
 70
     1
  9
$TEXTSIZE
 40
2.5
  9
$TRACEWID
 40
1.0
  9
$TEXTSTYLE
  7
STANDARD
  9
$CLAYER
  8
0
  9
$CELTYPE
  6
BYLAYER
  9
$CECOLOR
 62
   256
  9
$DIMSCALE
 40
1.0
  9
$DIMASZ
 40
2.5
  9
$DIMEXO
 40
0.625
  9
$DIMDLI
 40
3.75
  9
$DIMRND
 40
0.0
  9
$DIMDLE
 40
0.0
  9
$DIMEXE
 40
1.25
  9
$DIMTP
 40
0.0
  9
$DIMTM
 40
0.0
  9
$DIMTXT
 40
2.5
  9
$DIMCEN
 40
-2.5
  9
$DIMTSZ
 40
0.0
  9
$DIMTOL
 70
     0
  9
$DIMLIM
 70
     0
  9
$DIMTIH
 70
     0
  9
$DIMTOH
 70
     0
  9
$DIMSE1
 70
     0
  9
$DIMSE2
 70
     0
  9
$DIMTAD
 70
     1
  9
$DIMZIN
 70
     8
  9
$DIMBLK
  1

  9
$DIMASO
 70
     1
  9
$DIMSHO
 70
     1
  9
$DIMPOST
  1

  9
$DIMAPOST
  1

  9
$DIMALT
 70
     0
  9
$DIMALTD
 70
     3
  9
$DIMALTF
 40
0.03937007874016
  9
$DIMLFAC
 40
1.0
  9
$DIMTOFL
 70
     1
  9
$DIMTVP
 40
0.0
  9
$DIMTIX
 70
     0
  9
$DIMSOXD
 70
     0
  9
$DIMSAH
 70
     0
  9
$DIMBLK1
  1

  9
$DIMBLK2
  1

  9
$DIMSTYLE
  2
ISO-25
  9
$DIMCLRD
 70
     0
  9
$DIMCLRE
 70
     0
  9
$DIMCLRT
 70
     0
  9
$DIMTFAC
 40
1.0
  9
$DIMGAP
 40
0.625
  9
$LUNITS
 70
     2
  9
$LUPREC
 70
     3
  9
$SKETCHINC
 40
1.0
  9
$FILLETRAD
 40
10.0
  9
$AUNITS
 70
     0
  9
$AUPREC
 70
     0
  9
$MENU
  1
.
  9
$ELEVATION
 40
0.0
  9
$PELEVATION
 40
0.0
  9
$THICKNESS
 40
0.0
  9
$LIMCHECK
 70
     0
  9
$CHAMFERA
 40
10.0
  9
$CHAMFERB
 40
10.0
  9
$SKPOLY
 70
     0
  9
$TDCREATE
 40
2455022.720692848
  9
$TDUPDATE
 40
2460539.480075255
  9
$TDINDWG
 40
0.0036626505
  9
$TDUSRTIMER
 40
0.0037118287
  9
$USRTIMER
 70
     1
  9
$ANGBASE
 50
0.0
  9
$ANGDIR
 70
     0
  9
$PDMODE
 70
     0
  9
$PDSIZE
 40
0.0
  9
$PLINEWID
 40
0.0
  9
$COORDS
 70
     1
  9
$SPLFRAME
 70
     0
  9
$SPLINETYPE
 70
     6
  9
$SPLINESEGS
 70
     8
  9
$ATTDIA
 70
     0
  9
$ATTREQ
 70
     1
  9
$HANDLING
 70
     1
  9
$HANDSEED
  5
2276
  9
$SURFTAB1
 70
     6
  9
$SURFTAB2
 70
     6
  9
$SURFTYPE
 70
     6
  9
$SURFU
 70
     6
  9
$SURFV
 70
     6
  9
$UCSNAME
  2

  9
$UCSORG
 10
0.0
 20
0.0
 30
0.0
  9
$UCSXDIR
 10
1.0
 20
0.0
 30
0.0
  9
$UCSYDIR
 10
0.0
 20
1.0
 30
0.0
  9
$PUCSNAME
  2

  9
$PUCSORG
 10
0.0
 20
0.0
 30
0.0
  9
$PUCSXDIR
 10
1.0
 20
0.0
 30
0.0
  9
$PUCSYDIR
 10
0.0
 20
1.0
 30
0.0
  9
$USERI1
 70
     0
  9
$USERI2
 70
     0
  9
$USERI3
 70
     0
  9
$USERI4
 70
     0
  9
$USERI5
 70
     0
  9
$USERR1
 40
0.0
  9
$USERR2
 40
0.0
  9
$USERR3
 40
0.0
  9
$USERR4
 40
0.0
  9
$USERR5
 40
0.0
  9
$WORLDVIEW
 70
     1
  9
$SHADEDGE
 70
     3
  9
$SHADEDIF
 70
    70
  9
$TILEMODE
 70
     1
  9
$MAXACTVP
 70
    64
  9
$PLIMCHECK
 70
     0
  9
$PEXTMIN
 10
1.000000000000000E+20
 20
1.000000000000000E+20
 30
1.000000000000000E+20
  9
$PEXTMAX
 10
-1.000000000000000E+20
 20
-1.000000000000000E+20
 30
-1.000000000000000E+20
  9
$PLIMMIN
 10
0.0
 20
0.0
  9
$PLIMMAX
 10
0.0
 20
0.0
  9
$UNITMODE
 70
     0
  9
$VISRETAIN
 70
     1
  9
$PLINEGEN
 70
     0
  9
$PSLTSCALE
 70
     1
  0
ENDSEC
  0
SECTION
  2
TABLES
  0
TABLE
  2
VPORT
 70
     1
  0
VPORT
  2
*ACTIVE
 70
     0
 10
0.0
 20
0.0
 11
1.0
 21
1.0
 12
-104.810196548158
 22
-49.05096283677011
 13
0.0
 23
0.0
 14
10.0
 24
10.0
 15
10.0
 25
10.0
 16
0.5773502691896226
 26
0.5773502691896226
 36
0.5773502691896226
 17
-134.1869158878504
 27
-0.0000000000000142
 37
0.0
 40
788.7175932068903
 41
1.739930955120829
 42
50.0
 43
0.0
 44
0.0
 50
0.0
 51
0.0
 71
    16
 72
  1000
 73
     1
 74
     3
 75
     0
 76
     0
 77
     0
 78
     0
  0
ENDTAB
  0
TABLE
  2
LTYPE
 70
     1
  0
LTYPE
  2
CONTINUOUS
 70
     0
  3
Solid line
 72
    65
 73
     0
 40
0.0
  0
ENDTAB
  0
TABLE
  2
LAYER
 70
     1
  0
LAYER
  2
0
 70
     0
 62
     7
  6
CONTINUOUS
  0
ENDTAB
  0
TABLE
  2
STYLE
 70
     2
  0
STYLE
  2
STANDARD
 70
     0
 40
0.0
 41
1.0
 50
0.0
 71
     0
 42
2.5
  3
arial.ttf
  4

  0
STYLE
  2
ANNOTATIVE
 70
     0
 40
0.0
 41
1.0
 50
0.0
 71
     0
 42
2.5
  3
arial.ttf
  4

  0
ENDTAB
  0
TABLE
  2
VIEW
 70
     0
  0
ENDTAB
  0
TABLE
  2
UCS
 70
     0
  0
ENDTAB
  0
TABLE
  2
APPID
 70
     2
  0
APPID
  2
ACAD
 70
     0
  0
APPID
  2
ACADANNOTATIVE
 70
     0
  0
ENDTAB
  0
TABLE
  2
DIMSTYLE
 70
     2
  0
DIMSTYLE
  2
ISO-25
 70
     0
  3

  4

  5

  6

  7

 40
1.0
 41
2.5
 42
0.625
 43
3.75
 44
1.25
 45
0.0
 46
0.0
 47
0.0
 48
0.0
140
2.5
141
-2.5
142
0.0
143
0.03937007874016
144
1.0
145
0.0
146
1.0
147
0.625
 71
     0
 72
     0
 73
     0
 74
     0
 75
     0
 76
     0
 77
     1
 78
     8
170
     0
171
     3
172
     1
173
     0
174
     0
175
     0
176
     0
177
     0
178
     0
  0
DIMSTYLE
  2
ANNOTATIVE
 70
     0
  3

  4

  5

  6

  7

 40
0.0
 41
2.5
 42
0.625
 43
3.75
 44
1.25
 45
0.0
 46
0.0
 47
0.0
 48
0.0
140
2.5
141
-2.5
142
0.0
143
0.03937007874016
144
1.0
145
0.0
146
1.0
147
0.625
 71
     0
 72
     0
 73
     0
 74
     0
 75
     0
 76
     0
 77
     1
 78
     8
170
     0
171
     3
172
     1
173
     0
174
     0
175
     0
176
     0
177
     0
178
     0
  0
ENDTAB
  0
ENDSEC
  0
SECTION
  2
BLOCKS
  0
BLOCK
  8
0
  2
$MODEL_SPACE
 70
     0
 10
0.0
 20
0.0
 30
0.0
  3
$MODEL_SPACE
  1

  0
ENDBLK
  5
21
  8
0
  0
BLOCK
 67
     1
  8
0
  2
$PAPER_SPACE
 70
     0
 10
0.0
 20
0.0
 30
0.0
  3
$PAPER_SPACE
  1

  0
ENDBLK
  5
1D
 67
     1
  8
0
  0
BLOCK
  8
0
  2
*X1
 70
     1
 10
0.0
 20
0.0
 30
0.0
  3
*X1
  1

  0
POLYLINE
  5
1DA2
  8
0
 66
     1
 10
0.0
 20
0.0
 30
0.0
 70
    64
 71
    10
 72
     8
  0
VERTEX
  5
1DA3
  8
0
 10
-408.5000000000002
 20
4.999999999999993
 30
-215.0000000000005
 70
   192
  0
VERTEX
  5
1DA4
  8
0
 10
-421.5000000000002
 20
4.999999999999995
 30
-215.0000000000005
 70
   192
  0
VERTEX
  5
1DA5
  8
0
 10
-421.5000000000002
 20
4.999999999999995
 30
-235.0000000000005
 70
   192
  0
VERTEX
  5
1DA6
  8
0
 10
-408.5000000000001
 20
4.999999999999995
 30
-235.0000000000005
 70
   192
  0
VERTEX
  5
1DA7
  8
0
 10
-415.0000000000002
 20
-1.500000000000012
 30
-235.0000000000005
 70
   192
  0
VERTEX
  5
1DA8
  8
0
 10
-415.0000000000002
 20
-1.500000000000012
 30
-215.0000000000005
 70
   192
  0
VERTEX
  5
1DA9
  8
0
 10
-410.4038059222876
 20
0.4038059222874297
 30
-235.0000000000005
 70
   192
  0
VERTEX
  5
1DAA
  8
0
 10
-410.4038059222876
 20
0.4038059222874297
 30
-215.0000000000005
 70
   192
  0
VERTEX
  5
1DAB
  8
0
 10
-419.5961940777127
 20
0.4038059222874315
 30
-235.0000000000005
 70
   192
  0
VERTEX
  5
1DAC
  8
0
 10
-419.5961940777127
 20
0.4038059222874315
 30
-215.0000000000005
 70
   192
  0
VERTEX
  5
1DAD
  8
0
 10
0.0
 20
0.0
 30
0.0
 70
   128
 71
     8
 72
     1
 73
    -4
  0
VERTEX
  5
1DAE
  8
0
 10
0.0
 20
0.0
 30
0.0
 70
   128
 71
     7
 72
    -8
 73
     4
  0
VERTEX
  5
1DAF
  8
0
 10
0.0
 20
0.0
 30
0.0
 70
   128
 71
     6
 72
     8
 73
    -7
  0
VERTEX
  5
1DB0
  8
0
 10
0.0
 20
0.0
 30
0.0
 70
   128
 71
     5
 72
    -6
 73
     7
  0
VERTEX
  5
1DB1
  8
0
 10
0.0
 20
0.0
 30
0.0
 70
   128
 71
    10
 72
     6
 73
    -5
  0
VERTEX
  5
1DB2
  8
0
 10
0.0
 20
0.0
 30
0.0
 70
   128
 71
     9
 72
   -10
 73
     5
  0
VERTEX
  5
1DB3
  8
0
 10
0.0
 20
0.0
 30
0.0
 70
   128
 71
     2
 72
    10
 73
    -9
  0
VERTEX
  5
1DB4
  8
0
 10
0.0
 20
0.0
 30
0.0
 70
   128
 71
     3
 72
    -2
 73
     9
  0
SEQEND
  5
2247
  8
0
  0
POLYLINE
  5
1DB5
  8
0
 66
     1
 10
0.0
 20
0.0
 30
0.0
 70
    64
 71
    10
 72
     8
  0
VERTEX
  5
1DB6
  8
0
 10
-63.50000000000015
 20
4.999999999999993
 30
-215.0000000000005
 70
   192
  0
VERTEX
  5
1DB7
  8
0
 10
-76.50000000000018
 20
4.999999999999995
 30
-215.0000000000005
 70
   192
  0
VERTEX
  5
1DB8
  8
0
 10
-76.50000000000018
 20
4.999999999999995
 30
-235.0000000000005
 70
   192
  0
VERTEX
  5
1DB9
  8
0
 10
-63.50000000000016
 20
4.999999999999995
 30
-235.0000000000005
 70
   192
  0
VERTEX
  5
1DBA
  8
0
 10
-70.00000000000017
 20
-1.500000000000026
 30
-235.0000000000005
 70
   192
  0
VERTEX
  5
1DBB
  8
0
 10
-70.00000000000017
 20
-1.500000000000026
 30
-215.0000000000005
 70
   192
  0
VERTEX
  5
1DBC
  8
0
 10
-65.4038059222876
 20
0.40380592228742
 30
-235.0000000000005
 70
   192
  0
VERTEX
  5
1DBD
  8
0
 10
-65.4038059222876
 20
0.40380592228742
 30
-215.0000000000005
 70
   192
  0
VERTEX
  5
1DBE
  8
0
 10
-74.59619407771274
 20
0.4038059222874217
 30
-235.0000000000005
 70
   192
  0
VERTEX
  5
1DBF
  8
0
 10
-74.59619407771274
 20
0.4038059222874217
 30
-215.0000000000005
 70
   192
  0
VERTEX
  5
1DC0
  8
0
 10
0.0
 20
0.0
 30
0.0
 70
   128
 71
     8
 72
     1
 73
    -4
  0
VERTEX
  5
1DC1
  8
0
 10
0.0
 20
0.0
 30
0.0
 70
   128
 71
     7
 72
    -8
 73
     4
  0
VERTEX
  5
1DC2
  8
0
 10
0.0
 20
0.0
 30
0.0
 70
   128
 71
     6
 72
     8
 73
    -7
  0
VERTEX
  5
1DC3
  8
0
 10
0.0
 20
0.0
 30
0.0
 70
   128
 71
     5
 72
    -6
 73
     7
  0
VERTEX
  5
1DC4
  8
0
 10
0.0
 20
0.0
 30
0.0
 70
   128
 71
    10
 72
     6
 73
    -5
  0
VERTEX
  5
1DC5
  8
0
 10
0.0
 20
0.0
 30
0.0
 70
   128
 71
     9
 72
   -10
 73
     5
  0
VERTEX
  5
1DC6
  8
0
 10
0.0
 20
0.0
 30
0.0
 70
   128
 71
     2
 72
    10
 73
    -9
  0
VERTEX
  5
1DC7
  8
0
 10
0.0
 20
0.0
 30
0.0
 70
   128
 71
     3
 72
    -2
 73
     9
  0
SEQEND
  5
2248
  8
0
  0
POLYLINE
  5
1DC8
  8
0
 66
     1
 10
0.0
 20
0.0
 30
0.0
 70
    64
 71
    10
 72
     8
  0
VERTEX
  5
1DC9
  8
0
 10
76.50000000000018
 20
4.999999999999995
 30
-215.0000000000005
 70
   192
  0
VERTEX
  5
1DCA
  8
0
 10
63.50000000000015
 20
4.999999999999993
 30
-215.0000000000005
 70
   192
  0
VERTEX
  5
1DCB
  8
0
 10
63.50000000000015
 20
4.999999999999993
 30
-235.0000000000005
 70
   192
  0
VERTEX
  5
1DCC
  8
0
 10
76.5000000000002
 20
4.999999999999995
 30
-235.0000000000005
 70
   192
  0
VERTEX
  5
1DCD
  8
0
 10
70.00000000000017
 20
-1.500000000000026
 30
-235.0000000000005
 70
   192
  0
VERTEX
  5
1DCE
  8
0
 10
70.00000000000017
 20
-1.500000000000026
 30
-215.0000000000005
 70
   192
  0
VERTEX
  5
1DCF
  8
0
 10
74.59619407771274
 20
0.4038059222874217
 30
-235.0000000000005
 70
   192
  0
VERTEX
  5
1DD0
  8
0
 10
74.59619407771274
 20
0.4038059222874217
 30
-215.0000000000005
 70
   192
  0
VERTEX
  5
1DD1
  8
0
 10
65.4038059222876
 20
0.40380592228742
 30
-235.0000000000005
 70
   192
  0
VERTEX
  5
1DD2
  8
0
 10
65.4038059222876
 20
0.40380592228742
 30
-215.0000000000005
 70
   192
  0
VERTEX
  5
1DD3
  8
0
 10
0.0
 20
0.0
 30
0.0
 70
   128
 71
     8
 72
     1
 73
    -4
  0
VERTEX
  5
1DD4
  8
0
 10
0.0
 20
0.0
 30
0.0
 70
   128
 71
     7
 72
    -8
 73
     4
  0
VERTEX
  5
1DD5
  8
0
 10
0.0
 20
0.0
 30
0.0
 70
   128
 71
     6
 72
     8
 73
    -7
  0
VERTEX
  5
1DD6
  8
0
 10
0.0
 20
0.0
 30
0.0
 70
   128
 71
     5
 72
    -6
 73
     7
  0
VERTEX
  5
1DD7
  8
0
 10
0.0
 20
0.0
 30
0.0
 70
   128
 71
    10
 72
     6
 73
    -5
  0
VERTEX
  5
1DD8
  8
0
 10
0.0
 20
0.0
 30
0.0
 70
   128
 71
     9
 72
   -10
 73
     5
  0
VERTEX
  5
1DD9
  8
0
 10
0.0
 20
0.0
 30
0.0
 70
   128
 71
     2
 72
    10
 73
    -9
  0
VERTEX
  5
1DDA
  8
0
 10
0.0
 20
0.0
 30
0.0
 70
   128
 71
     3
 72
    -2
 73
     9
  0
SEQEND
  5
2249
  8
0
  0
POLYLINE
  5
1DDB
  8
0
 66
     1
 10
0.0
 20
0.0
 30
0.0
 70
    64
 71
    10
 72
     8
  0
VERTEX
  5
1DDC
  8
0
 10
421.5000000000002
 20
4.999999999999995
 30
-215.0000000000005
 70
   192
  0
VERTEX
  5
1DDD
  8
0
 10
408.5000000000002
 20
4.999999999999993
 30
-215.0000000000005
 70
   192
  0
VERTEX
  5
1DDE
  8
0
 10
408.5000000000002
 20
4.999999999999993
 30
-235.0000000000005
 70
   192
  0
VERTEX
  5
1DDF
  8
0
 10
421.5000000000002
 20
4.999999999999995
 30
-235.0000000000005
 70
   192
  0
VERTEX
  5
1DE0
  8
0
 10
415.0000000000002
 20
-1.500000000000012
 30
-235.0000000000005
 70
   192
  0
VERTEX
  5
1DE1
  8
0
 10
415.0000000000002
 20
-1.500000000000012
 30
-215.0000000000005
 70
   192
  0
VERTEX
  5
1DE2
  8
0
 10
419.5961940777127
 20
0.4038059222874315
 30
-235.0000000000005
 70
   192
  0
VERTEX
  5
1DE3
  8
0
 10
419.5961940777127
 20
0.4038059222874315
 30
-215.0000000000005
 70
   192
  0
VERTEX
  5
1DE4
  8
0
 10
410.4038059222876
 20
0.4038059222874297
 30
-235.0000000000005
 70
   192
  0
VERTEX
  5
1DE5
  8
0
 10
410.4038059222876
 20
0.4038059222874297
 30
-215.0000000000005
 70
   192
  0
VERTEX
  5
1DE6
  8
0
 10
0.0
 20
0.0
 30
0.0
 70
   128
 71
     8
 72
     1
 73
    -4
  0
VERTEX
  5
1DE7
  8
0
 10
0.0
 20
0.0
 30
0.0
 70
   128
 71
     7
 72
    -8
 73
     4
  0
VERTEX
  5
1DE8
  8
0
 10
0.0
 20
0.0
 30
0.0
 70
   128
 71
     6
 72
     8
 73
    -7
  0
VERTEX
  5
1DE9
  8
0
 10
0.0
 20
0.0
 30
0.0
 70
   128
 71
     5
 72
    -6
 73
     7
  0
VERTEX
  5
1DEA
  8
0
 10
0.0
 20
0.0
 30
0.0
 70
   128
 71
    10
 72
     6
 73
    -5
  0
VERTEX
  5
1DEB
  8
0
 10
0.0
 20
0.0
 30
0.0
 70
   128
 71
     9
 72
   -10
 73
     5
  0
VERTEX
  5
1DEC
  8
0
 10
0.0
 20
0.0
 30
0.0
 70
   128
 71
     2
 72
    10
 73
    -9
  0
VERTEX
  5
1DED
  8
0
 10
0.0
 20
0.0
 30
0.0
 70
   128
 71
     3
 72
    -2
 73
     9
  0
SEQEND
  5
224A
  8
0
  0
POLYLINE
  5
1DEE
  8
0
 66
     1
 10
0.0
 20
0.0
 30
0.0
 70
    64
 71
    21
 72
    22
  0
VERTEX
  5
1DEF
  8
0
 10
-262.0
 20
-41.296541041144
 30
-105.4152957353613
 70
   192
  0
VERTEX
  5
1DF0
  8
0
 10
-262.0
 20
-69.07417109108872
 30
-27.62041956018818
 70
   192
  0
VERTEX
  5
1DF1
  8
0
 10
-245.6897902199059
 20
-69.07417109108872
 30
-23.25011202122975
 70
   192
  0
VERTEX
  5
1DF2
  8
0
 10
-233.7498879787702
 20
-69.07417109108872
 30
-11.31020978009404
 70
   192
  0
VERTEX
  5
1DF3
  8
0
 10
-229.3795804398118
 20
-69.07417109108872
 30
5.000000000000081
 70
   192
  0
VERTEX
  5
1DF4
  8
0
 10
-166.3472943191333
 20
-49.28521660765847
 30
5.000000000000075
 70
   192
  0
VERTEX
  5
1DF5
  8
0
 10
-261.9999999999999
 20
41.00000000000004
 30
-185.0
 70
   192
  0
VERTEX
  5
1DF6
  8
0
 10
-357.0
 20
-15.27199598670117
 30
-105.4152957353613
 70
   192
  0
VERTEX
  5
1DF7
  8
0
 10
-357.6527056808667
 20
-49.28521660765847
 30
5.000000000000064
 70
   192
  0
VERTEX
  5
1DF8
  8
0
 10
-294.6204195601881
 20
-69.07417109108869
 30
5.000000000000064
 70
   192
  0
VERTEX
  5
1DF9
  8
0
 10
-290.2501120212298
 20
-69.07417109108872
 30
-11.31020978009407
 70
   192
  0
VERTEX
  5
1DFA
  8
0
 10
-278.3102097800941
 20
-69.07417109108872
 30
-23.25011202122976
 70
   192
  0
VERTEX
  5
1DFB
  8
0
 10
-426.5448267190434
 20
41.00000000000004
 30
-90.00000000000003
 70
   192
  0
VERTEX
  5
1DFC
  8
0
 10
-452.0000000000001
 20
41.00000000000004
 30
4.99999999999999
 70
   192
  0
VERTEX
  5
1DFD
  8
0
 10
-411.790594331463
 20
-11.42018226722777
 30
5.000000000000064
 70
   192
  0
VERTEX
  5
1DFE
  8
0
 10
-167.0
 20
-15.27199598670117
 30
-105.4152957353613
 70
   192
  0
VERTEX
  5
1DFF
  8
0
 10
-112.209405668537
 20
-11.42018226722777
 30
5.000000000000083
 70
   192
  0
VERTEX
  5
1E00
  8
0
 10
-166.9999999999999
 20
41.00000000000004
 30
-159.5448267190433
 70
   192
  0
VERTEX
  5
1E01
  8
0
 10
-97.45517328095659
 20
41.00000000000004
 30
-89.99999999999994
 70
   192
  0
VERTEX
  5
1E02
  8
0
 10
-72.00000000000003
 20
41.0
 30
5.000000000000088
 70
   192
  0
VERTEX
  5
1E03
  8
0
 10
-357.0
 20
41.00000000000004
 30
-159.5448267190434
 70
   192
  0
VERTEX
  5
1E04
  8
0
 10
0.0
 20
0.0
 30
0.0
 70
   128
 71
     1
 72
     2
 73
     3
  0
VERTEX
  5
1E05
  8
0
 10
0.0
 20
0.0
 30
0.0
 70
   128
 71
     3
 72
     4
 73
     1
  0
VERTEX
  5
1E06
  8
0
 10
0.0
 20
0.0
 30
0.0
 70
   128
 71
     4
 72
     5
 73
     6
  0
VERTEX
  5
1E07
  8
0
 10
0.0
 20
0.0
 30
0.0
 70
   128
 71
     1
 72
     7
 73
     8
  0
VERTEX
  5
1E08
  8
0
 10
0.0
 20
0.0
 30
0.0
 70
   128
 71
     9
 72
    10
 73
    11
  0
VERTEX
  5
1E09
  8
0
 10
0.0
 20
0.0
 30
0.0
 70
   128
 71
     1
 72
     8
 73
     9
  0
VERTEX
  5
1E0A
  8
0
 10
0.0
 20
0.0
 30
0.0
 70
   128
 71
    12
 72
     1
 73
     9
  0
VERTEX
  5
1E0B
  8
0
 10
0.0
 20
0.0
 30
0.0
 70
   128
 71
    11
 72
    12
 73
     9
  0
VERTEX
  5
1E0C
  8
0
 10
0.0
 20
0.0
 30
0.0
 70
   128
 71
    12
 72
     2
 73
     1
  0
VERTEX
  5
1E0D
  8
0
 10
0.0
 20
0.0
 30
0.0
 70
   128
 71
    13
 72
    14
 73
    15
  0
VERTEX
  5
1E0E
  8
0
 10
0.0
 20
0.0
 30
0.0
 70
   128
 71
     9
 72
     8
 73
    15
  0
VERTEX
  5
1E0F
  8
0
 10
0.0
 20
0.0
 30
0.0
 70
   128
 71
     1
 72
     4
 73
     6
  0
VERTEX
  5
1E10
  8
0
 10
0.0
 20
0.0
 30
0.0
 70
   128
 71
    16
 72
     1
 73
     6
  0
VERTEX
  5
1E11
  8
0
 10
0.0
 20
0.0
 30
0.0
 70
   128
 71
    17
 72
    16
 73
     6
  0
VERTEX
  5
1E12
  8
0
 10
0.0
 20
0.0
 30
0.0
 70
   128
 71
     7
 72
     1
 73
    16
  0
VERTEX
  5
1E13
  8
0
 10
0.0
 20
0.0
 30
0.0
 70
   128
 71
    18
 72
     7
 73
    16
  0
VERTEX
  5
1E14
  8
0
 10
0.0
 20
0.0
 30
0.0
 70
   128
 71
    18
 72
    16
 73
    17
  0
VERTEX
  5
1E15
  8
0
 10
0.0
 20
0.0
 30
0.0
 70
   128
 71
    19
 72
    18
 73
    17
  0
VERTEX
  5
1E16
  8
0
 10
0.0
 20
0.0
 30
0.0
 70
   128
 71
    20
 72
    19
 73
    17
  0
VERTEX
  5
1E17
  8
0
 10
0.0
 20
0.0
 30
0.0
 70
   128
 71
    13
 72
    15
 73
     8
  0
VERTEX
  5
1E18
  8
0
 10
0.0
 20
0.0
 30
0.0
 70
   128
 71
    21
 72
    13
 73
     8
  0
VERTEX
  5
1E19
  8
0
 10
0.0
 20
0.0
 30
0.0
 70
   128
 71
     8
 72
     7
 73
    21
  0
SEQEND
  5
224B
  8
0
  0
POLYLINE
  5
1E1A
  8
0
 66
     1
 10
0.0
 20
0.0
 30
0.0
 70
    64
 71
    12
 72
    10
  0
VERTEX
  5
1E1B
  8
0
 10
-262.0
 20
-76.0741710910887
 30
-17.4999999999999
 70
   192
  0
VERTEX
  5
1E1C
  8
0
 10
-262.0
 20
-69.07417109108872
 30
-27.62041956018818
 70
   192
  0
VERTEX
  5
1E1D
  8
0
 10
-278.3102097800941
 20
-69.07417109108872
 30
-23.25011202122976
 70
   192
  0
VERTEX
  5
1E1E
  8
0
 10
-277.9099025766973
 20
-76.0741710910887
 30
-10.90990257669723
 70
   192
  0
VERTEX
  5
1E1F
  8
0
 10
-294.6204195601882
 20
-69.07417109108872
 30
5.000000000000058
 70
   192
  0
VERTEX
  5
1E20
  8
0
 10
-284.4999999999999
 20
-76.0741710910887
 30
5.000000000000061
 70
   192
  0
VERTEX
  5
1E21
  8
0
 10
-290.2501120212298
 20
-69.07417109108872
 30
-11.31020978009407
 70
   192
  0
VERTEX
  5
1E22
  8
0
 10
-290.2501120212298
 20
-69.07417109108872
 30
21.31020978009419
 70
   192
  0
VERTEX
  5
1E23
  8
0
 10
-277.9099025766973
 20
-76.0741710910887
 30
20.90990257669736
 70
   192
  0
VERTEX
  5
1E24
  8
0
 10
-262.0
 20
-69.07417109108872
 30
37.6204195601883
 70
   192
  0
VERTEX
  5
1E25
  8
0
 10
-262.0
 20
-76.0741710910887
 30
27.50000000000003
 70
   192
  0
VERTEX
  5
1E26
  8
0
 10
-278.3102097800941
 20
-69.07417109108872
 30
33.25011202122987
 70
   192
  0
VERTEX
  5
1E27
  8
0
 10
0.0
 20
0.0
 30
0.0
 70
   128
 71
     1
 72
     2
 73
     3
  0
VERTEX
  5
1E28
  8
0
 10
0.0
 20
0.0
 30
0.0
 70
   128
 71
     4
 72
     1
 73
     3
  0
VERTEX
  5
1E29
  8
0
 10
0.0
 20
0.0
 30
0.0
 70
   128
 71
     5
 72
     6
 73
     4
  0
VERTEX
  5
1E2A
  8
0
 10
0.0
 20
0.0
 30
0.0
 70
   128
 71
     7
 72
     5
 73
     4
  0
VERTEX
  5
1E2B
  8
0
 10
0.0
 20
0.0
 30
0.0
 70
   128
 71
     6
 72
     5
 73
     8
  0
VERTEX
  5
1E2C
  8
0
 10
0.0
 20
0.0
 30
0.0
 70
   128
 71
     9
 72
     6
 73
     8
  0
VERTEX
  5
1E2D
  8
0
 10
0.0
 20
0.0
 30
0.0
 70
   128
 71
    10
 72
    11
 73
     9
  0
VERTEX
  5
1E2E
  8
0
 10
0.0
 20
0.0
 30
0.0
 70
   128
 71
    12
 72
    10
 73
     9
  0
VERTEX
  5
1E2F
  8
0
 10
0.0
 20
0.0
 30
0.0
 70
   128
 71
     7
 72
     4
 73
     3
  0
VERTEX
  5
1E30
  8
0
 10
0.0
 20
0.0
 30
0.0
 70
   128
 71
    12
 72
     9
 73
     8
  0
SEQEND
  5
224C
  8
0
  0
POLYLINE
  5
1E31
  8
0
 66
     1
 10
0.0
 20
0.0
 30
0.0
 70
    64
 71
    12
 72
    10
  0
VERTEX
  5
1E32
  8
0
 10
-262.0
 20
-90.00000000000028
 30
-17.4999999999999
 70
   192
  0
VERTEX
  5
1E33
  8
0
 10
-262.0
 20
-76.07417109108872
 30
-17.4999999999999
 70
   192
  0
VERTEX
  5
1E34
  8
0
 10
-277.9099025766973
 20
-76.0741710910887
 30
-10.90990257669723
 70
   192
  0
VERTEX
  5
1E35
  8
0
 10
-273.25
 20
-90.00000000000028
 30
-14.48557158514978
 70
   192
  0
VERTEX
  5
1E36
  8
0
 10
-284.4999999999999
 20
-76.0741710910887
 30
5.000000000000061
 70
   192
  0
VERTEX
  5
1E37
  8
0
 10
-284.4999999999999
 20
-90.00000000000028
 30
5.00000000000006
 70
   192
  0
VERTEX
  5
1E38
  8
0
 10
-281.4855715851498
 20
-90.00000000000028
 30
-6.249999999999929
 70
   192
  0
VERTEX
  5
1E39
  8
0
 10
-277.9099025766973
 20
-76.0741710910887
 30
20.90990257669736
 70
   192
  0
VERTEX
  5
1E3A
  8
0
 10
-281.4855715851498
 20
-90.00000000000028
 30
16.25000000000005
 70
   192
  0
VERTEX
  5
1E3B
  8
0
 10
-262.0
 20
-76.0741710910887
 30
27.50000000000003
 70
   192
  0
VERTEX
  5
1E3C
  8
0
 10
-262.0
 20
-90.00000000000028
 30
27.50000000000003
 70
   192
  0
VERTEX
  5
1E3D
  8
0
 10
-273.25
 20
-90.00000000000028
 30
24.48557158514989
 70
   192
  0
VERTEX
  5
1E3E
  8
0
 10
0.0
 20
0.0
 30
0.0
 70
   128
 71
     1
 72
     2
 73
     3
  0
VERTEX
  5
1E3F
  8
0
 10
0.0
 20
0.0
 30
0.0
 70
   128
 71
     4
 72
     1
 73
     3
  0
VERTEX
  5
1E40
  8
0
 10
0.0
 20
0.0
 30
0.0
 70
   128
 71
     5
 72
     6
 73
     7
  0
VERTEX
  5
1E41
  8
0
 10
0.0
 20
0.0
 30
0.0
 70
   128
 71
     3
 72
     5
 73
     7
  0
VERTEX
  5
1E42
  8
0
 10
0.0
 20
0.0
 30
0.0
 70
   128
 71
     6
 72
     5
 73
     8
  0
VERTEX
  5
1E43
  8
0
 10
0.0
 20
0.0
 30
0.0
 70
   128
 71
     9
 72
     6
 73
     8
  0
VERTEX
  5
1E44
  8
0
 10
0.0
 20
0.0
 30
0.0
 70
   128
 71
    10
 72
    11
 73
    12
  0
VERTEX
  5
1E45
  8
0
 10
0.0
 20
0.0
 30
0.0
 70
   128
 71
     8
 72
    10
 73
    12
  0
VERTEX
  5
1E46
  8
0
 10
0.0
 20
0.0
 30
0.0
 70
   128
 71
     3
 72
     7
 73
     4
  0
VERTEX
  5
1E47
  8
0
 10
0.0
 20
0.0
 30
0.0
 70
   128
 71
     8
 72
    12
 73
     9
  0
SEQEND
  5
224D
  8
0
  0
POLYLINE
  5
1E48
  8
0
 66
     1
 10
0.0
 20
0.0
 30
0.0
 70
    64
 71
    10
 72
     8
  0
VERTEX
  5
1E49
  8
0
 10
-89.99999999999953
 20
41.00000000000004
 30
-183.9999999999999
 70
   192
  0
VERTEX
  5
1E4A
  8
0
 10
-89.99999999999953
 20
41.00000000000004
 30
-149.9999999999999
 70
   192
  0
VERTEX
  5
1E4B
  8
0
 10
-89.99999999999953
 20
59.99999999999999
 30
-149.9999999999999
 70
   192
  0
VERTEX
  5
1E4C
  8
0
 10
-89.99999999999953
 20
59.99999999999999
 30
-183.9999999999999
 70
   192
  0
VERTEX
  5
1E4D
  8
0
 10
-106.9999999999995
 20
59.99999999999999
 30
-166.9999999999999
 70
   192
  0
VERTEX
  5
1E4E
  8
0
 10
-106.9999999999995
 20
41.00000000000004
 30
-166.9999999999999
 70
   192
  0
VERTEX
  5
1E4F
  8
0
 10
-102.0208152801708
 20
59.99999999999999
 30
-179.0208152801712
 70
   192
  0
VERTEX
  5
1E50
  8
0
 10
-102.0208152801708
 20
41.00000000000004
 30
-179.0208152801712
 70
   192
  0
VERTEX
  5
1E51
  8
0
 10
-102.0208152801708
 20
59.99999999999999
 30
-154.9791847198287
 70
   192
  0
VERTEX
  5
1E52
  8
0
 10
-102.0208152801708
 20
41.00000000000004
 30
-154.9791847198287
 70
   192
  0
VERTEX
  5
1E53
  8
0
 10
0.0
 20
0.0
 30
0.0
 70
   128
 71
     8
 72
     1
 73
    -4
  0
VERTEX
  5
1E54
  8
0
 10
0.0
 20
0.0
 30
0.0
 70
   128
 71
     7
 72
    -8
 73
     4
  0
VERTEX
  5
1E55
  8
0
 10
0.0
 20
0.0
 30
0.0
 70
   128
 71
     6
 72
     8
 73
    -7
  0
VERTEX
  5
1E56
  8
0
 10
0.0
 20
0.0
 30
0.0
 70
   128
 71
     5
 72
    -6
 73
     7
  0
VERTEX
  5
1E57
  8
0
 10
0.0
 20
0.0
 30
0.0
 70
   128
 71
    10
 72
     6
 73
    -5
  0
VERTEX
  5
1E58
  8
0
 10
0.0
 20
0.0
 30
0.0
 70
   128
 71
     9
 72
   -10
 73
     5
  0
VERTEX
  5
1E59
  8
0
 10
0.0
 20
0.0
 30
0.0
 70
   128
 71
     2
 72
    10
 73
    -9
  0
VERTEX
  5
1E5A
  8
0
 10
0.0
 20
0.0
 30
0.0
 70
   128
 71
     3
 72
    -2
 73
     9
  0
SEQEND
  5
224E
  8
0
  0
POLYLINE
  5
1E5B
  8
0
 66
     1
 10
0.0
 20
0.0
 30
0.0
 70
    64
 71
    13
 72
    11
  0
VERTEX
  5
1E5C
  8
0
 10
-262.0
 20
41.00000000000004
 30
-185.0
 70
   192
  0
VERTEX
  5
1E5D
  8
0
 10
-262.0
 20
59.99999999999999
 30
-185.0000000000001
 70
   192
  0
VERTEX
  5
1E5E
  8
0
 10
-373.6791979355699
 20
59.99999999999999
 30
-148.7132289312401
 70
   192
  0
VERTEX
  5
1E5F
  8
0
 10
-357.0
 20
41.00000000000004
 30
-159.5448267190434
 70
   192
  0
VERTEX
  5
1E60
  8
0
 10
-426.5448267190434
 20
41.00000000000004
 30
100.0000000000001
 70
   192
  0
VERTEX
  5
1E61
  8
0
 10
-452.0000000000001
 20
41.00000000000004
 30
5.000000000000029
 70
   192
  0
VERTEX
  5
1E62
  8
0
 10
-442.7007380960792
 20
60.00000000000001
 30
63.71322893123997
 70
   192
  0
VERTEX
  5
1E63
  8
0
 10
-262.0000000000001
 20
60.00000000000003
 30
195.0000000000001
 70
   192
  0
VERTEX
  5
1E64
  8
0
 10
-262.0
 20
41.00000000000004
 30
195.0000000000001
 70
   192
  0
VERTEX
  5
1E65
  8
0
 10
-357.0000000000001
 20
41.00000000000004
 30
169.5448267190434
 70
   192
  0
VERTEX
  5
1E66
  8
0
 10
-373.67919793557
 20
60.00000000000002
 30
158.71322893124
 70
   192
  0
VERTEX
  5
1E67
  8
0
 10
-426.5448267190434
 20
41.00000000000004
 30
-90.00000000000003
 70
   192
  0
VERTEX
  5
1E68
  8
0
 10
-442.7007380960792
 20
60.0
 30
-53.7132289312401
 70
   192
  0
VERTEX
  5
1E69
  8
0
 10
0.0
 20
0.0
 30
0.0
 70
   128
 71
     1
 72
     2
 73
     3
  0
VERTEX
  5
1E6A
  8
0
 10
0.0
 20
0.0
 30
0.0
 70
   128
 71
     4
 72
     1
 73
     3
  0
VERTEX
  5
1E6B
  8
0
 10
0.0
 20
0.0
 30
0.0
 70
   128
 71
     5
 72
     6
 73
     7
  0
VERTEX
  5
1E6C
  8
0
 10
0.0
 20
0.0
 30
0.0
 70
   128
 71
     8
 72
     9
 73
    10
  0
VERTEX
  5
1E6D
  8
0
 10
0.0
 20
0.0
 30
0.0
 70
   128
 71
    11
 72
     8
 73
    10
  0
VERTEX
  5
1E6E
  8
0
 10
0.0
 20
0.0
 30
0.0
 70
   128
 71
     6
 72
    12
 73
    13
  0
VERTEX
  5
1E6F
  8
0
 10
0.0
 20
0.0
 30
0.0
 70
   128
 71
     7
 72
     6
 73
    13
  0
VERTEX
  5
1E70
  8
0
 10
0.0
 20
0.0
 30
0.0
 70
   128
 71
    12
 72
     4
 73
     3
  0
VERTEX
  5
1E71
  8
0
 10
0.0
 20
0.0
 30
0.0
 70
   128
 71
    13
 72
    12
 73
     3
  0
VERTEX
  5
1E72
  8
0
 10
0.0
 20
0.0
 30
0.0
 70
   128
 71
    10
 72
     5
 73
     7
  0
VERTEX
  5
1E73
  8
0
 10
0.0
 20
0.0
 30
0.0
 70
   128
 71
    11
 72
    10
 73
     7
  0
SEQEND
  5
224F
  8
0
  0
POLYLINE
  5
1E74
  8
0
 66
     1
 10
0.0
 20
0.0
 30
0.0
 70
    64
 71
    20
 72
    21
  0
VERTEX
  5
1E75
  8
0
 10
-242.5144284148502
 20
-90.00000000000028
 30
16.25000000000006
 70
   192
  0
VERTEX
  5
1E76
  8
0
 10
-239.5
 20
-90.00000000000028
 30
5.000000000000085
 70
   192
  0
VERTEX
  5
1E77
  8
0
 10
-162.4606449473009
 20
-69.07419109253343
 30
5.000000000000076
 70
   192
  0
VERTEX
  5
1E78
  8
0
 10
-153.0966266558003
 20
-29.69746042342888
 30
120.6085504270087
 70
   192
  0
VERTEX
  5
1E79
  8
0
 10
-262.0
 20
-60.84535824384292
 30
120.6085504270087
 70
   192
  0
VERTEX
  5
1E7A
  8
0
 10
-250.75
 20
-90.00000000000028
 30
24.48557158514991
 70
   192
  0
VERTEX
  5
1E7B
  8
0
 10
-262.0
 20
-90.00000000000028
 30
27.50000000000003
 70
   192
  0
VERTEX
  5
1E7C
  8
0
 10
-273.25
 20
-90.00000000000028
 30
24.48557158514989
 70
   192
  0
VERTEX
  5
1E7D
  8
0
 10
-370.9033733441997
 20
-29.69746042342885
 30
120.6085504270087
 70
   192
  0
VERTEX
  5
1E7E
  8
0
 10
-361.5393550526992
 20
-69.07419109253331
 30
5.000000000000064
 70
   192
  0
VERTEX
  5
1E7F
  8
0
 10
-281.4855715851498
 20
-90.00000000000028
 30
16.25000000000005
 70
   192
  0
VERTEX
  5
1E80
  8
0
 10
-284.5
 20
-90.00000000000026
 30
5.000000000000064
 70
   192
  0
VERTEX
  5
1E81
  8
0
 10
-474.0
 20
41.00000000000004
 30
5.000000000000052
 70
   192
  0
VERTEX
  5
1E82
  8
0
 10
-427.2067623398989
 20
-23.67878025019465
 30
5.000000000000064
 70
   192
  0
VERTEX
  5
1E83
  8
0
 10
-90.48839719251117
 20
41.00000000000004
 30
129.6104734860044
 70
   192
  0
VERTEX
  5
1E84
  8
0
 10
-196.4883971925112
 20
41.00000000000004
 30
206.6239814545726
 70
   192
  0
VERTEX
  5
1E85
  8
0
 10
-327.5116028074889
 20
41.00000000000004
 30
206.6239814545726
 70
   192
  0
VERTEX
  5
1E86
  8
0
 10
-96.79323766010108
 20
-23.67878025019465
 30
5.000000000000084
 70
   192
  0
VERTEX
  5
1E87
  8
0
 10
-49.99999999999997
 20
41.00000000000003
 30
5.00000000000009
 70
   192
  0
VERTEX
  5
1E88
  8
0
 10
-433.5116028074889
 20
41.00000000000004
 30
129.6104734860044
 70
   192
  0
VERTEX
  5
1E89
  8
0
 10
0.0
 20
0.0
 30
0.0
 70
   128
 71
     1
 72
     2
 73
     3
  0
VERTEX
  5
1E8A
  8
0
 10
0.0
 20
0.0
 30
0.0
 70
   128
 71
     3
 72
     4
 73
     5
  0
VERTEX
  5
1E8B
  8
0
 10
0.0
 20
0.0
 30
0.0
 70
   128
 71
     3
 72
     5
 73
     6
  0
VERTEX
  5
1E8C
  8
0
 10
0.0
 20
0.0
 30
0.0
 70
   128
 71
     3
 72
     6
 73
     1
  0
VERTEX
  5
1E8D
  8
0
 10
0.0
 20
0.0
 30
0.0
 70
   128
 71
     5
 72
     7
 73
     6
  0
VERTEX
  5
1E8E
  8
0
 10
0.0
 20
0.0
 30
0.0
 70
   128
 71
     8
 72
     7
 73
     5
  0
VERTEX
  5
1E8F
  8
0
 10
0.0
 20
0.0
 30
0.0
 70
   128
 71
     5
 72
     9
 73
    10
  0
VERTEX
  5
1E90
  8
0
 10
0.0
 20
0.0
 30
0.0
 70
   128
 71
     5
 72
    10
 73
    11
  0
VERTEX
  5
1E91
  8
0
 10
0.0
 20
0.0
 30
0.0
 70
   128
 71
     5
 72
    11
 73
     8
  0
VERTEX
  5
1E92
  8
0
 10
0.0
 20
0.0
 30
0.0
 70
   128
 71
    10
 72
    12
 73
    11
  0
VERTEX
  5
1E93
  8
0
 10
0.0
 20
0.0
 30
0.0
 70
   128
 71
     9
 72
    13
 73
    14
  0
VERTEX
  5
1E94
  8
0
 10
0.0
 20
0.0
 30
0.0
 70
   128
 71
    14
 72
    10
 73
     9
  0
VERTEX
  5
1E95
  8
0
 10
0.0
 20
0.0
 30
0.0
 70
   128
 71
     4
 72
    15
 73
    16
  0
VERTEX
  5
1E96
  8
0
 10
0.0
 20
0.0
 30
0.0
 70
   128
 71
    16
 72
     5
 73
     4
  0
VERTEX
  5
1E97
  8
0
 10
0.0
 20
0.0
 30
0.0
 70
   128
 71
    16
 72
    17
 73
     9
  0
VERTEX
  5
1E98
  8
0
 10
0.0
 20
0.0
 30
0.0
 70
   128
 71
    16
 72
     9
 73
     5
  0
VERTEX
  5
1E99
  8
0
 10
0.0
 20
0.0
 30
0.0
 70
   128
 71
     3
 72
    18
 73
     4
  0
VERTEX
  5
1E9A
  8
0
 10
0.0
 20
0.0
 30
0.0
 70
   128
 71
    15
 72
     4
 73
    18
  0
VERTEX
  5
1E9B
  8
0
 10
0.0
 20
0.0
 30
0.0
 70
   128
 71
    15
 72
    18
 73
    19
  0
VERTEX
  5
1E9C
  8
0
 10
0.0
 20
0.0
 30
0.0
 70
   128
 71
    13
 72
     9
 73
    17
  0
VERTEX
  5
1E9D
  8
0
 10
0.0
 20
0.0
 30
0.0
 70
   128
 71
    13
 72
    17
 73
    20
  0
SEQEND
  5
2250
  8
0
  0
POLYLINE
  5
1E9E
  8
0
 66
     1
 10
0.0
 20
0.0
 30
0.0
 70
    64
 71
    62
 72
    68
  0
VERTEX
  5
1E9F
  8
0
 10
470.0
 20
41.00000000000004
 30
-215.0
 70
   192
  0
VERTEX
  5
1EA0
  8
0
 10
-122.5000000000001
 20
41.00000000000004
 30
-215.0
 70
   192
  0
VERTEX
  5
1EA1
  8
0
 10
-127.0379165601593
 20
-32.51424827458017
 30
-215.0
 70
   192
  0
VERTEX
  5
1EA2
  8
0
 10
-129.5357696882908
 20
-37.83469066073509
 30
-215.0
 70
   192
  0
VERTEX
  5
1EA3
  8
0
 10
-135.0000000000001
 20
-39.9999999999999
 30
-215.0
 70
   192
  0
VERTEX
  5
1EA4
  8
0
 10
-140.4642303117093
 20
-37.8346906607351
 30
-215.0
 70
   192
  0
VERTEX
  5
1EA5
  8
0
 10
-142.9620834398407
 20
-32.51424827458018
 30
-215.0
 70
   192
  0
VERTEX
  5
1EA6
  8
0
 10
-147.5000000000001
 20
41.00000000000005
 30
-215.0
 70
   192
  0
VERTEX
  5
1EA7
  8
0
 10
-375.5000000000001
 20
41.00000000000004
 30
-215.0
 70
   192
  0
VERTEX
  5
1EA8
  8
0
 10
-380.0379165601593
 20
-32.51424827458021
 30
-215.0
 70
   192
  0
VERTEX
  5
1EA9
  8
0
 10
-382.5357696882908
 20
-37.83469066073515
 30
-215.0
 70
   192
  0
VERTEX
  5
1EAA
  8
0
 10
-388.0000000000001
 20
-39.99999999999996
 30
-215.0
 70
   192
  0
VERTEX
  5
1EAB
  8
0
 10
-393.4642303117093
 20
-37.83469066073514
 30
-215.0
 70
   192
  0
VERTEX
  5
1EAC
  8
0
 10
-395.9620834398408
 20
-32.5142482745802
 30
-215.0
 70
   192
  0
VERTEX
  5
1EAD
  8
0
 10
-400.5000000000001
 20
41.00000000000004
 30
-215.0
 70
   192
  0
VERTEX
  5
1EAE
  8
0
 10
-470.0000000000001
 20
41.00000000000004
 30
-215.0
 70
   192
  0
VERTEX
  5
1EAF
  8
0
 10
-465.0000000000001
 20
39.66025403784432
 30
-215.0
 70
   192
  0
VERTEX
  5
1EB0
  8
0
 10
-461.3397459621557
 20
35.99999999999995
 30
-215.0
 70
   192
  0
VERTEX
  5
1EB1
  8
0
 10
-460.0000000000001
 20
30.99999999999997
 30
-215.0
 70
   192
  0
VERTEX
  5
1EB2
  8
0
 10
-460.0
 20
-10.00000000000001
 30
-215.0
 70
   192
  0
VERTEX
  5
1EB3
  8
0
 10
-453.301270189222
 20
-35.00000000000003
 30
-215.0
 70
   192
  0
VERTEX
  5
1EB4
  8
0
 10
-435.0000000000001
 20
-53.30127018922194
 30
-215.0
 70
   192
  0
VERTEX
  5
1EB5
  8
0
 10
-410.0000000000001
 20
-60.0
 30
-215.0
 70
   192
  0
VERTEX
  5
1EB6
  8
0
 10
410.0
 20
-60.00000000000002
 30
-215.0
 70
   192
  0
VERTEX
  5
1EB7
  8
0
 10
435.0
 20
-53.30127018922193
 30
-215.0
 70
   192
  0
VERTEX
  5
1EB8
  8
0
 10
453.3012701892219
 20
-35.00000000000001
 30
-215.0
 70
   192
  0
VERTEX
  5
1EB9
  8
0
 10
460.0
 20
-10.00000000000002
 30
-215.0
 70
   192
  0
VERTEX
  5
1EBA
  8
0
 10
459.9999999999999
 20
30.99999999999998
 30
-215.0
 70
   192
  0
VERTEX
  5
1EBB
  8
0
 10
461.3397459621557
 20
35.99999999999999
 30
-215.0
 70
   192
  0
VERTEX
  5
1EBC
  8
0
 10
465.0000000000001
 20
39.66025403784437
 30
-215.0
 70
   192
  0
VERTEX
  5
1EBD
  8
0
 10
63.50000000000015
 20
4.999999999999994
 30
-215.0000000000005
 70
   192
  0
VERTEX
  5
1EBE
  8
0
 10
65.4038059222876
 20
9.596194077712568
 30
-215.0000000000005
 70
   192
  0
VERTEX
  5
1EBF
  8
0
 10
70.00000000000017
 20
11.50000000000001
 30
-215.0000000000005
 70
   192
  0
VERTEX
  5
1EC0
  8
0
 10
74.59619407771274
 20
9.596194077712568
 30
-215.0000000000005
 70
   192
  0
VERTEX
  5
1EC1
  8
0
 10
76.5000000000002
 20
4.999999999999994
 30
-215.0000000000005
 70
   192
  0
VERTEX
  5
1EC2
  8
0
 10
74.59619407771274
 20
0.4038059222874217
 30
-215.0000000000005
 70
   192
  0
VERTEX
  5
1EC3
  8
0
 10
70.00000000000017
 20
-1.500000000000026
 30
-215.0000000000005
 70
   192
  0
VERTEX
  5
1EC4
  8
0
 10
65.4038059222876
 20
0.40380592228742
 30
-215.0000000000005
 70
   192
  0
VERTEX
  5
1EC5
  8
0
 10
408.5000000000002
 20
4.999999999999994
 30
-215.0000000000005
 70
   192
  0
VERTEX
  5
1EC6
  8
0
 10
410.4038059222876
 20
9.596194077712557
 30
-215.0000000000005
 70
   192
  0
VERTEX
  5
1EC7
  8
0
 10
415.0000000000002
 20
11.5
 30
-215.0000000000005
 70
   192
  0
VERTEX
  5
1EC8
  8
0
 10
419.5961940777127
 20
9.596194077712557
 30
-215.0000000000005
 70
   192
  0
VERTEX
  5
1EC9
  8
0
 10
421.5000000000002
 20
4.999999999999994
 30
-215.0000000000005
 70
   192
  0
VERTEX
  5
1ECA
  8
0
 10
419.5961940777127
 20
0.4038059222874315
 30
-215.0000000000005
 70
   192
  0
VERTEX
  5
1ECB
  8
0
 10
415.0000000000002
 20
-1.500000000000012
 30
-215.0000000000005
 70
   192
  0
VERTEX
  5
1ECC
  8
0
 10
410.4038059222876
 20
0.4038059222874297
 30
-215.0000000000005
 70
   192
  0
VERTEX
  5
1ECD
  8
0
 10
-63.50000000000015
 20
4.999999999999993
 30
-215.0000000000005
 70
   192
  0
VERTEX
  5
1ECE
  8
0
 10
-65.4038059222876
 20
0.40380592228742
 30
-215.0000000000005
 70
   192
  0
VERTEX
  5
1ECF
  8
0
 10
-70.00000000000017
 20
-1.500000000000026
 30
-215.0000000000005
 70
   192
  0
VERTEX
  5
1ED0
  8
0
 10
-74.59619407771274
 20
0.4038059222874217
 30
-215.0000000000005
 70
   192
  0
VERTEX
  5
1ED1
  8
0
 10
-76.50000000000018
 20
4.999999999999995
 30
-215.0000000000005
 70
   192
  0
VERTEX
  5
1ED2
  8
0
 10
-74.59619407771274
 20
9.596194077712566
 30
-215.0000000000005
 70
   192
  0
VERTEX
  5
1ED3
  8
0
 10
-70.00000000000017
 20
11.50000000000001
 30
-215.0000000000005
 70
   192
  0
VERTEX
  5
1ED4
  8
0
 10
-65.4038059222876
 20
9.596194077712568
 30
-215.0000000000005
 70
   192
  0
VERTEX
  5
1ED5
  8
0
 10
-408.5000000000002
 20
4.999999999999993
 30
-215.0000000000005
 70
   192
  0
VERTEX
  5
1ED6
  8
0
 10
-410.4038059222876
 20
0.4038059222874297
 30
-215.0000000000005
 70
   192
  0
VERTEX
  5
1ED7
  8
0
 10
-415.0000000000002
 20
-1.500000000000012
 30
-215.0000000000005
 70
   192
  0
VERTEX
  5
1ED8
  8
0
 10
-419.5961940777127
 20
0.4038059222874315
 30
-215.0000000000005
 70
   192
  0
VERTEX
  5
1ED9
  8
0
 10
-421.5000000000002
 20
4.999999999999995
 30
-215.0000000000005
 70
   192
  0
VERTEX
  5
1EDA
  8
0
 10
-419.5961940777127
 20
9.596194077712557
 30
-215.0000000000005
 70
   192
  0
VERTEX
  5
1EDB
  8
0
 10
-415.0000000000002
 20
11.5
 30
-215.0000000000005
 70
   192
  0
VERTEX
  5
1EDC
  8
0
 10
-410.4038059222876
 20
9.596194077712557
 30
-215.0000000000005
 70
   192
  0
VERTEX
  5
1EDD
  8
0
 10
0.0
 20
0.0
 30
0.0
 70
   128
 71
     8
 72
     9
 73
   -10
  0
VERTEX
  5
1EDE
  8
0
 10
0.0
 20
0.0
 30
0.0
 70
   128
 71
    10
 72
   -11
 73
    -8
  0
VERTEX
  5
1EDF
  8
0
 10
0.0
 20
0.0
 30
0.0
 70
   128
 71
   -31
 72
    47
 73
   -48
  0
VERTEX
  5
1EE0
  8
0
 10
0.0
 20
0.0
 30
0.0
 70
   128
 71
    -3
 72
    37
 73
   -38
  0
VERTEX
  5
1EE1
  8
0
 10
0.0
 20
0.0
 30
0.0
 70
   128
 71
   -31
 72
   -48
 73
    -3
  0
VERTEX
  5
1EE2
  8
0
 10
0.0
 20
0.0
 30
0.0
 70
   128
 71
    38
 72
   -31
 73
    -3
  0
VERTEX
  5
1EE3
  8
0
 10
0.0
 20
0.0
 30
0.0
 70
   128
 71
    48
 72
   -49
 73
    -3
  0
VERTEX
  5
1EE4
  8
0
 10
0.0
 20
0.0
 30
0.0
 70
   128
 71
    49
 72
   -50
 73
    -3
  0
VERTEX
  5
1EE5
  8
0
 10
0.0
 20
0.0
 30
0.0
 70
   128
 71
   -51
 72
     2
 73
    -3
  0
VERTEX
  5
1EE6
  8
0
 10
0.0
 20
0.0
 30
0.0
 70
   128
 71
    50
 72
   -51
 73
    -3
  0
VERTEX
  5
1EE7
  8
0
 10
0.0
 20
0.0
 30
0.0
 70
   128
 71
    51
 72
   -52
 73
    -2
  0
VERTEX
  5
1EE8
  8
0
 10
0.0
 20
0.0
 30
0.0
 70
   128
 71
    52
 72
   -53
 73
    -2
  0
VERTEX
  5
1EE9
  8
0
 10
0.0
 20
0.0
 30
0.0
 70
   128
 71
    53
 72
   -54
 73
    -2
  0
VERTEX
  5
1EEA
  8
0
 10
0.0
 20
0.0
 30
0.0
 70
   128
 71
   -32
 72
    -2
 73
   -54
  0
VERTEX
  5
1EEB
  8
0
 10
0.0
 20
0.0
 30
0.0
 70
   128
 71
    31
 72
   -32
 73
   -54
  0
VERTEX
  5
1EEC
  8
0
 10
0.0
 20
0.0
 30
0.0
 70
   128
 71
    54
 72
   -47
 73
   -31
  0
VERTEX
  5
1EED
  8
0
 10
0.0
 20
0.0
 30
0.0
 70
   128
 71
    32
 72
   -33
 73
    -2
  0
VERTEX
  5
1EEE
  8
0
 10
0.0
 20
0.0
 30
0.0
 70
   128
 71
   -40
 72
    -2
 73
   -33
  0
VERTEX
  5
1EEF
  8
0
 10
0.0
 20
0.0
 30
0.0
 70
   128
 71
    33
 72
   -34
 73
   -40
  0
VERTEX
  5
1EF0
  8
0
 10
0.0
 20
0.0
 30
0.0
 70
   128
 71
   -35
 72
    39
 73
   -40
  0
VERTEX
  5
1EF1
  8
0
 10
0.0
 20
0.0
 30
0.0
 70
   128
 71
    34
 72
   -35
 73
   -40
  0
VERTEX
  5
1EF2
  8
0
 10
0.0
 20
0.0
 30
0.0
 70
   128
 71
    40
 72
   -41
 73
    -2
  0
VERTEX
  5
1EF3
  8
0
 10
0.0
 20
0.0
 30
0.0
 70
   128
 71
   -41
 72
   -28
 73
    -2
  0
VERTEX
  5
1EF4
  8
0
 10
0.0
 20
0.0
 30
0.0
 70
   128
 71
    41
 72
   -42
 73
   -28
  0
VERTEX
  5
1EF5
  8
0
 10
0.0
 20
0.0
 30
0.0
 70
   128
 71
   -43
 72
    27
 73
   -28
  0
VERTEX
  5
1EF6
  8
0
 10
0.0
 20
0.0
 30
0.0
 70
   128
 71
    42
 72
   -43
 73
   -28
  0
VERTEX
  5
1EF7
  8
0
 10
0.0
 20
0.0
 30
0.0
 70
   128
 71
    43
 72
   -44
 73
   -27
  0
VERTEX
  5
1EF8
  8
0
 10
0.0
 20
0.0
 30
0.0
 70
   128
 71
    25
 72
    26
 73
   -27
  0
VERTEX
  5
1EF9
  8
0
 10
0.0
 20
0.0
 30
0.0
 70
   128
 71
   -45
 72
   -25
 73
   -27
  0
VERTEX
  5
1EFA
  8
0
 10
0.0
 20
0.0
 30
0.0
 70
   128
 71
    44
 72
   -45
 73
   -27
  0
VERTEX
  5
1EFB
  8
0
 10
0.0
 20
0.0
 30
0.0
 70
   128
 71
   -46
 72
    24
 73
   -25
  0
VERTEX
  5
1EFC
  8
0
 10
0.0
 20
0.0
 30
0.0
 70
   128
 71
    45
 72
   -46
 73
   -25
  0
VERTEX
  5
1EFD
  8
0
 10
0.0
 20
0.0
 30
0.0
 70
   128
 71
    35
 72
   -36
 73
   -24
  0
VERTEX
  5
1EFE
  8
0
 10
0.0
 20
0.0
 30
0.0
 70
   128
 71
   -39
 72
   -35
 73
   -24
  0
VERTEX
  5
1EFF
  8
0
 10
0.0
 20
0.0
 30
0.0
 70
   128
 71
    46
 72
   -39
 73
   -24
  0
VERTEX
  5
1F00
  8
0
 10
0.0
 20
0.0
 30
0.0
 70
   128
 71
    36
 72
   -37
 73
   -24
  0
VERTEX
  5
1F01
  8
0
 10
0.0
 20
0.0
 30
0.0
 70
   128
 71
    28
 72
   -29
 73
    -2
  0
VERTEX
  5
1F02
  8
0
 10
0.0
 20
0.0
 30
0.0
 70
   128
 71
    29
 72
   -30
 73
    -2
  0
VERTEX
  5
1F03
  8
0
 10
0.0
 20
0.0
 30
0.0
 70
   128
 71
    30
 72
     1
 73
    -2
  0
VERTEX
  5
1F04
  8
0
 10
0.0
 20
0.0
 30
0.0
 70
   128
 71
     3
 72
    -4
 73
   -37
  0
VERTEX
  5
1F05
  8
0
 10
0.0
 20
0.0
 30
0.0
 70
   128
 71
     4
 72
    -5
 73
   -37
  0
VERTEX
  5
1F06
  8
0
 10
0.0
 20
0.0
 30
0.0
 70
   128
 71
   -24
 72
   -37
 73
    -5
  0
VERTEX
  5
1F07
  8
0
 10
0.0
 20
0.0
 30
0.0
 70
   128
 71
    -5
 72
    23
 73
   -24
  0
VERTEX
  5
1F08
  8
0
 10
0.0
 20
0.0
 30
0.0
 70
   128
 71
     5
 72
    -6
 73
   -23
  0
VERTEX
  5
1F09
  8
0
 10
0.0
 20
0.0
 30
0.0
 70
   128
 71
     6
 72
    -7
 73
   -23
  0
VERTEX
  5
1F0A
  8
0
 10
0.0
 20
0.0
 30
0.0
 70
   128
 71
    -8
 72
   -11
 73
   -23
  0
VERTEX
  5
1F0B
  8
0
 10
0.0
 20
0.0
 30
0.0
 70
   128
 71
     7
 72
    -8
 73
   -23
  0
VERTEX
  5
1F0C
  8
0
 10
0.0
 20
0.0
 30
0.0
 70
   128
 71
    11
 72
   -12
 73
   -23
  0
VERTEX
  5
1F0D
  8
0
 10
0.0
 20
0.0
 30
0.0
 70
   128
 71
    12
 72
   -13
 73
   -23
  0
VERTEX
  5
1F0E
  8
0
 10
0.0
 20
0.0
 30
0.0
 70
   128
 71
    13
 72
   -14
 73
   -23
  0
VERTEX
  5
1F0F
  8
0
 10
0.0
 20
0.0
 30
0.0
 70
   128
 71
    15
 72
    16
 73
   -17
  0
VERTEX
  5
1F10
  8
0
 10
0.0
 20
0.0
 30
0.0
 70
   128
 71
    17
 72
   -18
 73
   -15
  0
VERTEX
  5
1F11
  8
0
 10
0.0
 20
0.0
 30
0.0
 70
   128
 71
    18
 72
   -19
 73
   -15
  0
VERTEX
  5
1F12
  8
0
 10
0.0
 20
0.0
 30
0.0
 70
   128
 71
    14
 72
   -15
 73
   -55
  0
VERTEX
  5
1F13
  8
0
 10
0.0
 20
0.0
 30
0.0
 70
   128
 71
    55
 72
   -56
 73
   -14
  0
VERTEX
  5
1F14
  8
0
 10
0.0
 20
0.0
 30
0.0
 70
   128
 71
    22
 72
   -23
 73
   -14
  0
VERTEX
  5
1F15
  8
0
 10
0.0
 20
0.0
 30
0.0
 70
   128
 71
   -57
 72
   -22
 73
   -14
  0
VERTEX
  5
1F16
  8
0
 10
0.0
 20
0.0
 30
0.0
 70
   128
 71
    56
 72
   -57
 73
   -14
  0
VERTEX
  5
1F17
  8
0
 10
0.0
 20
0.0
 30
0.0
 70
   128
 71
    20
 72
    21
 73
   -22
  0
VERTEX
  5
1F18
  8
0
 10
0.0
 20
0.0
 30
0.0
 70
   128
 71
   -58
 72
   -20
 73
   -22
  0
VERTEX
  5
1F19
  8
0
 10
0.0
 20
0.0
 30
0.0
 70
   128
 71
    57
 72
   -58
 73
   -22
  0
VERTEX
  5
1F1A
  8
0
 10
0.0
 20
0.0
 30
0.0
 70
   128
 71
    58
 72
   -59
 73
   -20
  0
VERTEX
  5
1F1B
  8
0
 10
0.0
 20
0.0
 30
0.0
 70
   128
 71
   -60
 72
    19
 73
   -20
  0
VERTEX
  5
1F1C
  8
0
 10
0.0
 20
0.0
 30
0.0
 70
   128
 71
    59
 72
   -60
 73
   -20
  0
VERTEX
  5
1F1D
  8
0
 10
0.0
 20
0.0
 30
0.0
 70
   128
 71
   -60
 72
   -15
 73
   -19
  0
VERTEX
  5
1F1E
  8
0
 10
0.0
 20
0.0
 30
0.0
 70
   128
 71
    60
 72
   -61
 73
   -15
  0
VERTEX
  5
1F1F
  8
0
 10
0.0
 20
0.0
 30
0.0
 70
   128
 71
    61
 72
   -62
 73
   -15
  0
VERTEX
  5
1F20
  8
0
 10
0.0
 20
0.0
 30
0.0
 70
   128
 71
    62
 72
   -55
 73
   -15
  0
SEQEND
  5
2251
  8
0
  0
POLYLINE
  5
1F21
  8
0
 66
     1
 10
0.0
 20
0.0
 30
0.0
 70
    64
 71
    58
 72
    64
  0
VERTEX
  5
1F22
  8
0
 10
-497.5
 20
62.99999999999997
 30
-235.0
 70
   192
  0
VERTEX
  5
1F23
  8
0
 10
497.5
 20
62.99999999999997
 30
-235.0
 70
   192
  0
VERTEX
  5
1F24
  8
0
 10
498.7226041910272
 20
62.67432669217325
 30
-235.0
 70
   192
  0
VERTEX
  5
1F25
  8
0
 10
499.6806510477567
 20
61.69730676869314
 30
-235.0
 70
   192
  0
VERTEX
  5
1F26
  8
0
 10
500.0
 20
60.45049024320358
 30
-235.0
 70
   192
  0
VERTEX
  5
1F27
  8
0
 10
500.0
 20
40.99999999999998
 30
-235.0000000000002
 70
   192
  0
VERTEX
  5
1F28
  8
0
 10
470.0000000000001
 20
40.99999999999997
 30
-235.0000000000001
 70
   192
  0
VERTEX
  5
1F29
  8
0
 10
465.0000000000001
 20
39.66025403784437
 30
-235.0000000000002
 70
   192
  0
VERTEX
  5
1F2A
  8
0
 10
461.3397459621557
 20
35.99999999999999
 30
-235.0000000000002
 70
   192
  0
VERTEX
  5
1F2B
  8
0
 10
460.0000000000001
 20
30.99999999999998
 30
-235.0000000000003
 70
   192
  0
VERTEX
  5
1F2C
  8
0
 10
459.9999999999999
 20
-10.00000000000002
 30
-235.0000000000006
 70
   192
  0
VERTEX
  5
1F2D
  8
0
 10
453.3012701892219
 20
-35.00000000000004
 30
-235.0000000000009
 70
   192
  0
VERTEX
  5
1F2E
  8
0
 10
435.0
 20
-53.30127018922195
 30
-235.000000000001
 70
   192
  0
VERTEX
  5
1F2F
  8
0
 10
410.0
 20
-60.00000000000001
 30
-235.0000000000011
 70
   192
  0
VERTEX
  5
1F30
  8
0
 10
-410.0000000000001
 20
-60.00000000000002
 30
-235.0
 70
   192
  0
VERTEX
  5
1F31
  8
0
 10
-435.0000000000001
 20
-53.30127018922193
 30
-235.000000000001
 70
   192
  0
VERTEX
  5
1F32
  8
0
 10
-453.3012701892221
 20
-35.0
 30
-235.0000000000009
 70
   192
  0
VERTEX
  5
1F33
  8
0
 10
-460.0000000000001
 20
-10.00000000000001
 30
-235.0000000000006
 70
   192
  0
VERTEX
  5
1F34
  8
0
 10
-460.0000000000001
 20
30.99999999999997
 30
-235.0000000000003
 70
   192
  0
VERTEX
  5
1F35
  8
0
 10
-461.3397459621557
 20
35.99999999999995
 30
-235.0000000000002
 70
   192
  0
VERTEX
  5
1F36
  8
0
 10
-465.0000000000001
 20
39.66025403784432
 30
-235.0000000000002
 70
   192
  0
VERTEX
  5
1F37
  8
0
 10
-470.0000000000001
 20
40.99999999999993
 30
-235.0000000000002
 70
   192
  0
VERTEX
  5
1F38
  8
0
 10
-500.0
 20
40.99999999999997
 30
-235.0000000000001
 70
   192
  0
VERTEX
  5
1F39
  8
0
 10
-500.0
 20
60.45049024320358
 30
-235.0
 70
   192
  0
VERTEX
  5
1F3A
  8
0
 10
-499.6806510477568
 20
61.69730676869316
 30
-235.0
 70
   192
  0
VERTEX
  5
1F3B
  8
0
 10
-498.7226041910271
 20
62.67432669217327
 30
-234.9999999999999
 70
   192
  0
VERTEX
  5
1F3C
  8
0
 10
76.5000000000002
 20
4.999999999999994
 30
-235.0000000000005
 70
   192
  0
VERTEX
  5
1F3D
  8
0
 10
74.59619407771274
 20
9.596194077712568
 30
-235.0000000000005
 70
   192
  0
VERTEX
  5
1F3E
  8
0
 10
70.00000000000017
 20
11.50000000000001
 30
-235.0000000000005
 70
   192
  0
VERTEX
  5
1F3F
  8
0
 10
65.4038059222876
 20
9.596194077712568
 30
-235.0000000000005
 70
   192
  0
VERTEX
  5
1F40
  8
0
 10
63.50000000000015
 20
4.999999999999994
 30
-235.0000000000005
 70
   192
  0
VERTEX
  5
1F41
  8
0
 10
65.4038059222876
 20
0.40380592228742
 30
-235.0000000000005
 70
   192
  0
VERTEX
  5
1F42
  8
0
 10
70.00000000000017
 20
-1.500000000000026
 30
-235.0000000000005
 70
   192
  0
VERTEX
  5
1F43
  8
0
 10
74.59619407771274
 20
0.4038059222874217
 30
-235.0000000000005
 70
   192
  0
VERTEX
  5
1F44
  8
0
 10
421.5000000000002
 20
4.999999999999994
 30
-235.0000000000005
 70
   192
  0
VERTEX
  5
1F45
  8
0
 10
419.5961940777127
 20
9.596194077712557
 30
-235.0000000000005
 70
   192
  0
VERTEX
  5
1F46
  8
0
 10
415.0000000000002
 20
11.5
 30
-235.0000000000005
 70
   192
  0
VERTEX
  5
1F47
  8
0
 10
410.4038059222876
 20
9.596194077712557
 30
-235.0000000000005
 70
   192
  0
VERTEX
  5
1F48
  8
0
 10
408.5000000000002
 20
4.999999999999994
 30
-235.0000000000005
 70
   192
  0
VERTEX
  5
1F49
  8
0
 10
410.4038059222876
 20
0.4038059222874297
 30
-235.0000000000005
 70
   192
  0
VERTEX
  5
1F4A
  8
0
 10
415.0000000000002
 20
-1.500000000000012
 30
-235.0000000000005
 70
   192
  0
VERTEX
  5
1F4B
  8
0
 10
419.5961940777127
 20
0.4038059222874315
 30
-235.0000000000005
 70
   192
  0
VERTEX
  5
1F4C
  8
0
 10
-76.50000000000018
 20
4.999999999999995
 30
-235.0000000000005
 70
   192
  0
VERTEX
  5
1F4D
  8
0
 10
-74.59619407771274
 20
0.4038059222874217
 30
-235.0000000000005
 70
   192
  0
VERTEX
  5
1F4E
  8
0
 10
-70.00000000000017
 20
-1.500000000000026
 30
-235.0000000000005
 70
   192
  0
VERTEX
  5
1F4F
  8
0
 10
-65.4038059222876
 20
0.40380592228742
 30
-235.0000000000005
 70
   192
  0
VERTEX
  5
1F50
  8
0
 10
-63.50000000000015
 20
4.999999999999993
 30
-235.0000000000005
 70
   192
  0
VERTEX
  5
1F51
  8
0
 10
-65.4038059222876
 20
9.596194077712568
 30
-235.0000000000005
 70
   192
  0
VERTEX
  5
1F52
  8
0
 10
-70.00000000000017
 20
11.50000000000001
 30
-235.0000000000005
 70
   192
  0
VERTEX
  5
1F53
  8
0
 10
-74.59619407771274
 20
9.596194077712566
 30
-235.0000000000005
 70
   192
  0
VERTEX
  5
1F54
  8
0
 10
-421.5000000000002
 20
4.999999999999995
 30
-235.0000000000005
 70
   192
  0
VERTEX
  5
1F55
  8
0
 10
-419.5961940777127
 20
0.4038059222874315
 30
-235.0000000000005
 70
   192
  0
VERTEX
  5
1F56
  8
0
 10
-415.0000000000002
 20
-1.500000000000012
 30
-235.0000000000005
 70
   192
  0
VERTEX
  5
1F57
  8
0
 10
-410.4038059222876
 20
0.4038059222874297
 30
-235.0000000000005
 70
   192
  0
VERTEX
  5
1F58
  8
0
 10
-408.5000000000002
 20
4.999999999999993
 30
-235.0000000000005
 70
   192
  0
VERTEX
  5
1F59
  8
0
 10
-410.4038059222876
 20
9.596194077712557
 30
-235.0000000000005
 70
   192
  0
VERTEX
  5
1F5A
  8
0
 10
-415.0000000000002
 20
11.5
 30
-235.0000000000005
 70
   192
  0
VERTEX
  5
1F5B
  8
0
 10
-419.5961940777127
 20
9.596194077712557
 30
-235.0000000000005
 70
   192
  0
VERTEX
  5
1F5C
  8
0
 10
0.0
 20
0.0
 30
0.0
 70
   128
 71
   -27
 72
    39
 73
   -40
  0
VERTEX
  5
1F5D
  8
0
 10
0.0
 20
0.0
 30
0.0
 70
   128
 71
    34
 72
   -27
 73
   -40
  0
VERTEX
  5
1F5E
  8
0
 10
0.0
 20
0.0
 30
0.0
 70
   128
 71
   -14
 72
   -34
 73
   -40
  0
VERTEX
  5
1F5F
  8
0
 10
0.0
 20
0.0
 30
0.0
 70
   128
 71
   -41
 72
    13
 73
   -14
  0
VERTEX
  5
1F60
  8
0
 10
0.0
 20
0.0
 30
0.0
 70
   128
 71
    40
 72
   -41
 73
   -14
  0
VERTEX
  5
1F61
  8
0
 10
0.0
 20
0.0
 30
0.0
 70
   128
 71
    11
 72
    12
 73
   -13
  0
VERTEX
  5
1F62
  8
0
 10
0.0
 20
0.0
 30
0.0
 70
   128
 71
   -42
 72
   -11
 73
   -13
  0
VERTEX
  5
1F63
  8
0
 10
0.0
 20
0.0
 30
0.0
 70
   128
 71
    41
 72
   -42
 73
   -13
  0
VERTEX
  5
1F64
  8
0
 10
0.0
 20
0.0
 30
0.0
 70
   128
 71
    42
 72
   -35
 73
   -11
  0
VERTEX
  5
1F65
  8
0
 10
0.0
 20
0.0
 30
0.0
 70
   128
 71
     5
 72
     6
 73
    -7
  0
VERTEX
  5
1F66
  8
0
 10
0.0
 20
0.0
 30
0.0
 70
   128
 71
     4
 72
    -5
 73
    -7
  0
VERTEX
  5
1F67
  8
0
 10
0.0
 20
0.0
 30
0.0
 70
   128
 71
     3
 72
    -4
 73
    -7
  0
VERTEX
  5
1F68
  8
0
 10
0.0
 20
0.0
 30
0.0
 70
   128
 71
     2
 72
    -3
 73
    -7
  0
VERTEX
  5
1F69
  8
0
 10
0.0
 20
0.0
 30
0.0
 70
   128
 71
     7
 72
    -8
 73
    -2
  0
VERTEX
  5
1F6A
  8
0
 10
0.0
 20
0.0
 30
0.0
 70
   128
 71
   -36
 72
    -2
 73
    -8
  0
VERTEX
  5
1F6B
  8
0
 10
0.0
 20
0.0
 30
0.0
 70
   128
 71
     8
 72
    -9
 73
   -36
  0
VERTEX
  5
1F6C
  8
0
 10
0.0
 20
0.0
 30
0.0
 70
   128
 71
     9
 72
   -10
 73
   -36
  0
VERTEX
  5
1F6D
  8
0
 10
0.0
 20
0.0
 30
0.0
 70
   128
 71
   -11
 72
    35
 73
   -36
  0
VERTEX
  5
1F6E
  8
0
 10
0.0
 20
0.0
 30
0.0
 70
   128
 71
    10
 72
   -11
 73
   -36
  0
VERTEX
  5
1F6F
  8
0
 10
0.0
 20
0.0
 30
0.0
 70
   128
 71
    36
 72
   -37
 73
    -2
  0
VERTEX
  5
1F70
  8
0
 10
0.0
 20
0.0
 30
0.0
 70
   128
 71
    37
 72
   -38
 73
    -2
  0
VERTEX
  5
1F71
  8
0
 10
0.0
 20
0.0
 30
0.0
 70
   128
 71
   -28
 72
    -2
 73
   -38
  0
VERTEX
  5
1F72
  8
0
 10
0.0
 20
0.0
 30
0.0
 70
   128
 71
    27
 72
   -28
 73
   -38
  0
VERTEX
  5
1F73
  8
0
 10
0.0
 20
0.0
 30
0.0
 70
   128
 71
    38
 72
   -39
 73
   -27
  0
VERTEX
  5
1F74
  8
0
 10
0.0
 20
0.0
 30
0.0
 70
   128
 71
    28
 72
   -29
 73
    -2
  0
VERTEX
  5
1F75
  8
0
 10
0.0
 20
0.0
 30
0.0
 70
   128
 71
     1
 72
    -2
 73
   -29
  0
VERTEX
  5
1F76
  8
0
 10
0.0
 20
0.0
 30
0.0
 70
   128
 71
    29
 72
   -30
 73
    -1
  0
VERTEX
  5
1F77
  8
0
 10
0.0
 20
0.0
 30
0.0
 70
   128
 71
    30
 72
   -31
 73
    -1
  0
VERTEX
  5
1F78
  8
0
 10
0.0
 20
0.0
 30
0.0
 70
   128
 71
    31
 72
   -32
 73
    -1
  0
VERTEX
  5
1F79
  8
0
 10
0.0
 20
0.0
 30
0.0
 70
   128
 71
    32
 72
   -33
 73
    -1
  0
VERTEX
  5
1F7A
  8
0
 10
0.0
 20
0.0
 30
0.0
 70
   128
 71
   -43
 72
    55
 73
   -56
  0
VERTEX
  5
1F7B
  8
0
 10
0.0
 20
0.0
 30
0.0
 70
   128
 71
    50
 72
   -43
 73
   -56
  0
VERTEX
  5
1F7C
  8
0
 10
0.0
 20
0.0
 30
0.0
 70
   128
 71
    56
 72
   -57
 73
   -50
  0
VERTEX
  5
1F7D
  8
0
 10
0.0
 20
0.0
 30
0.0
 70
   128
 71
   -57
 72
   -19
 73
   -50
  0
VERTEX
  5
1F7E
  8
0
 10
0.0
 20
0.0
 30
0.0
 70
   128
 71
    57
 72
   -58
 73
   -19
  0
VERTEX
  5
1F7F
  8
0
 10
0.0
 20
0.0
 30
0.0
 70
   128
 71
   -51
 72
    18
 73
   -19
  0
VERTEX
  5
1F80
  8
0
 10
0.0
 20
0.0
 30
0.0
 70
   128
 71
    58
 72
   -51
 73
   -19
  0
VERTEX
  5
1F81
  8
0
 10
0.0
 20
0.0
 30
0.0
 70
   128
 71
    51
 72
   -52
 73
   -18
  0
VERTEX
  5
1F82
  8
0
 10
0.0
 20
0.0
 30
0.0
 70
   128
 71
    16
 72
    17
 73
   -18
  0
VERTEX
  5
1F83
  8
0
 10
0.0
 20
0.0
 30
0.0
 70
   128
 71
   -53
 72
   -16
 73
   -18
  0
VERTEX
  5
1F84
  8
0
 10
0.0
 20
0.0
 30
0.0
 70
   128
 71
    52
 72
   -53
 73
   -18
  0
VERTEX
  5
1F85
  8
0
 10
0.0
 20
0.0
 30
0.0
 70
   128
 71
   -54
 72
    15
 73
   -16
  0
VERTEX
  5
1F86
  8
0
 10
0.0
 20
0.0
 30
0.0
 70
   128
 71
    53
 72
   -54
 73
   -16
  0
VERTEX
  5
1F87
  8
0
 10
0.0
 20
0.0
 30
0.0
 70
   128
 71
    43
 72
   -44
 73
   -15
  0
VERTEX
  5
1F88
  8
0
 10
0.0
 20
0.0
 30
0.0
 70
   128
 71
   -55
 72
   -43
 73
   -15
  0
VERTEX
  5
1F89
  8
0
 10
0.0
 20
0.0
 30
0.0
 70
   128
 71
    54
 72
   -55
 73
   -15
  0
VERTEX
  5
1F8A
  8
0
 10
0.0
 20
0.0
 30
0.0
 70
   128
 71
    44
 72
   -45
 73
   -15
  0
VERTEX
  5
1F8B
  8
0
 10
0.0
 20
0.0
 30
0.0
 70
   128
 71
    14
 72
   -15
 73
   -45
  0
VERTEX
  5
1F8C
  8
0
 10
0.0
 20
0.0
 30
0.0
 70
   128
 71
    45
 72
   -46
 73
   -14
  0
VERTEX
  5
1F8D
  8
0
 10
0.0
 20
0.0
 30
0.0
 70
   128
 71
   -47
 72
   -33
 73
   -14
  0
VERTEX
  5
1F8E
  8
0
 10
0.0
 20
0.0
 30
0.0
 70
   128
 71
    46
 72
   -47
 73
   -14
  0
VERTEX
  5
1F8F
  8
0
 10
0.0
 20
0.0
 30
0.0
 70
   128
 71
    47
 72
   -48
 73
   -33
  0
VERTEX
  5
1F90
  8
0
 10
0.0
 20
0.0
 30
0.0
 70
   128
 71
    48
 72
   -49
 73
   -33
  0
VERTEX
  5
1F91
  8
0
 10
0.0
 20
0.0
 30
0.0
 70
   128
 71
    -1
 72
   -33
 73
   -49
  0
VERTEX
  5
1F92
  8
0
 10
0.0
 20
0.0
 30
0.0
 70
   128
 71
    49
 72
   -50
 73
    -1
  0
VERTEX
  5
1F93
  8
0
 10
0.0
 20
0.0
 30
0.0
 70
   128
 71
    33
 72
   -34
 73
   -14
  0
VERTEX
  5
1F94
  8
0
 10
0.0
 20
0.0
 30
0.0
 70
   128
 71
    19
 72
   -20
 73
   -50
  0
VERTEX
  5
1F95
  8
0
 10
0.0
 20
0.0
 30
0.0
 70
   128
 71
    20
 72
   -21
 73
   -50
  0
VERTEX
  5
1F96
  8
0
 10
0.0
 20
0.0
 30
0.0
 70
   128
 71
   -21
 72
    -1
 73
   -50
  0
VERTEX
  5
1F97
  8
0
 10
0.0
 20
0.0
 30
0.0
 70
   128
 71
    21
 72
   -22
 73
    -1
  0
VERTEX
  5
1F98
  8
0
 10
0.0
 20
0.0
 30
0.0
 70
   128
 71
    25
 72
    26
 73
    -1
  0
VERTEX
  5
1F99
  8
0
 10
0.0
 20
0.0
 30
0.0
 70
   128
 71
    24
 72
   -25
 73
    -1
  0
VERTEX
  5
1F9A
  8
0
 10
0.0
 20
0.0
 30
0.0
 70
   128
 71
    23
 72
   -24
 73
    -1
  0
VERTEX
  5
1F9B
  8
0
 10
0.0
 20
0.0
 30
0.0
 70
   128
 71
    22
 72
   -23
 73
    -1
  0
SEQEND
  5
2252
  8
0
  0
POLYLINE
  5
1F9C
  8
0
 66
     1
 10
0.0
 20
0.0
 30
0.0
 70
    64
 71
    30
 72
    30
  0
VERTEX
  5
1F9D
  8
0
 10
-50.0
 20
41.00000000000004
 30
5.000000000000051
 70
   192
  0
VERTEX
  5
1F9E
  8
0
 10
-58.50433990857678
 20
41.00000000000004
 30
-54.44338755451215
 70
   192
  0
VERTEX
  5
1F9F
  8
0
 10
-83.33505965996164
 20
41.00000000000004
 30
-109.1176546082618
 70
   192
  0
VERTEX
  5
1FA0
  8
0
 10
-122.5000000000001
 20
41.00000000000004
 30
-154.636305394481
 70
   192
  0
VERTEX
  5
1FA1
  8
0
 10
-122.5000000000001
 20
41.00000000000006
 30
-215.0
 70
   192
  0
VERTEX
  5
1FA2
  8
0
 10
470.0
 20
41.00000000000004
 30
-215.0
 70
   192
  0
VERTEX
  5
1FA3
  8
0
 10
470.0000000000001
 20
40.99999999999997
 30
-235.0000000000001
 70
   192
  0
VERTEX
  5
1FA4
  8
0
 10
500.0
 20
40.99999999999997
 30
-235.0000000000001
 70
   192
  0
VERTEX
  5
1FA5
  8
0
 10
500.0
 20
41.00000000000004
 30
235.0
 70
   192
  0
VERTEX
  5
1FA6
  8
0
 10
-500.0
 20
41.00000000000004
 30
235.0
 70
   192
  0
VERTEX
  5
1FA7
  8
0
 10
-500.0
 20
41.00000000000004
 30
-235.0000000000001
 70
   192
  0
VERTEX
  5
1FA8
  8
0
 10
-470.0000000000001
 20
40.99999999999997
 30
-235.0000000000001
 70
   192
  0
VERTEX
  5
1FA9
  8
0
 10
-470.0000000000001
 20
40.99999999999997
 30
-215.0
 70
   192
  0
VERTEX
  5
1FAA
  8
0
 10
-400.5000000000001
 20
41.00000000000004
 30
-215.0
 70
   192
  0
VERTEX
  5
1FAB
  8
0
 10
-400.5000000000001
 20
41.00000000000003
 30
-155.5046728291733
 70
   192
  0
VERTEX
  5
1FAC
  8
0
 10
-440.1881128875609
 20
41.00000000000004
 30
-109.8607697413258
 70
   192
  0
VERTEX
  5
1FAD
  8
0
 10
-465.3714335054986
 20
41.00000000000004
 30
-54.86701958439679
 70
   192
  0
VERTEX
  5
1FAE
  8
0
 10
-474.0
 20
41.00000000000004
 30
5.000000000000103
 70
   192
  0
VERTEX
  5
1FAF
  8
0
 10
-433.5116028074889
 20
41.00000000000004
 30
129.6104734860044
 70
   192
  0
VERTEX
  5
1FB0
  8
0
 10
-327.5116028074889
 20
41.00000000000004
 30
206.6239814545726
 70
   192
  0
VERTEX
  5
1FB1
  8
0
 10
-196.4883971925112
 20
41.00000000000004
 30
206.6239814545726
 70
   192
  0
VERTEX
  5
1FB2
  8
0
 10
-90.48839719251117
 20
41.00000000000004
 30
129.6104734860044
 70
   192
  0
VERTEX
  5
1FB3
  8
0
 10
-89.99999999999953
 20
41.00000000000004
 30
-183.9999999999999
 70
   192
  0
VERTEX
  5
1FB4
  8
0
 10
-102.0208152801708
 20
41.00000000000004
 30
-179.0208152801712
 70
   192
  0
VERTEX
  5
1FB5
  8
0
 10
-106.9999999999995
 20
41.00000000000004
 30
-166.9999999999999
 70
   192
  0
VERTEX
  5
1FB6
  8
0
 10
-102.0208152801708
 20
41.00000000000004
 30
-154.9791847198287
 70
   192
  0
VERTEX
  5
1FB7
  8
0
 10
-89.99999999999953
 20
41.00000000000004
 30
-149.9999999999999
 70
   192
  0
VERTEX
  5
1FB8
  8
0
 10
-77.97918471982823
 20
41.00000000000004
 30
-154.9791847198287
 70
   192
  0
VERTEX
  5
1FB9
  8
0
 10
-72.99999999999955
 20
41.00000000000004
 30
-166.9999999999999
 70
   192
  0
VERTEX
  5
1FBA
  8
0
 10
-77.97918471982823
 20
41.00000000000004
 30
-179.0208152801712
 70
   192
  0
VERTEX
  5
1FBB
  8
0
 10
0.0
 20
0.0
 30
0.0
 70
   128
 71
    11
 72
    12
 73
   -13
  0
VERTEX
  5
1FBC
  8
0
 10
0.0
 20
0.0
 30
0.0
 70
   128
 71
   -16
 72
   -11
 73
   -13
  0
VERTEX
  5
1FBD
  8
0
 10
0.0
 20
0.0
 30
0.0
 70
   128
 71
    14
 72
    15
 73
   -16
  0
VERTEX
  5
1FBE
  8
0
 10
0.0
 20
0.0
 30
0.0
 70
   128
 71
    13
 72
   -14
 73
   -16
  0
VERTEX
  5
1FBF
  8
0
 10
0.0
 20
0.0
 30
0.0
 70
   128
 71
    16
 72
   -17
 73
   -11
  0
VERTEX
  5
1FC0
  8
0
 10
0.0
 20
0.0
 30
0.0
 70
   128
 71
    17
 72
   -18
 73
   -11
  0
VERTEX
  5
1FC1
  8
0
 10
0.0
 20
0.0
 30
0.0
 70
   128
 71
   -18
 72
    10
 73
   -11
  0
VERTEX
  5
1FC2
  8
0
 10
0.0
 20
0.0
 30
0.0
 70
   128
 71
    18
 72
   -19
 73
   -10
  0
VERTEX
  5
1FC3
  8
0
 10
0.0
 20
0.0
 30
0.0
 70
   128
 71
    19
 72
   -20
 73
   -10
  0
VERTEX
  5
1FC4
  8
0
 10
0.0
 20
0.0
 30
0.0
 70
   128
 71
    20
 72
   -21
 73
   -10
  0
VERTEX
  5
1FC5
  8
0
 10
0.0
 20
0.0
 30
0.0
 70
   128
 71
     9
 72
   -10
 73
   -21
  0
VERTEX
  5
1FC6
  8
0
 10
0.0
 20
0.0
 30
0.0
 70
   128
 71
    21
 72
   -22
 73
    -9
  0
VERTEX
  5
1FC7
  8
0
 10
0.0
 20
0.0
 30
0.0
 70
   128
 71
    22
 72
    -1
 73
    -6
  0
VERTEX
  5
1FC8
  8
0
 10
0.0
 20
0.0
 30
0.0
 70
   128
 71
    -9
 72
   -22
 73
    -6
  0
VERTEX
  5
1FC9
  8
0
 10
0.0
 20
0.0
 30
0.0
 70
   128
 71
    -6
 72
     8
 73
    -9
  0
VERTEX
  5
1FCA
  8
0
 10
0.0
 20
0.0
 30
0.0
 70
   128
 71
     6
 72
     7
 73
    -8
  0
VERTEX
  5
1FCB
  8
0
 10
0.0
 20
0.0
 30
0.0
 70
   128
 71
     1
 72
    -2
 73
    -6
  0
VERTEX
  5
1FCC
  8
0
 10
0.0
 20
0.0
 30
0.0
 70
   128
 71
     2
 72
    -3
 73
    -6
  0
VERTEX
  5
1FCD
  8
0
 10
0.0
 20
0.0
 30
0.0
 70
   128
 71
    -5
 72
    23
 73
   -24
  0
VERTEX
  5
1FCE
  8
0
 10
0.0
 20
0.0
 30
0.0
 70
   128
 71
   -24
 72
     4
 73
    -5
  0
VERTEX
  5
1FCF
  8
0
 10
0.0
 20
0.0
 30
0.0
 70
   128
 71
    24
 72
   -25
 73
    -4
  0
VERTEX
  5
1FD0
  8
0
 10
0.0
 20
0.0
 30
0.0
 70
   128
 71
    25
 72
   -26
 73
    -4
  0
VERTEX
  5
1FD1
  8
0
 10
0.0
 20
0.0
 30
0.0
 70
   128
 71
    26
 72
   -27
 73
    -4
  0
VERTEX
  5
1FD2
  8
0
 10
0.0
 20
0.0
 30
0.0
 70
   128
 71
     3
 72
    -4
 73
   -27
  0
VERTEX
  5
1FD3
  8
0
 10
0.0
 20
0.0
 30
0.0
 70
   128
 71
    27
 72
   -28
 73
    -3
  0
VERTEX
  5
1FD4
  8
0
 10
0.0
 20
0.0
 30
0.0
 70
   128
 71
    28
 72
   -29
 73
    -3
  0
VERTEX
  5
1FD5
  8
0
 10
0.0
 20
0.0
 30
0.0
 70
   128
 71
    -6
 72
    -3
 73
   -29
  0
VERTEX
  5
1FD6
  8
0
 10
0.0
 20
0.0
 30
0.0
 70
   128
 71
    29
 72
   -30
 73
    -6
  0
VERTEX
  5
1FD7
  8
0
 10
0.0
 20
0.0
 30
0.0
 70
   128
 71
   -30
 72
     5
 73
    -6
  0
VERTEX
  5
1FD8
  8
0
 10
0.0
 20
0.0
 30
0.0
 70
   128
 71
    30
 72
   -23
 73
    -5
  0
SEQEND
  5
2253
  8
0
  0
POLYLINE
  5
1FD9
  8
0
 66
     1
 10
0.0
 20
0.0
 30
0.0
 70
    64
 71
     6
 72
     4
  0
VERTEX
  5
1FDA
  8
0
 10
-375.5000000000001
 20
41.00000000000004
 30
-215.0
 70
   192
  0
VERTEX
  5
1FDB
  8
0
 10
-147.5000000000001
 20
41.00000000000004
 30
-215.0
 70
   192
  0
VERTEX
  5
1FDC
  8
0
 10
-147.5000000000001
 20
41.00000000000006
 30
-173.4201502073126
 70
   192
  0
VERTEX
  5
1FDD
  8
0
 10
-221.5356404341945
 20
41.00000000000004
 30
-203.1024641971574
 70
   192
  0
VERTEX
  5
1FDE
  8
0
 10
-301.2994544831677
 20
41.00000000000004
 30
-203.3255934284729
 70
   192
  0
VERTEX
  5
1FDF
  8
0
 10
-375.5
 20
41.00000000000004
 30
-174.057951512911
 70
   192
  0
VERTEX
  5
1FE0
  8
0
 10
0.0
 20
0.0
 30
0.0
 70
   128
 71
     2
 72
     3
 73
    -4
  0
VERTEX
  5
1FE1
  8
0
 10
0.0
 20
0.0
 30
0.0
 70
   128
 71
    -5
 72
     1
 73
    -2
  0
VERTEX
  5
1FE2
  8
0
 10
0.0
 20
0.0
 30
0.0
 70
   128
 71
     4
 72
    -5
 73
    -2
  0
VERTEX
  5
1FE3
  8
0
 10
0.0
 20
0.0
 30
0.0
 70
   128
 71
     5
 72
     6
 73
    -1
  0
SEQEND
  5
2254
  8
0
  0
POLYLINE
  5
1FE4
  8
0
 66
     1
 10
0.0
 20
0.0
 30
0.0
 70
    64
 71
    42
 72
    43
  0
VERTEX
  5
1FE5
  8
0
 10
-154.8890366118723
 20
-26.82035805323727
 30
-116.4500796279642
 70
   192
  0
VERTEX
  5
1FE6
  8
0
 10
-145.717248346479
 20
12.1194232129601
 30
-151.763311033243
 70
   192
  0
VERTEX
  5
1FE7
  8
0
 10
-144.1895416034166
 20
-12.62942602465148
 30
-125.4679659025373
 70
   192
  0
VERTEX
  5
1FE8
  8
0
 10
-142.9620834398407
 20
-32.51424827458021
 30
-95.31217387899457
 70
   192
  0
VERTEX
  5
1FE9
  8
0
 10
-140.0986658378413
 20
-38.15832027001537
 30
-80.64886063816421
 70
   192
  0
VERTEX
  5
1FEA
  8
0
 10
-250.75
 20
-90.00000000000028
 30
-14.48557158514977
 70
   192
  0
VERTEX
  5
1FEB
  8
0
 10
-262.0
 20
-90.00000000000028
 30
-17.4999999999999
 70
   192
  0
VERTEX
  5
1FEC
  8
0
 10
-262.0
 20
-57.45560139427567
 30
-116.4500796279642
 70
   192
  0
VERTEX
  5
1FED
  8
0
 10
-242.5144284148502
 20
-90.00000000000028
 30
-6.249999999999908
 70
   192
  0
VERTEX
  5
1FEE
  8
0
 10
-162.4606449473009
 20
-69.07419109253343
 30
5.000000000000076
 70
   192
  0
VERTEX
  5
1FEF
  8
0
 10
-239.5000000000002
 20
-90.00000000000028
 30
5.000000000000067
 70
   192
  0
VERTEX
  5
1FF0
  8
0
 10
-281.4855715851498
 20
-90.00000000000028
 30
-6.249999999999929
 70
   192
  0
VERTEX
  5
1FF1
  8
0
 10
-284.4999999999999
 20
-90.00000000000028
 30
5.00000000000006
 70
   192
  0
VERTEX
  5
1FF2
  8
0
 10
-361.5393550526992
 20
-69.07419109253331
 30
5.000000000000064
 70
   192
  0
VERTEX
  5
1FF3
  8
0
 10
-369.1109633881277
 20
-26.82035805323724
 30
-116.4500796279642
 70
   192
  0
VERTEX
  5
1FF4
  8
0
 10
-273.25
 20
-90.00000000000028
 30
-14.48557158514978
 70
   192
  0
VERTEX
  5
1FF5
  8
0
 10
-378.8067351197829
 20
-12.5691089404809
 30
-126.4397426926407
 70
   192
  0
VERTEX
  5
1FF6
  8
0
 10
-377.2792154082305
 20
12.17671038666745
 30
-152.5511044366192
 70
   192
  0
VERTEX
  5
1FF7
  8
0
 10
-382.8792252257655
 20
-38.13948704440663
 30
-82.12504295478949
 70
   192
  0
VERTEX
  5
1FF8
  8
0
 10
-380.0379165601593
 20
-32.5142482745802
 30
-96.48698468990969
 70
   192
  0
VERTEX
  5
1FF9
  8
0
 10
-427.2067623398989
 20
-23.67878025019465
 30
5.000000000000064
 70
   192
  0
VERTEX
  5
1FFA
  8
0
 10
-474.0
 20
41.00000000000003
 30
5.000000000000064
 70
   192
  0
VERTEX
  5
1FFB
  8
0
 10
-465.3714335054986
 20
41.00000000000004
 30
-54.86701958439679
 70
   192
  0
VERTEX
  5
1FFC
  8
0
 10
-440.1881128875609
 20
41.00000000000004
 30
-109.8607697413258
 70
   192
  0
VERTEX
  5
1FFD
  8
0
 10
-389.3851404413314
 20
-39.87893058139066
 30
-68.04147873199035
 70
   192
  0
VERTEX
  5
1FFE
  8
0
 10
-395.9620834398409
 20
-32.5142482745803
 30
-74.28882650014575
 70
   192
  0
VERTEX
  5
1FFF
  8
0
 10
-397.1311001955782
 20
-13.57617683163534
 30
-106.0909731046326
 70
   192
  0
VERTEX
  5
2000
  8
0
 10
-133.5881627629497
 20
-39.87407596610235
 30
-66.23360902992414
 70
   192
  0
VERTEX
  5
2001
  8
0
 10
-127.0379165601593
 20
-32.51424827458016
 30
-72.57444064181581
 70
   192
  0
VERTEX
  5
2002
  8
0
 10
-96.79323766010108
 20
-23.67878025019465
 30
5.000000000000084
 70
   192
  0
VERTEX
  5
2003
  8
0
 10
-125.8760833819456
 20
-13.69255078751797
 30
-104.70392204915
 70
   192
  0
VERTEX
  5
2004
  8
0
 10
-124.3429263738703
 20
11.1445927433022
 30
-132.4289190545735
 70
   192
  0
VERTEX
  5
2005
  8
0
 10
-83.33505965996164
 20
41.00000000000004
 30
-109.1176546082618
 70
   192
  0
VERTEX
  5
2006
  8
0
 10
-58.50433990857678
 20
41.00000000000004
 30
-54.44338755451215
 70
   192
  0
VERTEX
  5
2007
  8
0
 10
-50.0
 20
41.00000000000004
 30
5.000000000000051
 70
   192
  0
VERTEX
  5
2008
  8
0
 10
-122.5000000000001
 20
40.99999999999997
 30
-154.6363053944811
 70
   192
  0
VERTEX
  5
2009
  8
0
 10
-221.5356404341945
 20
41.00000000000004
 30
-203.1024641971574
 70
   192
  0
VERTEX
  5
200A
  8
0
 10
-147.5000000000001
 20
41.00000000000004
 30
-173.4201502073126
 70
   192
  0
VERTEX
  5
200B
  8
0
 10
-375.5000000000001
 20
41.00000000000009
 30
-174.057951512911
 70
   192
  0
VERTEX
  5
200C
  8
0
 10
-301.2994544831677
 20
41.00000000000004
 30
-203.3255934284729
 70
   192
  0
VERTEX
  5
200D
  8
0
 10
-400.5
 20
41.00000000000004
 30
-155.5046728291733
 70
   192
  0
VERTEX
  5
200E
  8
0
 10
-398.6638390363717
 20
11.2541923892198
 30
-133.5226546937824
 70
   192
  0
VERTEX
  5
200F
  8
0
 10
0.0
 20
0.0
 30
0.0
 70
   128
 71
     1
 72
     2
 73
     3
  0
VERTEX
  5
2010
  8
0
 10
0.0
 20
0.0
 30
0.0
 70
   128
 71
     1
 72
     4
 73
     5
  0
VERTEX
  5
2011
  8
0
 10
0.0
 20
0.0
 30
0.0
 70
   128
 71
     6
 72
     7
 73
     8
  0
VERTEX
  5
2012
  8
0
 10
0.0
 20
0.0
 30
0.0
 70
   128
 71
     8
 72
     9
 73
     6
  0
VERTEX
  5
2013
  8
0
 10
0.0
 20
0.0
 30
0.0
 70
   128
 71
    10
 72
    11
 73
     9
  0
VERTEX
  5
2014
  8
0
 10
0.0
 20
0.0
 30
0.0
 70
   128
 71
    12
 72
    13
 73
    14
  0
VERTEX
  5
2015
  8
0
 10
0.0
 20
0.0
 30
0.0
 70
   128
 71
    14
 72
    15
 73
     8
  0
VERTEX
  5
2016
  8
0
 10
0.0
 20
0.0
 30
0.0
 70
   128
 71
    14
 72
     8
 73
    16
  0
VERTEX
  5
2017
  8
0
 10
0.0
 20
0.0
 30
0.0
 70
   128
 71
    14
 72
    16
 73
    12
  0
VERTEX
  5
2018
  8
0
 10
0.0
 20
0.0
 30
0.0
 70
   128
 71
     8
 72
     7
 73
    16
  0
VERTEX
  5
2019
  8
0
 10
0.0
 20
0.0
 30
0.0
 70
   128
 71
    17
 72
    18
 73
    15
  0
VERTEX
  5
201A
  8
0
 10
0.0
 20
0.0
 30
0.0
 70
   128
 71
    15
 72
    19
 73
    20
  0
VERTEX
  5
201B
  8
0
 10
0.0
 20
0.0
 30
0.0
 70
   128
 71
    21
 72
    22
 73
    23
  0
VERTEX
  5
201C
  8
0
 10
0.0
 20
0.0
 30
0.0
 70
   128
 71
    21
 72
    23
 73
    24
  0
VERTEX
  5
201D
  8
0
 10
0.0
 20
0.0
 30
0.0
 70
   128
 71
    19
 72
    15
 73
    14
  0
VERTEX
  5
201E
  8
0
 10
0.0
 20
0.0
 30
0.0
 70
   128
 71
    14
 72
    25
 73
    19
  0
VERTEX
  5
201F
  8
0
 10
0.0
 20
0.0
 30
0.0
 70
   128
 71
    14
 72
    21
 73
    26
  0
VERTEX
  5
2020
  8
0
 10
0.0
 20
0.0
 30
0.0
 70
   128
 71
    14
 72
    26
 73
    25
  0
VERTEX
  5
2021
  8
0
 10
0.0
 20
0.0
 30
0.0
 70
   128
 71
    21
 72
    27
 73
    26
  0
VERTEX
  5
2022
  8
0
 10
0.0
 20
0.0
 30
0.0
 70
   128
 71
    28
 72
    29
 73
    30
  0
VERTEX
  5
2023
  8
0
 10
0.0
 20
0.0
 30
0.0
 70
   128
 71
    28
 72
    30
 73
    10
  0
VERTEX
  5
2024
  8
0
 10
0.0
 20
0.0
 30
0.0
 70
   128
 71
    28
 72
    10
 73
     9
  0
VERTEX
  5
2025
  8
0
 10
0.0
 20
0.0
 30
0.0
 70
   128
 71
     9
 72
     5
 73
    28
  0
VERTEX
  5
2026
  8
0
 10
0.0
 20
0.0
 30
0.0
 70
   128
 71
     9
 72
     8
 73
     1
  0
VERTEX
  5
2027
  8
0
 10
0.0
 20
0.0
 30
0.0
 70
   128
 71
     9
 72
     1
 73
     5
  0
VERTEX
  5
2028
  8
0
 10
0.0
 20
0.0
 30
0.0
 70
   128
 71
    29
 72
    31
 73
   -32
  0
VERTEX
  5
2029
  8
0
 10
0.0
 20
0.0
 30
0.0
 70
   128
 71
    29
 72
    33
 73
    34
  0
VERTEX
  5
202A
  8
0
 10
0.0
 20
0.0
 30
0.0
 70
   128
 71
    29
 72
    34
 73
    35
  0
VERTEX
  5
202B
  8
0
 10
0.0
 20
0.0
 30
0.0
 70
   128
 71
    29
 72
    35
 73
    30
  0
VERTEX
  5
202C
  8
0
 10
0.0
 20
0.0
 30
0.0
 70
   128
 71
   -29
 72
    32
 73
    36
  0
VERTEX
  5
202D
  8
0
 10
0.0
 20
0.0
 30
0.0
 70
   128
 71
    29
 72
    36
 73
    33
  0
VERTEX
  5
202E
  8
0
 10
0.0
 20
0.0
 30
0.0
 70
   128
 71
    37
 72
    38
 73
     2
  0
VERTEX
  5
202F
  8
0
 10
0.0
 20
0.0
 30
0.0
 70
   128
 71
     4
 72
     1
 73
     3
  0
VERTEX
  5
2030
  8
0
 10
0.0
 20
0.0
 30
0.0
 70
   128
 71
    18
 72
    39
 73
    40
  0
VERTEX
  5
2031
  8
0
 10
0.0
 20
0.0
 30
0.0
 70
   128
 71
     8
 72
    15
 73
    18
  0
VERTEX
  5
2032
  8
0
 10
0.0
 20
0.0
 30
0.0
 70
   128
 71
     8
 72
    18
 73
    40
  0
VERTEX
  5
2033
  8
0
 10
0.0
 20
0.0
 30
0.0
 70
   128
 71
    40
 72
    37
 73
     2
  0
VERTEX
  5
2034
  8
0
 10
0.0
 20
0.0
 30
0.0
 70
   128
 71
    40
 72
     2
 73
     1
  0
VERTEX
  5
2035
  8
0
 10
0.0
 20
0.0
 30
0.0
 70
   128
 71
    40
 72
     1
 73
     8
  0
VERTEX
  5
2036
  8
0
 10
0.0
 20
0.0
 30
0.0
 70
   128
 71
    17
 72
    15
 73
    20
  0
VERTEX
  5
2037
  8
0
 10
0.0
 20
0.0
 30
0.0
 70
   128
 71
    21
 72
    24
 73
    41
  0
VERTEX
  5
2038
  8
0
 10
0.0
 20
0.0
 30
0.0
 70
   128
 71
    21
 72
    41
 73
    42
  0
VERTEX
  5
2039
  8
0
 10
0.0
 20
0.0
 30
0.0
 70
   128
 71
    21
 72
    42
 73
    27
  0
SEQEND
  5
2255
  8
0
  0
POLYLINE
  5
203A
  8
0
 66
     1
 10
0.0
 20
0.0
 30
0.0
 70
    64
 71
     4
 72
     2
  0
VERTEX
  5
203B
  8
0
 10
-410.0000000000001
 20
-60.00000000000002
 30
-235.0
 70
   192
  0
VERTEX
  5
203C
  8
0
 10
410.0
 20
-60.00000000000002
 30
-235.0
 70
   192
  0
VERTEX
  5
203D
  8
0
 10
410.0
 20
-60.00000000000002
 30
-215.0
 70
   192
  0
VERTEX
  5
203E
  8
0
 10
-410.0000000000001
 20
-60.00000000000002
 30
-215.0
 70
   192
  0
VERTEX
  5
203F
  8
0
 10
0.0
 20
0.0
 30
0.0
 70
   128
 71
     3
 72
     4
 73
    -1
  0
VERTEX
  5
2040
  8
0
 10
0.0
 20
0.0
 30
0.0
 70
   128
 71
     2
 72
    -3
 73
     1
  0
SEQEND
  5
2256
  8
0
  0
POLYLINE
  5
2041
  8
0
 66
     1
 10
0.0
 20
0.0
 30
0.0
 70
    64
 71
    22
 72
    24
  0
VERTEX
  5
2042
  8
0
 10
-497.5
 20
60.00000000000004
 30
232.5
 70
   192
  0
VERTEX
  5
2043
  8
0
 10
497.5
 20
60.00000000000004
 30
232.5
 70
   192
  0
VERTEX
  5
2044
  8
0
 10
497.5000000000001
 20
59.99999999999998
 30
-220.0
 70
   192
  0
VERTEX
  5
2045
  8
0
 10
-497.5
 20
59.99999999999998
 30
-220.0
 70
   192
  0
VERTEX
  5
2046
  8
0
 10
-262.0
 20
59.99999999999999
 30
-185.0000000000001
 70
   192
  0
VERTEX
  5
2047
  8
0
 10
-150.3208020644301
 20
59.99999999999999
 30
-148.7132289312401
 70
   192
  0
VERTEX
  5
2048
  8
0
 10
-81.29926190392075
 20
60.0
 30
-53.71322893124005
 70
   192
  0
VERTEX
  5
2049
  8
0
 10
-81.29926190392075
 20
60.00000000000001
 30
63.71322893124
 70
   192
  0
VERTEX
  5
204A
  8
0
 10
-150.3208020644301
 20
60.00000000000002
 30
158.71322893124
 70
   192
  0
VERTEX
  5
204B
  8
0
 10
-262.0
 20
60.00000000000003
 30
195.0
 70
   192
  0
VERTEX
  5
204C
  8
0
 10
-373.67919793557
 20
60.00000000000002
 30
158.71322893124
 70
   192
  0
VERTEX
  5
204D
  8
0
 10
-442.7007380960792
 20
60.00000000000001
 30
63.71322893123997
 70
   192
  0
VERTEX
  5
204E
  8
0
 10
-442.7007380960792
 20
60.0
 30
-53.7132289312401
 70
   192
  0
VERTEX
  5
204F
  8
0
 10
-373.6791979355699
 20
59.99999999999999
 30
-148.7132289312401
 70
   192
  0
VERTEX
  5
2050
  8
0
 10
-89.99999999999953
 20
59.99999999999999
 30
-183.9999999999999
 70
   192
  0
VERTEX
  5
2051
  8
0
 10
-77.97918471982823
 20
59.99999999999999
 30
-179.0208152801712
 70
   192
  0
VERTEX
  5
2052
  8
0
 10
-72.99999999999955
 20
59.99999999999999
 30
-166.9999999999999
 70
   192
  0
VERTEX
  5
2053
  8
0
 10
-77.97918471982823
 20
59.99999999999999
 30
-154.9791847198287
 70
   192
  0
VERTEX
  5
2054
  8
0
 10
-89.99999999999953
 20
59.99999999999999
 30
-149.9999999999999
 70
   192
  0
VERTEX
  5
2055
  8
0
 10
-102.0208152801708
 20
59.99999999999999
 30
-154.9791847198287
 70
   192
  0
VERTEX
  5
2056
  8
0
 10
-106.9999999999995
 20
59.99999999999999
 30
-166.9999999999999
 70
   192
  0
VERTEX
  5
2057
  8
0
 10
-102.0208152801708
 20
59.99999999999999
 30
-179.0208152801712
 70
   192
  0
VERTEX
  5
2058
  8
0
 10
0.0
 20
0.0
 30
0.0
 70
   128
 71
   -15
 72
    -4
 73
    -5
  0
VERTEX
  5
2059
  8
0
 10
0.0
 20
0.0
 30
0.0
 70
   128
 71
     3
 72
    -4
 73
   -15
  0
VERTEX
  5
205A
  8
0
 10
0.0
 20
0.0
 30
0.0
 70
   128
 71
    15
 72
   -16
 73
    -3
  0
VERTEX
  5
205B
  8
0
 10
0.0
 20
0.0
 30
0.0
 70
   128
 71
    16
 72
   -17
 73
    -3
  0
VERTEX
  5
205C
  8
0
 10
0.0
 20
0.0
 30
0.0
 70
   128
 71
   -17
 72
    -7
 73
    -3
  0
VERTEX
  5
205D
  8
0
 10
0.0
 20
0.0
 30
0.0
 70
   128
 71
    17
 72
   -18
 73
    -7
  0
VERTEX
  5
205E
  8
0
 10
0.0
 20
0.0
 30
0.0
 70
   128
 71
    18
 72
   -19
 73
    -7
  0
VERTEX
  5
205F
  8
0
 10
0.0
 20
0.0
 30
0.0
 70
   128
 71
   -19
 72
     6
 73
    -7
  0
VERTEX
  5
2060
  8
0
 10
0.0
 20
0.0
 30
0.0
 70
   128
 71
    19
 72
   -20
 73
    -6
  0
VERTEX
  5
2061
  8
0
 10
0.0
 20
0.0
 30
0.0
 70
   128
 71
    20
 72
   -21
 73
    -6
  0
VERTEX
  5
2062
  8
0
 10
0.0
 20
0.0
 30
0.0
 70
   128
 71
   -22
 72
     5
 73
    -6
  0
VERTEX
  5
2063
  8
0
 10
0.0
 20
0.0
 30
0.0
 70
   128
 71
    21
 72
   -22
 73
    -6
  0
VERTEX
  5
2064
  8
0
 10
0.0
 20
0.0
 30
0.0
 70
   128
 71
    22
 72
   -15
 73
    -5
  0
VERTEX
  5
2065
  8
0
 10
0.0
 20
0.0
 30
0.0
 70
   128
 71
    -8
 72
     2
 73
    -3
  0
VERTEX
  5
2066
  8
0
 10
0.0
 20
0.0
 30
0.0
 70
   128
 71
     7
 72
    -8
 73
    -3
  0
VERTEX
  5
2067
  8
0
 10
0.0
 20
0.0
 30
0.0
 70
   128
 71
     8
 72
    -9
 73
    -2
  0
VERTEX
  5
2068
  8
0
 10
0.0
 20
0.0
 30
0.0
 70
   128
 71
     9
 72
   -10
 73
    -2
  0
VERTEX
  5
2069
  8
0
 10
0.0
 20
0.0
 30
0.0
 70
   128
 71
   -10
 72
     1
 73
    -2
  0
VERTEX
  5
206A
  8
0
 10
0.0
 20
0.0
 30
0.0
 70
   128
 71
    10
 72
   -11
 73
    -1
  0
VERTEX
  5
206B
  8
0
 10
0.0
 20
0.0
 30
0.0
 70
   128
 71
    11
 72
   -12
 73
    -1
  0
VERTEX
  5
206C
  8
0
 10
0.0
 20
0.0
 30
0.0
 70
   128
 71
   -13
 72
     4
 73
    -1
  0
VERTEX
  5
206D
  8
0
 10
0.0
 20
0.0
 30
0.0
 70
   128
 71
    12
 72
   -13
 73
    -1
  0
VERTEX
  5
206E
  8
0
 10
0.0
 20
0.0
 30
0.0
 70
   128
 71
    13
 72
   -14
 73
    -4
  0
VERTEX
  5
206F
  8
0
 10
0.0
 20
0.0
 30
0.0
 70
   128
 71
    14
 72
    -5
 73
    -4
  0
SEQEND
  5
2257
  8
0
  0
POLYLINE
  5
2070
  8
0
 66
     1
 10
0.0
 20
0.0
 30
0.0
 70
    64
 71
     4
 72
     2
  0
VERTEX
  5
2071
  8
0
 10
-497.5
 20
59.99999999999998
 30
-220.0
 70
   192
  0
VERTEX
  5
2072
  8
0
 10
497.5
 20
59.99999999999998
 30
-220.0
 70
   192
  0
VERTEX
  5
2073
  8
0
 10
497.5000000000001
 20
62.99999999999997
 30
-235.0
 70
   192
  0
VERTEX
  5
2074
  8
0
 10
-497.5
 20
62.99999999999997
 30
-235.0
 70
   192
  0
VERTEX
  5
2075
  8
0
 10
0.0
 20
0.0
 30
0.0
 70
   128
 71
     3
 72
     4
 73
    -1
  0
VERTEX
  5
2076
  8
0
 10
0.0
 20
0.0
 30
0.0
 70
   128
 71
     2
 72
    -3
 73
     1
  0
SEQEND
  5
2258
  8
0
  0
POLYLINE
  5
2077
  8
0
 66
     1
 10
0.0
 20
0.0
 30
0.0
 70
    64
 71
     4
 72
     2
  0
VERTEX
  5
2078
  8
0
 10
500.0
 20
41.00000000000004
 30
235.0
 70
   192
  0
VERTEX
  5
2079
  8
0
 10
500.0
 20
57.50000000000004
 30
235.0
 70
   192
  0
VERTEX
  5
207A
  8
0
 10
-500.0
 20
57.50000000000004
 30
235.0
 70
   192
  0
VERTEX
  5
207B
  8
0
 10
-500.0
 20
41.00000000000004
 30
235.0
 70
   192
  0
VERTEX
  5
207C
  8
0
 10
0.0
 20
0.0
 30
0.0
 70
   128
 71
     3
 72
     4
 73
    -1
  0
VERTEX
  5
207D
  8
0
 10
0.0
 20
0.0
 30
0.0
 70
   128
 71
     2
 72
    -3
 73
     1
  0
SEQEND
  5
2259
  8
0
  0
POLYLINE
  5
207E
  8
0
 66
     1
 10
0.0
 20
0.0
 30
0.0
 70
    64
 71
     5
 72
     3
  0
VERTEX
  5
207F
  8
0
 10
-500.0
 20
57.50000000000004
 30
235.0
 70
   192
  0
VERTEX
  5
2080
  8
0
 10
-500.0
 20
41.00000000000004
 30
235.0
 70
   192
  0
VERTEX
  5
2081
  8
0
 10
-500.0
 20
40.99999999999998
 30
-235.0
 70
   192
  0
VERTEX
  5
2082
  8
0
 10
-500.0
 20
60.45049024320359
 30
-235.0
 70
   192
  0
VERTEX
  5
2083
  8
0
 10
-500.0
 20
57.49999999999997
 30
-220.2475487839819
 70
   192
  0
VERTEX
  5
2084
  8
0
 10
0.0
 20
0.0
 30
0.0
 70
   128
 71
     5
 72
     4
 73
    -3
  0
VERTEX
  5
2085
  8
0
 10
0.0
 20
0.0
 30
0.0
 70
   128
 71
     3
 72
     2
 73
    -1
  0
VERTEX
  5
2086
  8
0
 10
0.0
 20
0.0
 30
0.0
 70
   128
 71
    -3
 72
     1
 73
    -5
  0
SEQEND
  5
225A
  8
0
  0
POLYLINE
  5
2087
  8
0
 66
     1
 10
0.0
 20
0.0
 30
0.0
 70
    64
 71
     5
 72
     3
  0
VERTEX
  5
2088
  8
0
 10
500.0
 20
40.99999999999998
 30
-235.0000000000002
 70
   192
  0
VERTEX
  5
2089
  8
0
 10
500.0
 20
60.45049024320358
 30
-235.0
 70
   192
  0
VERTEX
  5
208A
  8
0
 10
500.0
 20
57.49999999999997
 30
-220.2475487839819
 70
   192
  0
VERTEX
  5
208B
  8
0
 10
500.0
 20
57.50000000000003
 30
235.0
 70
   192
  0
VERTEX
  5
208C
  8
0
 10
500.0
 20
41.00000000000004
 30
235.0
 70
   192
  0
VERTEX
  5
208D
  8
0
 10
0.0
 20
0.0
 30
0.0
 70
   128
 71
     1
 72
     2
 73
    -3
  0
VERTEX
  5
208E
  8
0
 10
0.0
 20
0.0
 30
0.0
 70
   128
 71
     4
 72
     5
 73
    -1
  0
VERTEX
  5
208F
  8
0
 10
0.0
 20
0.0
 30
0.0
 70
   128
 71
     3
 72
    -4
 73
    -1
  0
SEQEND
  5
225B
  8
0
  0
POLYLINE
  5
2090
  8
0
 66
     1
 10
0.0
 20
0.0
 30
0.0
 70
    64
 71
     4
 72
     2
  0
VERTEX
  5
2091
  8
0
 10
460.0
 20
30.99999999999998
 30
-215.0
 70
   192
  0
VERTEX
  5
2092
  8
0
 10
460.0
 20
30.99999999999998
 30
-235.0000000000003
 70
   192
  0
VERTEX
  5
2093
  8
0
 10
459.9999999999999
 20
-10.00000000000002
 30
-235.0000000000006
 70
   192
  0
VERTEX
  5
2094
  8
0
 10
459.9999999999999
 20
-10.00000000000001
 30
-215.0
 70
   192
  0
VERTEX
  5
2095
  8
0
 10
0.0
 20
0.0
 30
0.0
 70
   128
 71
     1
 72
     4
 73
    -3
  0
VERTEX
  5
2096
  8
0
 10
0.0
 20
0.0
 30
0.0
 70
   128
 71
    -1
 72
     3
 73
     2
  0
SEQEND
  5
225C
  8
0
  0
POLYLINE
  5
2097
  8
0
 66
     1
 10
0.0
 20
0.0
 30
0.0
 70
    64
 71
     8
 72
     6
  0
VERTEX
  5
2098
  8
0
 10
453.3012701892219
 20
-35.00000000000004
 30
-235.0000000000009
 70
   192
  0
VERTEX
  5
2099
  8
0
 10
453.3012701892219
 20
-35.00000000000001
 30
-215.0
 70
   192
  0
VERTEX
  5
209A
  8
0
 10
435.0
 20
-53.30127018922193
 30
-215.0
 70
   192
  0
VERTEX
  5
209B
  8
0
 10
435.0
 20
-53.30127018922195
 30
-235.000000000001
 70
   192
  0
VERTEX
  5
209C
  8
0
 10
460.0
 20
-10.00000000000002
 30
-235.0000000000006
 70
   192
  0
VERTEX
  5
209D
  8
0
 10
459.9999999999999
 20
-10.00000000000002
 30
-215.0
 70
   192
  0
VERTEX
  5
209E
  8
0
 10
410.0
 20
-60.0
 30
-215.0
 70
   192
  0
VERTEX
  5
209F
  8
0
 10
410.0
 20
-60.00000000000002
 30
-235.0000000000011
 70
   192
  0
VERTEX
  5
20A0
  8
0
 10
0.0
 20
0.0
 30
0.0
 70
   128
 71
     1
 72
     2
 73
    -3
  0
VERTEX
  5
20A1
  8
0
 10
0.0
 20
0.0
 30
0.0
 70
   128
 71
    -1
 72
     3
 73
     4
  0
VERTEX
  5
20A2
  8
0
 10
0.0
 20
0.0
 30
0.0
 70
   128
 71
     5
 72
     6
 73
    -2
  0
VERTEX
  5
20A3
  8
0
 10
0.0
 20
0.0
 30
0.0
 70
   128
 71
    -5
 72
     2
 73
     1
  0
VERTEX
  5
20A4
  8
0
 10
0.0
 20
0.0
 30
0.0
 70
   128
 71
     4
 72
     3
 73
    -7
  0
VERTEX
  5
20A5
  8
0
 10
0.0
 20
0.0
 30
0.0
 70
   128
 71
    -4
 72
     7
 73
     8
  0
SEQEND
  5
225D
  8
0
  0
POLYLINE
  5
20A6
  8
0
 66
     1
 10
0.0
 20
0.0
 30
0.0
 70
    64
 71
     8
 72
     6
  0
VERTEX
  5
20A7
  8
0
 10
465.0000000000001
 20
39.66025403784437
 30
-215.0
 70
   192
  0
VERTEX
  5
20A8
  8
0
 10
461.3397459621557
 20
35.99999999999999
 30
-215.0
 70
   192
  0
VERTEX
  5
20A9
  8
0
 10
461.3397459621557
 20
35.99999999999999
 30
-235.0000000000002
 70
   192
  0
VERTEX
  5
20AA
  8
0
 10
465.0000000000001
 20
39.66025403784437
 30
-235.0000000000002
 70
   192
  0
VERTEX
  5
20AB
  8
0
 10
460.0000000000001
 20
30.99999999999998
 30
-215.0
 70
   192
  0
VERTEX
  5
20AC
  8
0
 10
460.0
 20
30.99999999999998
 30
-235.0000000000003
 70
   192
  0
VERTEX
  5
20AD
  8
0
 10
470.0000000000001
 20
40.99999999999999
 30
-215.0
 70
   192
  0
VERTEX
  5
20AE
  8
0
 10
470.0000000000001
 20
40.99999999999998
 30
-235.0000000000002
 70
   192
  0
VERTEX
  5
20AF
  8
0
 10
0.0
 20
0.0
 30
0.0
 70
   128
 71
     1
 72
     2
 73
    -3
  0
VERTEX
  5
20B0
  8
0
 10
0.0
 20
0.0
 30
0.0
 70
   128
 71
     4
 72
    -1
 73
     3
  0
VERTEX
  5
20B1
  8
0
 10
0.0
 20
0.0
 30
0.0
 70
   128
 71
     2
 72
     5
 73
    -6
  0
VERTEX
  5
20B2
  8
0
 10
0.0
 20
0.0
 30
0.0
 70
   128
 71
     3
 72
    -2
 73
     6
  0
VERTEX
  5
20B3
  8
0
 10
0.0
 20
0.0
 30
0.0
 70
   128
 71
     7
 72
     1
 73
    -4
  0
VERTEX
  5
20B4
  8
0
 10
0.0
 20
0.0
 30
0.0
 70
   128
 71
     8
 72
    -7
 73
     4
  0
SEQEND
  5
225E
  8
0
  0
POLYLINE
  5
20B5
  8
0
 66
     1
 10
0.0
 20
0.0
 30
0.0
 70
    64
 71
     8
 72
     6
  0
VERTEX
  5
20B6
  8
0
 10
-435.0000000000001
 20
-53.30127018922193
 30
-235.000000000001
 70
   192
  0
VERTEX
  5
20B7
  8
0
 10
-435.0000000000001
 20
-53.30127018922194
 30
-215.0
 70
   192
  0
VERTEX
  5
20B8
  8
0
 10
-453.301270189222
 20
-35.00000000000003
 30
-215.0
 70
   192
  0
VERTEX
  5
20B9
  8
0
 10
-453.3012701892221
 20
-35.0
 30
-235.0000000000009
 70
   192
  0
VERTEX
  5
20BA
  8
0
 10
-410.0000000000001
 20
-60.00000000000001
 30
-235.0000000000011
 70
   192
  0
VERTEX
  5
20BB
  8
0
 10
-410.0000000000001
 20
-60.00000000000002
 30
-215.0
 70
   192
  0
VERTEX
  5
20BC
  8
0
 10
-460.0000000000001
 20
-10.00000000000002
 30
-215.0
 70
   192
  0
VERTEX
  5
20BD
  8
0
 10
-460.0000000000001
 20
-10.00000000000002
 30
-235.0000000000006
 70
   192
  0
VERTEX
  5
20BE
  8
0
 10
0.0
 20
0.0
 30
0.0
 70
   128
 71
     1
 72
     2
 73
    -3
  0
VERTEX
  5
20BF
  8
0
 10
0.0
 20
0.0
 30
0.0
 70
   128
 71
    -1
 72
     3
 73
     4
  0
VERTEX
  5
20C0
  8
0
 10
0.0
 20
0.0
 30
0.0
 70
   128
 71
     5
 72
     6
 73
    -2
  0
VERTEX
  5
20C1
  8
0
 10
0.0
 20
0.0
 30
0.0
 70
   128
 71
    -5
 72
     2
 73
     1
  0
VERTEX
  5
20C2
  8
0
 10
0.0
 20
0.0
 30
0.0
 70
   128
 71
     4
 72
     3
 73
    -7
  0
VERTEX
  5
20C3
  8
0
 10
0.0
 20
0.0
 30
0.0
 70
   128
 71
    -4
 72
     7
 73
     8
  0
SEQEND
  5
225F
  8
0
  0
POLYLINE
  5
20C4
  8
0
 66
     1
 10
0.0
 20
0.0
 30
0.0
 70
    64
 71
     4
 72
     2
  0
VERTEX
  5
20C5
  8
0
 10
-460.0000000000001
 20
-10.00000000000002
 30
-215.0
 70
   192
  0
VERTEX
  5
20C6
  8
0
 10
-460.0000000000001
 20
-10.00000000000002
 30
-235.0000000000006
 70
   192
  0
VERTEX
  5
20C7
  8
0
 10
-460.0000000000001
 20
30.99999999999997
 30
-235.0000000000003
 70
   192
  0
VERTEX
  5
20C8
  8
0
 10
-460.0000000000001
 20
30.99999999999998
 30
-215.0
 70
   192
  0
VERTEX
  5
20C9
  8
0
 10
0.0
 20
0.0
 30
0.0
 70
   128
 71
     1
 72
     4
 73
    -3
  0
VERTEX
  5
20CA
  8
0
 10
0.0
 20
0.0
 30
0.0
 70
   128
 71
    -1
 72
     3
 73
     2
  0
SEQEND
  5
2260
  8
0
  0
POLYLINE
  5
20CB
  8
0
 66
     1
 10
0.0
 20
0.0
 30
0.0
 70
    64
 71
     8
 72
     6
  0
VERTEX
  5
20CC
  8
0
 10
-461.3397459621557
 20
35.99999999999995
 30
-215.0
 70
   192
  0
VERTEX
  5
20CD
  8
0
 10
-465.0000000000001
 20
39.66025403784432
 30
-215.0
 70
   192
  0
VERTEX
  5
20CE
  8
0
 10
-465.0000000000001
 20
39.66025403784432
 30
-235.0000000000002
 70
   192
  0
VERTEX
  5
20CF
  8
0
 10
-461.3397459621557
 20
35.99999999999995
 30
-235.0000000000002
 70
   192
  0
VERTEX
  5
20D0
  8
0
 10
-470.0000000000001
 20
40.99999999999993
 30
-215.0
 70
   192
  0
VERTEX
  5
20D1
  8
0
 10
-470.0000000000001
 20
40.99999999999997
 30
-235.0000000000001
 70
   192
  0
VERTEX
  5
20D2
  8
0
 10
-460.0000000000001
 20
30.99999999999997
 30
-215.0
 70
   192
  0
VERTEX
  5
20D3
  8
0
 10
-460.0000000000001
 20
30.99999999999997
 30
-235.0000000000003
 70
   192
  0
VERTEX
  5
20D4
  8
0
 10
0.0
 20
0.0
 30
0.0
 70
   128
 71
     1
 72
     2
 73
    -3
  0
VERTEX
  5
20D5
  8
0
 10
0.0
 20
0.0
 30
0.0
 70
   128
 71
     4
 72
    -1
 73
     3
  0
VERTEX
  5
20D6
  8
0
 10
0.0
 20
0.0
 30
0.0
 70
   128
 71
     2
 72
     5
 73
    -6
  0
VERTEX
  5
20D7
  8
0
 10
0.0
 20
0.0
 30
0.0
 70
   128
 71
     3
 72
    -2
 73
     6
  0
VERTEX
  5
20D8
  8
0
 10
0.0
 20
0.0
 30
0.0
 70
   128
 71
     7
 72
     1
 73
    -4
  0
VERTEX
  5
20D9
  8
0
 10
0.0
 20
0.0
 30
0.0
 70
   128
 71
     8
 72
    -7
 73
     4
  0
SEQEND
  5
2261
  8
0
  0
POLYLINE
  5
20DA
  8
0
 66
     1
 10
0.0
 20
0.0
 30
0.0
 70
    64
 71
    13
 72
    11
  0
VERTEX
  5
20DB
  8
0
 10
-262.0
 20
41.00000000000004
 30
195.0000000000001
 70
   192
  0
VERTEX
  5
20DC
  8
0
 10
-262.0
 20
60.00000000000003
 30
195.0000000000001
 70
   192
  0
VERTEX
  5
20DD
  8
0
 10
-150.3208020644301
 20
60.00000000000002
 30
158.71322893124
 70
   192
  0
VERTEX
  5
20DE
  8
0
 10
-167.0
 20
41.00000000000004
 30
169.5448267190435
 70
   192
  0
VERTEX
  5
20DF
  8
0
 10
-97.45517328095659
 20
41.00000000000004
 30
-89.99999999999994
 70
   192
  0
VERTEX
  5
20E0
  8
0
 10
-71.99999999999994
 20
41.00000000000004
 30
5.000000000000075
 70
   192
  0
VERTEX
  5
20E1
  8
0
 10
-81.29926190392075
 20
60.0
 30
-53.71322893124005
 70
   192
  0
VERTEX
  5
20E2
  8
0
 10
-262.0
 20
59.99999999999999
 30
-185.0000000000001
 70
   192
  0
VERTEX
  5
20E3
  8
0
 10
-262.0
 20
41.00000000000004
 30
-185.0000000000001
 70
   192
  0
VERTEX
  5
20E4
  8
0
 10
-166.9999999999999
 20
41.00000000000004
 30
-159.5448267190433
 70
   192
  0
VERTEX
  5
20E5
  8
0
 10
-150.3208020644301
 20
59.99999999999999
 30
-148.7132289312401
 70
   192
  0
VERTEX
  5
20E6
  8
0
 10
-97.45517328095661
 20
41.00000000000004
 30
100.0000000000001
 70
   192
  0
VERTEX
  5
20E7
  8
0
 10
-81.29926190392075
 20
60.00000000000001
 30
63.71322893124
 70
   192
  0
VERTEX
  5
20E8
  8
0
 10
0.0
 20
0.0
 30
0.0
 70
   128
 71
     1
 72
     2
 73
     3
  0
VERTEX
  5
20E9
  8
0
 10
0.0
 20
0.0
 30
0.0
 70
   128
 71
     4
 72
     1
 73
     3
  0
VERTEX
  5
20EA
  8
0
 10
0.0
 20
0.0
 30
0.0
 70
   128
 71
     5
 72
     6
 73
     7
  0
VERTEX
  5
20EB
  8
0
 10
0.0
 20
0.0
 30
0.0
 70
   128
 71
     8
 72
     9
 73
    10
  0
VERTEX
  5
20EC
  8
0
 10
0.0
 20
0.0
 30
0.0
 70
   128
 71
    11
 72
     8
 73
    10
  0
VERTEX
  5
20ED
  8
0
 10
0.0
 20
0.0
 30
0.0
 70
   128
 71
     6
 72
    12
 73
    13
  0
VERTEX
  5
20EE
  8
0
 10
0.0
 20
0.0
 30
0.0
 70
   128
 71
     7
 72
     6
 73
    13
  0
VERTEX
  5
20EF
  8
0
 10
0.0
 20
0.0
 30
0.0
 70
   128
 71
    12
 72
     4
 73
     3
  0
VERTEX
  5
20F0
  8
0
 10
0.0
 20
0.0
 30
0.0
 70
   128
 71
    13
 72
    12
 73
     3
  0
VERTEX
  5
20F1
  8
0
 10
0.0
 20
0.0
 30
0.0
 70
   128
 71
    10
 72
     5
 73
     7
  0
VERTEX
  5
20F2
  8
0
 10
0.0
 20
0.0
 30
0.0
 70
   128
 71
    11
 72
    10
 73
     7
  0
SEQEND
  5
2262
  8
0
  0
POLYLINE
  5
20F3
  8
0
 66
     1
 10
0.0
 20
0.0
 30
0.0
 70
    64
 71
    10
 72
     8
  0
VERTEX
  5
20F4
  8
0
 10
-89.99999999999953
 20
41.00000000000004
 30
-149.9999999999999
 70
   192
  0
VERTEX
  5
20F5
  8
0
 10
-89.99999999999953
 20
41.00000000000004
 30
-183.9999999999999
 70
   192
  0
VERTEX
  5
20F6
  8
0
 10
-89.99999999999953
 20
59.99999999999999
 30
-183.9999999999999
 70
   192
  0
VERTEX
  5
20F7
  8
0
 10
-89.99999999999953
 20
59.99999999999999
 30
-150.0
 70
   192
  0
VERTEX
  5
20F8
  8
0
 10
-72.99999999999955
 20
59.99999999999999
 30
-166.9999999999999
 70
   192
  0
VERTEX
  5
20F9
  8
0
 10
-72.99999999999955
 20
41.00000000000004
 30
-166.9999999999999
 70
   192
  0
VERTEX
  5
20FA
  8
0
 10
-77.97918471982823
 20
59.99999999999999
 30
-154.9791847198287
 70
   192
  0
VERTEX
  5
20FB
  8
0
 10
-77.97918471982823
 20
41.00000000000004
 30
-154.9791847198287
 70
   192
  0
VERTEX
  5
20FC
  8
0
 10
-77.97918471982823
 20
59.99999999999999
 30
-179.0208152801712
 70
   192
  0
VERTEX
  5
20FD
  8
0
 10
-77.97918471982823
 20
41.00000000000004
 30
-179.0208152801712
 70
   192
  0
VERTEX
  5
20FE
  8
0
 10
0.0
 20
0.0
 30
0.0
 70
   128
 71
     8
 72
     1
 73
    -4
  0
VERTEX
  5
20FF
  8
0
 10
0.0
 20
0.0
 30
0.0
 70
   128
 71
     7
 72
    -8
 73
     4
  0
VERTEX
  5
2100
  8
0
 10
0.0
 20
0.0
 30
0.0
 70
   128
 71
     6
 72
     8
 73
    -7
  0
VERTEX
  5
2101
  8
0
 10
0.0
 20
0.0
 30
0.0
 70
   128
 71
     5
 72
    -6
 73
     7
  0
VERTEX
  5
2102
  8
0
 10
0.0
 20
0.0
 30
0.0
 70
   128
 71
    10
 72
     6
 73
    -5
  0
VERTEX
  5
2103
  8
0
 10
0.0
 20
0.0
 30
0.0
 70
   128
 71
     9
 72
   -10
 73
     5
  0
VERTEX
  5
2104
  8
0
 10
0.0
 20
0.0
 30
0.0
 70
   128
 71
     3
 72
     2
 73
   -10
  0
VERTEX
  5
2105
  8
0
 10
0.0
 20
0.0
 30
0.0
 70
   128
 71
     9
 72
    -3
 73
    10
  0
SEQEND
  5
2263
  8
0
  0
POLYLINE
  5
2106
  8
0
 66
     1
 10
0.0
 20
0.0
 30
0.0
 70
    64
 71
    12
 72
    10
  0
VERTEX
  5
2107
  8
0
 10
-262.0
 20
-90.00000000000028
 30
27.50000000000003
 70
   192
  0
VERTEX
  5
2108
  8
0
 10
-262.0
 20
-76.07417109108872
 30
27.50000000000003
 70
   192
  0
VERTEX
  5
2109
  8
0
 10
-246.0900974233027
 20
-76.0741710910887
 30
20.90990257669736
 70
   192
  0
VERTEX
  5
210A
  8
0
 10
-250.75
 20
-90.00000000000028
 30
24.48557158514991
 70
   192
  0
VERTEX
  5
210B
  8
0
 10
-239.5
 20
-76.0741710910887
 30
5.000000000000064
 70
   192
  0
VERTEX
  5
210C
  8
0
 10
-239.5
 20
-90.00000000000028
 30
5.00000000000008
 70
   192
  0
VERTEX
  5
210D
  8
0
 10
-242.5144284148502
 20
-90.00000000000028
 30
16.25000000000006
 70
   192
  0
VERTEX
  5
210E
  8
0
 10
-246.0900974233027
 20
-76.0741710910887
 30
-10.90990257669723
 70
   192
  0
VERTEX
  5
210F
  8
0
 10
-242.5144284148502
 20
-90.00000000000028
 30
-6.249999999999908
 70
   192
  0
VERTEX
  5
2110
  8
0
 10
-262.0
 20
-76.07417109108872
 30
-17.4999999999999
 70
   192
  0
VERTEX
  5
2111
  8
0
 10
-262.0
 20
-90.00000000000028
 30
-17.4999999999999
 70
   192
  0
VERTEX
  5
2112
  8
0
 10
-250.75
 20
-90.00000000000028
 30
-14.48557158514977
 70
   192
  0
VERTEX
  5
2113
  8
0
 10
0.0
 20
0.0
 30
0.0
 70
   128
 71
     1
 72
     2
 73
     3
  0
VERTEX
  5
2114
  8
0
 10
0.0
 20
0.0
 30
0.0
 70
   128
 71
     4
 72
     1
 73
     3
  0
VERTEX
  5
2115
  8
0
 10
0.0
 20
0.0
 30
0.0
 70
   128
 71
     5
 72
     6
 73
     7
  0
VERTEX
  5
2116
  8
0
 10
0.0
 20
0.0
 30
0.0
 70
   128
 71
     3
 72
     5
 73
     7
  0
VERTEX
  5
2117
  8
0
 10
0.0
 20
0.0
 30
0.0
 70
   128
 71
     6
 72
     5
 73
     8
  0
VERTEX
  5
2118
  8
0
 10
0.0
 20
0.0
 30
0.0
 70
   128
 71
     9
 72
     6
 73
     8
  0
VERTEX
  5
2119
  8
0
 10
0.0
 20
0.0
 30
0.0
 70
   128
 71
    10
 72
    11
 73
    12
  0
VERTEX
  5
211A
  8
0
 10
0.0
 20
0.0
 30
0.0
 70
   128
 71
     8
 72
    10
 73
    12
  0
VERTEX
  5
211B
  8
0
 10
0.0
 20
0.0
 30
0.0
 70
   128
 71
     3
 72
     7
 73
     4
  0
VERTEX
  5
211C
  8
0
 10
0.0
 20
0.0
 30
0.0
 70
   128
 71
     8
 72
    12
 73
     9
  0
SEQEND
  5
2264
  8
0
  0
POLYLINE
  5
211D
  8
0
 66
     1
 10
0.0
 20
0.0
 30
0.0
 70
    64
 71
    12
 72
    10
  0
VERTEX
  5
211E
  8
0
 10
-262.0
 20
-76.0741710910887
 30
27.50000000000003
 70
   192
  0
VERTEX
  5
211F
  8
0
 10
-262.0
 20
-69.07417109108872
 30
37.6204195601883
 70
   192
  0
VERTEX
  5
2120
  8
0
 10
-245.6897902199059
 20
-69.07417109108872
 30
33.25011202122988
 70
   192
  0
VERTEX
  5
2121
  8
0
 10
-246.0900974233027
 20
-76.0741710910887
 30
20.90990257669736
 70
   192
  0
VERTEX
  5
2122
  8
0
 10
-229.3795804398118
 20
-69.07417109108872
 30
5.000000000000088
 70
   192
  0
VERTEX
  5
2123
  8
0
 10
-239.5
 20
-76.0741710910887
 30
5.000000000000064
 70
   192
  0
VERTEX
  5
2124
  8
0
 10
-233.7498879787702
 20
-69.07417109108872
 30
21.31020978009419
 70
   192
  0
VERTEX
  5
2125
  8
0
 10
-233.7498879787702
 20
-69.07417109108872
 30
-11.31020978009404
 70
   192
  0
VERTEX
  5
2126
  8
0
 10
-246.0900974233027
 20
-76.0741710910887
 30
-10.90990257669723
 70
   192
  0
VERTEX
  5
2127
  8
0
 10
-262.0
 20
-69.07417109108872
 30
-27.62041956018818
 70
   192
  0
VERTEX
  5
2128
  8
0
 10
-262.0
 20
-76.0741710910887
 30
-17.4999999999999
 70
   192
  0
VERTEX
  5
2129
  8
0
 10
-245.6897902199059
 20
-69.07417109108872
 30
-23.25011202122975
 70
   192
  0
VERTEX
  5
212A
  8
0
 10
0.0
 20
0.0
 30
0.0
 70
   128
 71
     1
 72
     2
 73
     3
  0
VERTEX
  5
212B
  8
0
 10
0.0
 20
0.0
 30
0.0
 70
   128
 71
     4
 72
     1
 73
     3
  0
VERTEX
  5
212C
  8
0
 10
0.0
 20
0.0
 30
0.0
 70
   128
 71
     5
 72
     6
 73
     4
  0
VERTEX
  5
212D
  8
0
 10
0.0
 20
0.0
 30
0.0
 70
   128
 71
     7
 72
     5
 73
     4
  0
VERTEX
  5
212E
  8
0
 10
0.0
 20
0.0
 30
0.0
 70
   128
 71
     6
 72
     5
 73
     8
  0
VERTEX
  5
212F
  8
0
 10
0.0
 20
0.0
 30
0.0
 70
   128
 71
     9
 72
     6
 73
     8
  0
VERTEX
  5
2130
  8
0
 10
0.0
 20
0.0
 30
0.0
 70
   128
 71
    10
 72
    11
 73
     9
  0
VERTEX
  5
2131
  8
0
 10
0.0
 20
0.0
 30
0.0
 70
   128
 71
    12
 72
    10
 73
     9
  0
VERTEX
  5
2132
  8
0
 10
0.0
 20
0.0
 30
0.0
 70
   128
 71
     7
 72
     4
 73
     3
  0
VERTEX
  5
2133
  8
0
 10
0.0
 20
0.0
 30
0.0
 70
   128
 71
    12
 72
     9
 73
     8
  0
SEQEND
  5
2265
  8
0
  0
POLYLINE
  5
2134
  8
0
 66
     1
 10
0.0
 20
0.0
 30
0.0
 70
    64
 71
    21
 72
    22
  0
VERTEX
  5
2135
  8
0
 10
-97.45517328095661
 20
41.00000000000004
 30
100.0000000000001
 70
   192
  0
VERTEX
  5
2136
  8
0
 10
-72.00000000000003
 20
41.0
 30
5.000000000000088
 70
   192
  0
VERTEX
  5
2137
  8
0
 10
-112.209405668537
 20
-11.42018226722777
 30
5.000000000000083
 70
   192
  0
VERTEX
  5
2138
  8
0
 10
-166.3472943191333
 20
-49.28521660765847
 30
5.000000000000075
 70
   192
  0
VERTEX
  5
2139
  8
0
 10
-229.3795804398119
 20
-69.07417109108869
 30
5.000000000000068
 70
   192
  0
VERTEX
  5
213A
  8
0
 10
-233.7498879787702
 20
-69.07417109108872
 30
21.31020978009419
 70
   192
  0
VERTEX
  5
213B
  8
0
 10
-262.0
 20
-41.296541041144
 30
115.4152957353614
 70
   192
  0
VERTEX
  5
213C
  8
0
 10
-167.0
 20
-15.27199598670114
 30
115.4152957353614
 70
   192
  0
VERTEX
  5
213D
  8
0
 10
-245.6897902199059
 20
-69.07417109108872
 30
33.25011202122988
 70
   192
  0
VERTEX
  5
213E
  8
0
 10
-262.0
 20
-69.07417109108872
 30
37.6204195601883
 70
   192
  0
VERTEX
  5
213F
  8
0
 10
-262.0000000000001
 20
41.00000000000004
 30
195.0000000000001
 70
   192
  0
VERTEX
  5
2140
  8
0
 10
-278.3102097800941
 20
-69.07417109108872
 30
33.25011202122987
 70
   192
  0
VERTEX
  5
2141
  8
0
 10
-290.2501120212298
 20
-69.07417109108872
 30
21.31020978009419
 70
   192
  0
VERTEX
  5
2142
  8
0
 10
-294.6204195601882
 20
-69.07417109108872
 30
5.000000000000058
 70
   192
  0
VERTEX
  5
2143
  8
0
 10
-357.6527056808667
 20
-49.28521660765847
 30
5.000000000000064
 70
   192
  0
VERTEX
  5
2144
  8
0
 10
-411.790594331463
 20
-11.42018226722777
 30
5.000000000000064
 70
   192
  0
VERTEX
  5
2145
  8
0
 10
-357.0
 20
-15.27199598670117
 30
115.4152957353614
 70
   192
  0
VERTEX
  5
2146
  8
0
 10
-167.0
 20
41.00000000000004
 30
169.5448267190435
 70
   192
  0
VERTEX
  5
2147
  8
0
 10
-357.0000000000001
 20
41.00000000000004
 30
169.5448267190434
 70
   192
  0
VERTEX
  5
2148
  8
0
 10
-452.0
 20
41.0
 30
5.000000000000064
 70
   192
  0
VERTEX
  5
2149
  8
0
 10
-426.5448267190434
 20
41.00000000000004
 30
100.0000000000001
 70
   192
  0
VERTEX
  5
214A
  8
0
 10
0.0
 20
0.0
 30
0.0
 70
   128
 71
     1
 72
     2
 73
     3
  0
VERTEX
  5
214B
  8
0
 10
0.0
 20
0.0
 30
0.0
 70
   128
 71
     4
 72
     5
 73
     6
  0
VERTEX
  5
214C
  8
0
 10
0.0
 20
0.0
 30
0.0
 70
   128
 71
     7
 72
     8
 73
     4
  0
VERTEX
  5
214D
  8
0
 10
0.0
 20
0.0
 30
0.0
 70
   128
 71
     9
 72
     7
 73
     4
  0
VERTEX
  5
214E
  8
0
 10
0.0
 20
0.0
 30
0.0
 70
   128
 71
     6
 72
     9
 73
     4
  0
VERTEX
  5
214F
  8
0
 10
0.0
 20
0.0
 30
0.0
 70
   128
 71
     9
 72
    10
 73
     7
  0
VERTEX
  5
2150
  8
0
 10
0.0
 20
0.0
 30
0.0
 70
   128
 71
     7
 72
    11
 73
     8
  0
VERTEX
  5
2151
  8
0
 10
0.0
 20
0.0
 30
0.0
 70
   128
 71
     7
 72
    10
 73
    12
  0
VERTEX
  5
2152
  8
0
 10
0.0
 20
0.0
 30
0.0
 70
   128
 71
    12
 72
    13
 73
     7
  0
VERTEX
  5
2153
  8
0
 10
0.0
 20
0.0
 30
0.0
 70
   128
 71
    13
 72
    14
 73
    15
  0
VERTEX
  5
2154
  8
0
 10
0.0
 20
0.0
 30
0.0
 70
   128
 71
    13
 72
    15
 73
    16
  0
VERTEX
  5
2155
  8
0
 10
0.0
 20
0.0
 30
0.0
 70
   128
 71
     7
 72
    13
 73
    16
  0
VERTEX
  5
2156
  8
0
 10
0.0
 20
0.0
 30
0.0
 70
   128
 71
    17
 72
     7
 73
    16
  0
VERTEX
  5
2157
  8
0
 10
0.0
 20
0.0
 30
0.0
 70
   128
 71
     3
 72
     4
 73
     8
  0
VERTEX
  5
2158
  8
0
 10
0.0
 20
0.0
 30
0.0
 70
   128
 71
     1
 72
     3
 73
     8
  0
VERTEX
  5
2159
  8
0
 10
0.0
 20
0.0
 30
0.0
 70
   128
 71
    18
 72
     1
 73
     8
  0
VERTEX
  5
215A
  8
0
 10
0.0
 20
0.0
 30
0.0
 70
   128
 71
    18
 72
     8
 73
    11
  0
VERTEX
  5
215B
  8
0
 10
0.0
 20
0.0
 30
0.0
 70
   128
 71
    11
 72
     7
 73
    17
  0
VERTEX
  5
215C
  8
0
 10
0.0
 20
0.0
 30
0.0
 70
   128
 71
    19
 72
    11
 73
    17
  0
VERTEX
  5
215D
  8
0
 10
0.0
 20
0.0
 30
0.0
 70
   128
 71
    16
 72
    20
 73
    21
  0
VERTEX
  5
215E
  8
0
 10
0.0
 20
0.0
 30
0.0
 70
   128
 71
    17
 72
    16
 73
    21
  0
VERTEX
  5
215F
  8
0
 10
0.0
 20
0.0
 30
0.0
 70
   128
 71
    19
 72
    17
 73
    21
  0
SEQEND
  5
2266
  8
0
  0
POLYLINE
  5
2160
  8
0
 66
     1
 10
0.0
 20
0.0
 30
0.0
 70
    64
 71
     9
 72
     7
  0
VERTEX
  5
2161
  8
0
 10
-395.9620834398408
 20
-32.5142482745802
 30
-74.28882650014587
 70
   192
  0
VERTEX
  5
2162
  8
0
 10
-395.9620834398408
 20
-32.5142482745802
 30
-215.0
 70
   192
  0
VERTEX
  5
2163
  8
0
 10
-393.4642303117093
 20
-37.83469066073514
 30
-215.0
 70
   192
  0
VERTEX
  5
2164
  8
0
 10
-382.5357696882908
 20
-37.83469066073515
 30
-215.0
 70
   192
  0
VERTEX
  5
2165
  8
0
 10
-380.0379165601593
 20
-32.5142482745802
 30
-215.0
 70
   192
  0
VERTEX
  5
2166
  8
0
 10
-380.0379165601593
 20
-32.5142482745802
 30
-96.48698468990966
 70
   192
  0
VERTEX
  5
2167
  8
0
 10
-382.8792252257655
 20
-38.13948704440663
 30
-82.12504295478949
 70
   192
  0
VERTEX
  5
2168
  8
0
 10
-388.0000000000001
 20
-39.99999999999996
 30
-215.0
 70
   192
  0
VERTEX
  5
2169
  8
0
 10
-389.3851404413314
 20
-39.87893058139066
 30
-68.04147873199035
 70
   192
  0
VERTEX
  5
216A
  8
0
 10
0.0
 20
0.0
 30
0.0
 70
   128
 71
     1
 72
     2
 73
     3
  0
VERTEX
  5
216B
  8
0
 10
0.0
 20
0.0
 30
0.0
 70
   128
 71
     4
 72
     5
 73
     6
  0
VERTEX
  5
216C
  8
0
 10
0.0
 20
0.0
 30
0.0
 70
   128
 71
     6
 72
     7
 73
     8
  0
VERTEX
  5
216D
  8
0
 10
0.0
 20
0.0
 30
0.0
 70
   128
 71
     6
 72
     8
 73
     4
  0
VERTEX
  5
216E
  8
0
 10
0.0
 20
0.0
 30
0.0
 70
   128
 71
     8
 72
     7
 73
     9
  0
VERTEX
  5
216F
  8
0
 10
0.0
 20
0.0
 30
0.0
 70
   128
 71
     8
 72
     9
 73
     1
  0
VERTEX
  5
2170
  8
0
 10
0.0
 20
0.0
 30
0.0
 70
   128
 71
     8
 72
     1
 73
     3
  0
SEQEND
  5
2267
  8
0
  0
POLYLINE
  5
2171
  8
0
 66
     1
 10
0.0
 20
0.0
 30
0.0
 70
    64
 71
     6
 72
     4
  0
VERTEX
  5
2172
  8
0
 10
-375.5000000000001
 20
41.00000000000003
 30
-215.0
 70
   192
  0
VERTEX
  5
2173
  8
0
 10
-380.0379165601593
 20
-32.5142482745802
 30
-215.0
 70
   192
  0
VERTEX
  5
2174
  8
0
 10
-380.0379165601594
 20
-32.51424827458027
 30
-96.4869846899096
 70
   192
  0
VERTEX
  5
2175
  8
0
 10
-378.8067351197829
 20
-12.5691089404809
 30
-126.4397426926407
 70
   192
  0
VERTEX
  5
2176
  8
0
 10
-377.2792154082305
 20
12.17671038666745
 30
-152.5511044366192
 70
   192
  0
VERTEX
  5
2177
  8
0
 10
-375.5000000000001
 20
41.00000000000003
 30
-174.057951512911
 70
   192
  0
VERTEX
  5
2178
  8
0
 10
0.0
 20
0.0
 30
0.0
 70
   128
 71
     4
 72
     3
 73
    -2
  0
VERTEX
  5
2179
  8
0
 10
0.0
 20
0.0
 30
0.0
 70
   128
 71
    -2
 72
     5
 73
    -4
  0
VERTEX
  5
217A
  8
0
 10
0.0
 20
0.0
 30
0.0
 70
   128
 71
     2
 72
     1
 73
    -6
  0
VERTEX
  5
217B
  8
0
 10
0.0
 20
0.0
 30
0.0
 70
   128
 71
    -2
 72
     6
 73
    -5
  0
SEQEND
  5
2268
  8
0
  0
POLYLINE
  5
217C
  8
0
 66
     1
 10
0.0
 20
0.0
 30
0.0
 70
    64
 71
     6
 72
     4
  0
VERTEX
  5
217D
  8
0
 10
-395.9620834398408
 20
-32.5142482745802
 30
-215.0
 70
   192
  0
VERTEX
  5
217E
  8
0
 10
-400.5000000000001
 20
41.00000000000003
 30
-215.0
 70
   192
  0
VERTEX
  5
217F
  8
0
 10
-400.5000000000001
 20
41.0
 30
-155.5046728291733
 70
   192
  0
VERTEX
  5
2180
  8
0
 10
-398.6638390363717
 20
11.2541923892198
 30
-133.5226546937824
 70
   192
  0
VERTEX
  5
2181
  8
0
 10
-397.1311001955782
 20
-13.57617683163534
 30
-106.0909731046326
 70
   192
  0
VERTEX
  5
2182
  8
0
 10
-395.9620834398408
 20
-32.5142482745802
 30
-74.28882650014589
 70
   192
  0
VERTEX
  5
2183
  8
0
 10
0.0
 20
0.0
 30
0.0
 70
   128
 71
     4
 72
     3
 73
    -2
  0
VERTEX
  5
2184
  8
0
 10
0.0
 20
0.0
 30
0.0
 70
   128
 71
    -4
 72
     2
 73
    -1
  0
VERTEX
  5
2185
  8
0
 10
0.0
 20
0.0
 30
0.0
 70
   128
 71
    -1
 72
     5
 73
    -4
  0
VERTEX
  5
2186
  8
0
 10
0.0
 20
0.0
 30
0.0
 70
   128
 71
     1
 72
     6
 73
    -5
  0
SEQEND
  5
2269
  8
0
  0
POLYLINE
  5
2187
  8
0
 66
     1
 10
0.0
 20
0.0
 30
0.0
 70
    64
 71
     6
 72
     4
  0
VERTEX
  5
2188
  8
0
 10
-142.9620834398407
 20
-32.51424827458018
 30
-215.0
 70
   192
  0
VERTEX
  5
2189
  8
0
 10
-147.5000000000001
 20
41.00000000000006
 30
-215.0
 70
   192
  0
VERTEX
  5
218A
  8
0
 10
-147.5
 20
41.0
 30
-173.4201502073126
 70
   192
  0
VERTEX
  5
218B
  8
0
 10
-145.717248346479
 20
12.1194232129601
 30
-151.763311033243
 70
   192
  0
VERTEX
  5
218C
  8
0
 10
-144.1895416034166
 20
-12.62942602465148
 30
-125.4679659025373
 70
   192
  0
VERTEX
  5
218D
  8
0
 10
-142.9620834398407
 20
-32.51424827458018
 30
-95.31217387899466
 70
   192
  0
VERTEX
  5
218E
  8
0
 10
0.0
 20
0.0
 30
0.0
 70
   128
 71
     4
 72
     3
 73
    -2
  0
VERTEX
  5
218F
  8
0
 10
0.0
 20
0.0
 30
0.0
 70
   128
 71
    -4
 72
     2
 73
    -1
  0
VERTEX
  5
2190
  8
0
 10
0.0
 20
0.0
 30
0.0
 70
   128
 71
    -1
 72
     5
 73
    -4
  0
VERTEX
  5
2191
  8
0
 10
0.0
 20
0.0
 30
0.0
 70
   128
 71
     1
 72
     6
 73
    -5
  0
SEQEND
  5
226A
  8
0
  0
POLYLINE
  5
2192
  8
0
 66
     1
 10
0.0
 20
0.0
 30
0.0
 70
    64
 71
     6
 72
     4
  0
VERTEX
  5
2193
  8
0
 10
-122.5
 20
41.00000000000007
 30
-215.0
 70
   192
  0
VERTEX
  5
2194
  8
0
 10
-127.0379165601593
 20
-32.51424827458017
 30
-215.0
 70
   192
  0
VERTEX
  5
2195
  8
0
 10
-127.0379165601593
 20
-32.51424827458018
 30
-72.57444064181595
 70
   192
  0
VERTEX
  5
2196
  8
0
 10
-125.8760833819456
 20
-13.69255078751797
 30
-104.70392204915
 70
   192
  0
VERTEX
  5
2197
  8
0
 10
-124.3429263738703
 20
11.1445927433022
 30
-132.4289190545735
 70
   192
  0
VERTEX
  5
2198
  8
0
 10
-122.5000000000001
 20
41.00000000000006
 30
-154.636305394481
 70
   192
  0
VERTEX
  5
2199
  8
0
 10
0.0
 20
0.0
 30
0.0
 70
   128
 71
     4
 72
     3
 73
    -2
  0
VERTEX
  5
219A
  8
0
 10
0.0
 20
0.0
 30
0.0
 70
   128
 71
    -2
 72
     5
 73
    -4
  0
VERTEX
  5
219B
  8
0
 10
0.0
 20
0.0
 30
0.0
 70
   128
 71
     2
 72
     1
 73
    -6
  0
VERTEX
  5
219C
  8
0
 10
0.0
 20
0.0
 30
0.0
 70
   128
 71
    -2
 72
     6
 73
    -5
  0
SEQEND
  5
226B
  8
0
  0
POLYLINE
  5
219D
  8
0
 66
     1
 10
0.0
 20
0.0
 30
0.0
 70
    64
 71
     9
 72
     7
  0
VERTEX
  5
219E
  8
0
 10
-140.0986658378413
 20
-38.15832027001537
 30
-80.64886063816421
 70
   192
  0
VERTEX
  5
219F
  8
0
 10
-140.4642303117093
 20
-37.8346906607351
 30
-215.0
 70
   192
  0
VERTEX
  5
21A0
  8
0
 10
-135.0000000000001
 20
-39.9999999999999
 30
-215.0
 70
   192
  0
VERTEX
  5
21A1
  8
0
 10
-142.9620834398407
 20
-32.51424827458019
 30
-95.31217387899467
 70
   192
  0
VERTEX
  5
21A2
  8
0
 10
-142.9620834398407
 20
-32.51424827458018
 30
-215.0
 70
   192
  0
VERTEX
  5
21A3
  8
0
 10
-127.0379165601594
 20
-32.51424827458017
 30
-215.0
 70
   192
  0
VERTEX
  5
21A4
  8
0
 10
-127.0379165601593
 20
-32.51424827458017
 30
-72.57444064181578
 70
   192
  0
VERTEX
  5
21A5
  8
0
 10
-133.5881627629497
 20
-39.87407596610235
 30
-66.23360902992414
 70
   192
  0
VERTEX
  5
21A6
  8
0
 10
-129.5357696882908
 20
-37.83469066073509
 30
-215.0
 70
   192
  0
VERTEX
  5
21A7
  8
0
 10
0.0
 20
0.0
 30
0.0
 70
   128
 71
     1
 72
     2
 73
     3
  0
VERTEX
  5
21A8
  8
0
 10
0.0
 20
0.0
 30
0.0
 70
   128
 71
     4
 72
     5
 73
     2
  0
VERTEX
  5
21A9
  8
0
 10
0.0
 20
0.0
 30
0.0
 70
   128
 71
     6
 72
     7
 73
     8
  0
VERTEX
  5
21AA
  8
0
 10
0.0
 20
0.0
 30
0.0
 70
   128
 71
     9
 72
     6
 73
     8
  0
VERTEX
  5
21AB
  8
0
 10
0.0
 20
0.0
 30
0.0
 70
   128
 71
     8
 72
     1
 73
     3
  0
VERTEX
  5
21AC
  8
0
 10
0.0
 20
0.0
 30
0.0
 70
   128
 71
     8
 72
     3
 73
     9
  0
VERTEX
  5
21AD
  8
0
 10
0.0
 20
0.0
 30
0.0
 70
   128
 71
     1
 72
     4
 73
     2
  0
SEQEND
  5
226C
  8
0
  0
POLYLINE
  5
21AE
  8
0
 66
     1
 10
0.0
 20
0.0
 30
0.0
 70
    64
 71
    10
 72
     8
  0
VERTEX
  5
21AF
  8
0
 10
408.5000000000002
 20
4.999999999999994
 30
-215.0000000000005
 70
   192
  0
VERTEX
  5
21B0
  8
0
 10
421.5000000000002
 20
4.999999999999995
 30
-215.0000000000005
 70
   192
  0
VERTEX
  5
21B1
  8
0
 10
421.5000000000002
 20
4.999999999999995
 30
-235.0000000000005
 70
   192
  0
VERTEX
  5
21B2
  8
0
 10
408.5000000000001
 20
4.999999999999994
 30
-235.0000000000005
 70
   192
  0
VERTEX
  5
21B3
  8
0
 10
415.0000000000002
 20
11.5
 30
-235.0000000000005
 70
   192
  0
VERTEX
  5
21B4
  8
0
 10
415.0000000000002
 20
11.5
 30
-215.0000000000005
 70
   192
  0
VERTEX
  5
21B5
  8
0
 10
410.4038059222876
 20
9.596194077712557
 30
-235.0000000000005
 70
   192
  0
VERTEX
  5
21B6
  8
0
 10
410.4038059222876
 20
9.596194077712557
 30
-215.0000000000005
 70
   192
  0
VERTEX
  5
21B7
  8
0
 10
419.5961940777127
 20
9.596194077712557
 30
-235.0000000000005
 70
   192
  0
VERTEX
  5
21B8
  8
0
 10
419.5961940777127
 20
9.596194077712557
 30
-215.0000000000005
 70
   192
  0
VERTEX
  5
21B9
  8
0
 10
0.0
 20
0.0
 30
0.0
 70
   128
 71
     8
 72
     1
 73
    -4
  0
VERTEX
  5
21BA
  8
0
 10
0.0
 20
0.0
 30
0.0
 70
   128
 71
     7
 72
    -8
 73
     4
  0
VERTEX
  5
21BB
  8
0
 10
0.0
 20
0.0
 30
0.0
 70
   128
 71
     6
 72
     8
 73
    -7
  0
VERTEX
  5
21BC
  8
0
 10
0.0
 20
0.0
 30
0.0
 70
   128
 71
     5
 72
    -6
 73
     7
  0
VERTEX
  5
21BD
  8
0
 10
0.0
 20
0.0
 30
0.0
 70
   128
 71
    10
 72
     6
 73
    -5
  0
VERTEX
  5
21BE
  8
0
 10
0.0
 20
0.0
 30
0.0
 70
   128
 71
     9
 72
   -10
 73
     5
  0
VERTEX
  5
21BF
  8
0
 10
0.0
 20
0.0
 30
0.0
 70
   128
 71
     3
 72
     2
 73
   -10
  0
VERTEX
  5
21C0
  8
0
 10
0.0
 20
0.0
 30
0.0
 70
   128
 71
     9
 72
    -3
 73
    10
  0
SEQEND
  5
226D
  8
0
  0
POLYLINE
  5
21C1
  8
0
 66
     1
 10
0.0
 20
0.0
 30
0.0
 70
    64
 71
    10
 72
     8
  0
VERTEX
  5
21C2
  8
0
 10
63.50000000000015
 20
4.999999999999994
 30
-215.0000000000005
 70
   192
  0
VERTEX
  5
21C3
  8
0
 10
76.5000000000002
 20
4.999999999999995
 30
-215.0000000000005
 70
   192
  0
VERTEX
  5
21C4
  8
0
 10
76.5000000000002
 20
4.999999999999995
 30
-235.0000000000005
 70
   192
  0
VERTEX
  5
21C5
  8
0
 10
63.50000000000016
 20
4.999999999999994
 30
-235.0000000000005
 70
   192
  0
VERTEX
  5
21C6
  8
0
 10
70.00000000000017
 20
11.50000000000001
 30
-235.0000000000005
 70
   192
  0
VERTEX
  5
21C7
  8
0
 10
70.00000000000017
 20
11.50000000000001
 30
-215.0000000000005
 70
   192
  0
VERTEX
  5
21C8
  8
0
 10
65.4038059222876
 20
9.596194077712568
 30
-235.0000000000005
 70
   192
  0
VERTEX
  5
21C9
  8
0
 10
65.4038059222876
 20
9.596194077712568
 30
-215.0000000000005
 70
   192
  0
VERTEX
  5
21CA
  8
0
 10
74.59619407771274
 20
9.596194077712568
 30
-235.0000000000005
 70
   192
  0
VERTEX
  5
21CB
  8
0
 10
74.59619407771274
 20
9.596194077712568
 30
-215.0000000000005
 70
   192
  0
VERTEX
  5
21CC
  8
0
 10
0.0
 20
0.0
 30
0.0
 70
   128
 71
     8
 72
     1
 73
    -4
  0
VERTEX
  5
21CD
  8
0
 10
0.0
 20
0.0
 30
0.0
 70
   128
 71
     7
 72
    -8
 73
     4
  0
VERTEX
  5
21CE
  8
0
 10
0.0
 20
0.0
 30
0.0
 70
   128
 71
     6
 72
     8
 73
    -7
  0
VERTEX
  5
21CF
  8
0
 10
0.0
 20
0.0
 30
0.0
 70
   128
 71
     5
 72
    -6
 73
     7
  0
VERTEX
  5
21D0
  8
0
 10
0.0
 20
0.0
 30
0.0
 70
   128
 71
    10
 72
     6
 73
    -5
  0
VERTEX
  5
21D1
  8
0
 10
0.0
 20
0.0
 30
0.0
 70
   128
 71
     9
 72
   -10
 73
     5
  0
VERTEX
  5
21D2
  8
0
 10
0.0
 20
0.0
 30
0.0
 70
   128
 71
     3
 72
     2
 73
   -10
  0
VERTEX
  5
21D3
  8
0
 10
0.0
 20
0.0
 30
0.0
 70
   128
 71
     9
 72
    -3
 73
    10
  0
SEQEND
  5
226E
  8
0
  0
POLYLINE
  5
21D4
  8
0
 66
     1
 10
0.0
 20
0.0
 30
0.0
 70
    64
 71
    10
 72
     8
  0
VERTEX
  5
21D5
  8
0
 10
-76.50000000000018
 20
4.999999999999993
 30
-215.0000000000005
 70
   192
  0
VERTEX
  5
21D6
  8
0
 10
-63.50000000000016
 20
4.999999999999995
 30
-215.0000000000005
 70
   192
  0
VERTEX
  5
21D7
  8
0
 10
-63.50000000000016
 20
4.999999999999995
 30
-235.0000000000005
 70
   192
  0
VERTEX
  5
21D8
  8
0
 10
-76.5000000000002
 20
4.999999999999994
 30
-235.0000000000005
 70
   192
  0
VERTEX
  5
21D9
  8
0
 10
-70.00000000000017
 20
11.50000000000001
 30
-235.0000000000005
 70
   192
  0
VERTEX
  5
21DA
  8
0
 10
-70.00000000000017
 20
11.50000000000001
 30
-215.0000000000005
 70
   192
  0
VERTEX
  5
21DB
  8
0
 10
-74.59619407771274
 20
9.596194077712566
 30
-235.0000000000005
 70
   192
  0
VERTEX
  5
21DC
  8
0
 10
-74.59619407771274
 20
9.596194077712566
 30
-215.0000000000005
 70
   192
  0
VERTEX
  5
21DD
  8
0
 10
-65.4038059222876
 20
9.596194077712568
 30
-235.0000000000005
 70
   192
  0
VERTEX
  5
21DE
  8
0
 10
-65.4038059222876
 20
9.596194077712568
 30
-215.0000000000005
 70
   192
  0
VERTEX
  5
21DF
  8
0
 10
0.0
 20
0.0
 30
0.0
 70
   128
 71
     8
 72
     1
 73
    -4
  0
VERTEX
  5
21E0
  8
0
 10
0.0
 20
0.0
 30
0.0
 70
   128
 71
     7
 72
    -8
 73
     4
  0
VERTEX
  5
21E1
  8
0
 10
0.0
 20
0.0
 30
0.0
 70
   128
 71
     6
 72
     8
 73
    -7
  0
VERTEX
  5
21E2
  8
0
 10
0.0
 20
0.0
 30
0.0
 70
   128
 71
     5
 72
    -6
 73
     7
  0
VERTEX
  5
21E3
  8
0
 10
0.0
 20
0.0
 30
0.0
 70
   128
 71
    10
 72
     6
 73
    -5
  0
VERTEX
  5
21E4
  8
0
 10
0.0
 20
0.0
 30
0.0
 70
   128
 71
     9
 72
   -10
 73
     5
  0
VERTEX
  5
21E5
  8
0
 10
0.0
 20
0.0
 30
0.0
 70
   128
 71
     3
 72
     2
 73
   -10
  0
VERTEX
  5
21E6
  8
0
 10
0.0
 20
0.0
 30
0.0
 70
   128
 71
     9
 72
    -3
 73
    10
  0
SEQEND
  5
226F
  8
0
  0
POLYLINE
  5
21E7
  8
0
 66
     1
 10
0.0
 20
0.0
 30
0.0
 70
    64
 71
    10
 72
     8
  0
VERTEX
  5
21E8
  8
0
 10
-421.5000000000002
 20
4.999999999999994
 30
-215.0000000000005
 70
   192
  0
VERTEX
  5
21E9
  8
0
 10
-408.5000000000001
 20
4.999999999999995
 30
-215.0000000000005
 70
   192
  0
VERTEX
  5
21EA
  8
0
 10
-408.5000000000001
 20
4.999999999999995
 30
-235.0000000000005
 70
   192
  0
VERTEX
  5
21EB
  8
0
 10
-421.5000000000002
 20
4.999999999999994
 30
-235.0000000000005
 70
   192
  0
VERTEX
  5
21EC
  8
0
 10
-415.0000000000002
 20
11.5
 30
-235.0000000000005
 70
   192
  0
VERTEX
  5
21ED
  8
0
 10
-415.0000000000002
 20
11.5
 30
-215.0000000000005
 70
   192
  0
VERTEX
  5
21EE
  8
0
 10
-419.5961940777127
 20
9.596194077712557
 30
-235.0000000000005
 70
   192
  0
VERTEX
  5
21EF
  8
0
 10
-419.5961940777127
 20
9.596194077712557
 30
-215.0000000000005
 70
   192
  0
VERTEX
  5
21F0
  8
0
 10
-410.4038059222876
 20
9.596194077712557
 30
-235.0000000000005
 70
   192
  0
VERTEX
  5
21F1
  8
0
 10
-410.4038059222876
 20
9.596194077712557
 30
-215.0000000000005
 70
   192
  0
VERTEX
  5
21F2
  8
0
 10
0.0
 20
0.0
 30
0.0
 70
   128
 71
     8
 72
     1
 73
    -4
  0
VERTEX
  5
21F3
  8
0
 10
0.0
 20
0.0
 30
0.0
 70
   128
 71
     7
 72
    -8
 73
     4
  0
VERTEX
  5
21F4
  8
0
 10
0.0
 20
0.0
 30
0.0
 70
   128
 71
     6
 72
     8
 73
    -7
  0
VERTEX
  5
21F5
  8
0
 10
0.0
 20
0.0
 30
0.0
 70
   128
 71
     5
 72
    -6
 73
     7
  0
VERTEX
  5
21F6
  8
0
 10
0.0
 20
0.0
 30
0.0
 70
   128
 71
    10
 72
     6
 73
    -5
  0
VERTEX
  5
21F7
  8
0
 10
0.0
 20
0.0
 30
0.0
 70
   128
 71
     9
 72
   -10
 73
     5
  0
VERTEX
  5
21F8
  8
0
 10
0.0
 20
0.0
 30
0.0
 70
   128
 71
     3
 72
     2
 73
   -10
  0
VERTEX
  5
21F9
  8
0
 10
0.0
 20
0.0
 30
0.0
 70
   128
 71
     9
 72
    -3
 73
    10
  0
SEQEND
  5
2270
  8
0
  0
POLYLINE
  5
21FA
  8
0
 66
     1
 10
0.0
 20
0.0
 30
0.0
 70
    64
 71
     8
 72
     6
  0
VERTEX
  5
21FB
  8
0
 10
-500.0
 20
60.45049024320358
 30
-235.0
 70
   192
  0
VERTEX
  5
21FC
  8
0
 10
-499.6806510477568
 20
58.72260419102719
 30
-220.1264871116705
 70
   192
  0
VERTEX
  5
21FD
  8
0
 10
-499.6806510477568
 20
61.69730676869316
 30
-235.0
 70
   192
  0
VERTEX
  5
21FE
  8
0
 10
-500.0
 20
57.49999999999998
 30
-220.2475487839819
 70
   192
  0
VERTEX
  5
21FF
  8
0
 10
-498.7226041910271
 20
59.68065104775681
 30
-220.031621777918
 70
   192
  0
VERTEX
  5
2200
  8
0
 10
-498.7226041910271
 20
62.67432669217327
 30
-234.9999999999999
 70
   192
  0
VERTEX
  5
2201
  8
0
 10
-497.5
 20
59.99999999999998
 30
-220.0
 70
   192
  0
VERTEX
  5
2202
  8
0
 10
-497.5
 20
62.99999999999998
 30
-235.0
 70
   192
  0
VERTEX
  5
2203
  8
0
 10
0.0
 20
0.0
 30
0.0
 70
   128
 71
    -1
 72
     2
 73
     3
  0
VERTEX
  5
2204
  8
0
 10
0.0
 20
0.0
 30
0.0
 70
   128
 71
     1
 72
     4
 73
    -2
  0
VERTEX
  5
2205
  8
0
 10
0.0
 20
0.0
 30
0.0
 70
   128
 71
    -3
 72
     5
 73
     6
  0
VERTEX
  5
2206
  8
0
 10
0.0
 20
0.0
 30
0.0
 70
   128
 71
     3
 72
     2
 73
    -5
  0
VERTEX
  5
2207
  8
0
 10
0.0
 20
0.0
 30
0.0
 70
   128
 71
     6
 72
     5
 73
    -7
  0
VERTEX
  5
2208
  8
0
 10
0.0
 20
0.0
 30
0.0
 70
   128
 71
    -6
 72
     7
 73
     8
  0
SEQEND
  5
2271
  8
0
  0
POLYLINE
  5
2209
  8
0
 66
     1
 10
0.0
 20
0.0
 30
0.0
 70
    64
 71
     8
 72
     6
  0
VERTEX
  5
220A
  8
0
 10
-499.6806510477568
 20
58.72260419102719
 30
-220.1264871116705
 70
   192
  0
VERTEX
  5
220B
  8
0
 10
-500.0
 20
57.49999999999997
 30
-220.2475487839819
 70
   192
  0
VERTEX
  5
220C
  8
0
 10
-500.0
 20
57.50000000000003
 30
235.0
 70
   192
  0
VERTEX
  5
220D
  8
0
 10
-498.7226041910271
 20
59.68065104775681
 30
-220.031621777918
 70
   192
  0
VERTEX
  5
220E
  8
0
 10
-499.6806510477568
 20
58.72260419102719
 30
234.6806510477568
 70
   192
  0
VERTEX
  5
220F
  8
0
 10
-498.7226041910272
 20
59.68065104775683
 30
233.7226041910272
 70
   192
  0
VERTEX
  5
2210
  8
0
 10
-497.5
 20
60.00000000000004
 30
232.5
 70
   192
  0
VERTEX
  5
2211
  8
0
 10
-497.5
 20
59.99999999999998
 30
-220.0
 70
   192
  0
VERTEX
  5
2212
  8
0
 10
0.0
 20
0.0
 30
0.0
 70
   128
 71
     1
 72
     2
 73
     3
  0
VERTEX
  5
2213
  8
0
 10
0.0
 20
0.0
 30
0.0
 70
   128
 71
     4
 72
     1
 73
     3
  0
VERTEX
  5
2214
  8
0
 10
0.0
 20
0.0
 30
0.0
 70
   128
 71
     3
 72
     5
 73
     6
  0
VERTEX
  5
2215
  8
0
 10
0.0
 20
0.0
 30
0.0
 70
   128
 71
     4
 72
     3
 73
     6
  0
VERTEX
  5
2216
  8
0
 10
0.0
 20
0.0
 30
0.0
 70
   128
 71
     4
 72
     6
 73
    -7
  0
VERTEX
  5
2217
  8
0
 10
0.0
 20
0.0
 30
0.0
 70
   128
 71
    -4
 72
     7
 73
     8
  0
SEQEND
  5
2272
  8
0
  0
POLYLINE
  5
2218
  8
0
 66
     1
 10
0.0
 20
0.0
 30
0.0
 70
    64
 71
     8
 72
     6
  0
VERTEX
  5
2219
  8
0
 10
497.5
 20
60.00000000000004
 30
232.5
 70
   192
  0
VERTEX
  5
221A
  8
0
 10
-497.5
 20
60.00000000000004
 30
232.5
 70
   192
  0
VERTEX
  5
221B
  8
0
 10
-498.7226041910272
 20
59.68065104775683
 30
233.7226041910272
 70
   192
  0
VERTEX
  5
221C
  8
0
 10
498.7226041910271
 20
59.68065104775683
 30
233.7226041910272
 70
   192
  0
VERTEX
  5
221D
  8
0
 10
-499.6806510477568
 20
58.72260419102719
 30
234.6806510477568
 70
   192
  0
VERTEX
  5
221E
  8
0
 10
500.0
 20
57.50000000000004
 30
235.0
 70
   192
  0
VERTEX
  5
221F
  8
0
 10
499.6806510477568
 20
58.7226041910272
 30
234.6806510477568
 70
   192
  0
VERTEX
  5
2220
  8
0
 10
-500.0
 20
57.50000000000004
 30
235.0
 70
   192
  0
VERTEX
  5
2221
  8
0
 10
0.0
 20
0.0
 30
0.0
 70
   128
 71
     1
 72
     2
 73
    -3
  0
VERTEX
  5
2222
  8
0
 10
0.0
 20
0.0
 30
0.0
 70
   128
 71
     4
 72
    -1
 73
     3
  0
VERTEX
  5
2223
  8
0
 10
0.0
 20
0.0
 30
0.0
 70
   128
 71
     4
 72
     3
 73
     5
  0
VERTEX
  5
2224
  8
0
 10
0.0
 20
0.0
 30
0.0
 70
   128
 71
     6
 72
     7
 73
     4
  0
VERTEX
  5
2225
  8
0
 10
0.0
 20
0.0
 30
0.0
 70
   128
 71
     6
 72
     4
 73
     5
  0
VERTEX
  5
2226
  8
0
 10
0.0
 20
0.0
 30
0.0
 70
   128
 71
     5
 72
     8
 73
     6
  0
SEQEND
  5
2273
  8
0
  0
POLYLINE
  5
2227
  8
0
 66
     1
 10
0.0
 20
0.0
 30
0.0
 70
    64
 71
     8
 72
     6
  0
VERTEX
  5
2228
  8
0
 10
500.0
 20
57.50000000000004
 30
235.0
 70
   192
  0
VERTEX
  5
2229
  8
0
 10
499.6806510477567
 20
58.72260419102713
 30
-220.12648711167
 70
   192
  0
VERTEX
  5
222A
  8
0
 10
499.6806510477568
 20
58.7226041910272
 30
234.6806510477568
 70
   192
  0
VERTEX
  5
222B
  8
0
 10
500.0
 20
57.49999999999997
 30
-220.247548783982
 70
   192
  0
VERTEX
  5
222C
  8
0
 10
498.7226041910272
 20
59.68065104775675
 30
-220.0316217779175
 70
   192
  0
VERTEX
  5
222D
  8
0
 10
498.7226041910271
 20
59.68065104775683
 30
233.7226041910272
 70
   192
  0
VERTEX
  5
222E
  8
0
 10
497.5000000000001
 20
59.99999999999998
 30
-220.0
 70
   192
  0
VERTEX
  5
222F
  8
0
 10
497.5000000000001
 20
60.00000000000004
 30
232.5
 70
   192
  0
VERTEX
  5
2230
  8
0
 10
0.0
 20
0.0
 30
0.0
 70
   128
 71
    -1
 72
     2
 73
     3
  0
VERTEX
  5
2231
  8
0
 10
0.0
 20
0.0
 30
0.0
 70
   128
 71
     1
 72
     4
 73
    -2
  0
VERTEX
  5
2232
  8
0
 10
0.0
 20
0.0
 30
0.0
 70
   128
 71
     3
 72
     2
 73
    -5
  0
VERTEX
  5
2233
  8
0
 10
0.0
 20
0.0
 30
0.0
 70
   128
 71
    -3
 72
     5
 73
     6
  0
VERTEX
  5
2234
  8
0
 10
0.0
 20
0.0
 30
0.0
 70
   128
 71
     6
 72
     5
 73
    -7
  0
VERTEX
  5
2235
  8
0
 10
0.0
 20
0.0
 30
0.0
 70
   128
 71
    -6
 72
     7
 73
     8
  0
SEQEND
  5
2274
  8
0
  0
POLYLINE
  5
2236
  8
0
 66
     1
 10
0.0
 20
0.0
 30
0.0
 70
    64
 71
     8
 72
     6
  0
VERTEX
  5
2237
  8
0
 10
499.6806510477567
 20
58.72260419102713
 30
-220.12648711167
 70
   192
  0
VERTEX
  5
2238
  8
0
 10
500.0
 20
57.49999999999997
 30
-220.2475487839819
 70
   192
  0
VERTEX
  5
2239
  8
0
 10
500.0
 20
60.45049024320359
 30
-235.0
 70
   192
  0
VERTEX
  5
223A
  8
0
 10
498.7226041910272
 20
59.68065104775675
 30
-220.0316217779175
 70
   192
  0
VERTEX
  5
223B
  8
0
 10
499.6806510477567
 20
61.69730676869314
 30
-235.0
 70
   192
  0
VERTEX
  5
223C
  8
0
 10
497.5000000000001
 20
59.99999999999997
 30
-220.0
 70
   192
  0
VERTEX
  5
223D
  8
0
 10
498.7226041910272
 20
62.67432669217325
 30
-235.0
 70
   192
  0
VERTEX
  5
223E
  8
0
 10
497.5000000000001
 20
62.99999999999997
 30
-235.0
 70
   192
  0
VERTEX
  5
223F
  8
0
 10
0.0
 20
0.0
 30
0.0
 70
   128
 71
     1
 72
     2
 73
     3
  0
VERTEX
  5
2240
  8
0
 10
0.0
 20
0.0
 30
0.0
 70
   128
 71
     4
 72
     1
 73
     3
  0
VERTEX
  5
2241
  8
0
 10
0.0
 20
0.0
 30
0.0
 70
   128
 71
     4
 72
     3
 73
     5
  0
VERTEX
  5
2242
  8
0
 10
0.0
 20
0.0
 30
0.0
 70
   128
 71
     6
 72
     4
 73
     5
  0
VERTEX
  5
2243
  8
0
 10
0.0
 20
0.0
 30
0.0
 70
   128
 71
     6
 72
     5
 73
     7
  0
VERTEX
  5
2244
  8
0
 10
0.0
 20
0.0
 30
0.0
 70
   128
 71
     7
 72
     8
 73
     6
  0
SEQEND
  5
2275
  8
0
  0
ENDBLK
  5
2246
  8
0
  0
ENDSEC
  0
SECTION
  2
ENTITIES
  0
INSERT
  5
18C4
  8
0
  2
*X1
 10
0.0
 20
0.0
 30
0.0
  0
ENDSEC
  0
EOF
