  0
SECTION
  2
HEADER
  9
$ACADVER
  1
AC1009
  9
$DWGCODEPAGE
  3
ansi_1250
  9
$INSBASE
 10
0.0
 20
0.0
 30
0.0
  9
$EXTMIN
 10
-500.0
 20
-91.03856954752291
 30
-235.0000000000011
  9
$EXTMAX
 10
500.0
 20
63.00000000000006
 30
235.0000000000001
  9
$LIMMIN
 10
0.0
 20
0.0
  9
$LIMMAX
 10
420.0
 20
297.0
  9
$ORTHOMODE
 70
     0
  9
$REGENMODE
 70
     1
  9
$FILLMODE
 70
     1
  9
$QTEXTMODE
 70
     0
  9
$MIRRTEXT
 70
     0
  9
$DRAGMODE
 70
     2
  9
$LTSCALE
 40
1.0
  9
$OSMODE
 70
   511
  9
$ATTMODE
 70
     1
  9
$TEXTSIZE
 40
2.5
  9
$TRACEWID
 40
1.0
  9
$TEXTSTYLE
  7
STANDARD
  9
$CLAYER
  8
0
  9
$CELTYPE
  6
BYLAYER
  9
$CECOLOR
 62
   256
  9
$DIMSCALE
 40
1.0
  9
$DIMASZ
 40
2.5
  9
$DIMEXO
 40
0.625
  9
$DIMDLI
 40
3.75
  9
$DIMRND
 40
0.0
  9
$DIMDLE
 40
0.0
  9
$DIMEXE
 40
1.25
  9
$DIMTP
 40
0.0
  9
$DIMTM
 40
0.0
  9
$DIMTXT
 40
2.5
  9
$DIMCEN
 40
-2.5
  9
$DIMTSZ
 40
0.0
  9
$DIMTOL
 70
     0
  9
$DIMLIM
 70
     0
  9
$DIMTIH
 70
     0
  9
$DIMTOH
 70
     0
  9
$DIMSE1
 70
     0
  9
$DIMSE2
 70
     0
  9
$DIMTAD
 70
     1
  9
$DIMZIN
 70
     8
  9
$DIMBLK
  1

  9
$DIMASO
 70
     1
  9
$DIMSHO
 70
     1
  9
$DIMPOST
  1

  9
$DIMAPOST
  1

  9
$DIMALT
 70
     0
  9
$DIMALTD
 70
     3
  9
$DIMALTF
 40
0.03937007874016
  9
$DIMLFAC
 40
1.0
  9
$DIMTOFL
 70
     1
  9
$DIMTVP
 40
0.0
  9
$DIMTIX
 70
     0
  9
$DIMSOXD
 70
     0
  9
$DIMSAH
 70
     0
  9
$DIMBLK1
  1

  9
$DIMBLK2
  1

  9
$DIMSTYLE
  2
ISO-25
  9
$DIMCLRD
 70
     0
  9
$DIMCLRE
 70
     0
  9
$DIMCLRT
 70
     0
  9
$DIMTFAC
 40
1.0
  9
$DIMGAP
 40
0.625
  9
$LUNITS
 70
     2
  9
$LUPREC
 70
     3
  9
$SKETCHINC
 40
1.0
  9
$FILLETRAD
 40
10.0
  9
$AUNITS
 70
     0
  9
$AUPREC
 70
     0
  9
$MENU
  1
.
  9
$ELEVATION
 40
0.0
  9
$PELEVATION
 40
0.0
  9
$THICKNESS
 40
0.0
  9
$LIMCHECK
 70
     0
  9
$CHAMFERA
 40
10.0
  9
$CHAMFERB
 40
10.0
  9
$SKPOLY
 70
     0
  9
$TDCREATE
 40
2455022.720692848
  9
$TDUPDATE
 40
2460539.480650625
  9
$TDINDWG
 40
0.0042380093
  9
$TDUSRTIMER
 40
0.0042871875
  9
$USRTIMER
 70
     1
  9
$ANGBASE
 50
0.0
  9
$ANGDIR
 70
     0
  9
$PDMODE
 70
     0
  9
$PDSIZE
 40
0.0
  9
$PLINEWID
 40
0.0
  9
$COORDS
 70
     1
  9
$SPLFRAME
 70
     0
  9
$SPLINETYPE
 70
     6
  9
$SPLINESEGS
 70
     8
  9
$ATTDIA
 70
     0
  9
$ATTREQ
 70
     1
  9
$HANDLING
 70
     1
  9
$HANDSEED
  5
2BF0
  9
$SURFTAB1
 70
     6
  9
$SURFTAB2
 70
     6
  9
$SURFTYPE
 70
     6
  9
$SURFU
 70
     6
  9
$SURFV
 70
     6
  9
$UCSNAME
  2

  9
$UCSORG
 10
0.0
 20
0.0
 30
0.0
  9
$UCSXDIR
 10
1.0
 20
0.0
 30
0.0
  9
$UCSYDIR
 10
0.0
 20
1.0
 30
0.0
  9
$PUCSNAME
  2

  9
$PUCSORG
 10
0.0
 20
0.0
 30
0.0
  9
$PUCSXDIR
 10
1.0
 20
0.0
 30
0.0
  9
$PUCSYDIR
 10
0.0
 20
1.0
 30
0.0
  9
$USERI1
 70
     0
  9
$USERI2
 70
     0
  9
$USERI3
 70
     0
  9
$USERI4
 70
     0
  9
$USERI5
 70
     0
  9
$USERR1
 40
0.0
  9
$USERR2
 40
0.0
  9
$USERR3
 40
0.0
  9
$USERR4
 40
0.0
  9
$USERR5
 40
0.0
  9
$WORLDVIEW
 70
     1
  9
$SHADEDGE
 70
     3
  9
$SHADEDIF
 70
    70
  9
$TILEMODE
 70
     1
  9
$MAXACTVP
 70
    64
  9
$PLIMCHECK
 70
     0
  9
$PEXTMIN
 10
1.000000000000000E+20
 20
1.000000000000000E+20
 30
1.000000000000000E+20
  9
$PEXTMAX
 10
-1.000000000000000E+20
 20
-1.000000000000000E+20
 30
-1.000000000000000E+20
  9
$PLIMMIN
 10
0.0
 20
0.0
  9
$PLIMMAX
 10
0.0
 20
0.0
  9
$UNITMODE
 70
     0
  9
$VISRETAIN
 70
     1
  9
$PLINEGEN
 70
     0
  9
$PSLTSCALE
 70
     1
  0
ENDSEC
  0
SECTION
  2
TABLES
  0
TABLE
  2
VPORT
 70
     1
  0
VPORT
  2
*ACTIVE
 70
     0
 10
0.0
 20
0.0
 11
1.0
 21
1.0
 12
-104.810196548158
 22
-49.05096283677011
 13
0.0
 23
0.0
 14
10.0
 24
10.0
 15
10.0
 25
10.0
 16
0.5773502691896226
 26
0.5773502691896226
 36
0.5773502691896226
 17
-134.1869158878504
 27
-0.0000000000000142
 37
0.0
 40
788.7175932068903
 41
1.739930955120829
 42
50.0
 43
0.0
 44
0.0
 50
0.0
 51
0.0
 71
    16
 72
  1000
 73
     1
 74
     3
 75
     0
 76
     0
 77
     0
 78
     0
  0
ENDTAB
  0
TABLE
  2
LTYPE
 70
     1
  0
LTYPE
  2
CONTINUOUS
 70
     0
  3
Solid line
 72
    65
 73
     0
 40
0.0
  0
ENDTAB
  0
TABLE
  2
LAYER
 70
     1
  0
LAYER
  2
0
 70
     0
 62
     7
  6
CONTINUOUS
  0
ENDTAB
  0
TABLE
  2
STYLE
 70
     2
  0
STYLE
  2
STANDARD
 70
     0
 40
0.0
 41
1.0
 50
0.0
 71
     0
 42
2.5
  3
arial.ttf
  4

  0
STYLE
  2
ANNOTATIVE
 70
     0
 40
0.0
 41
1.0
 50
0.0
 71
     0
 42
2.5
  3
arial.ttf
  4

  0
ENDTAB
  0
TABLE
  2
VIEW
 70
     0
  0
ENDTAB
  0
TABLE
  2
UCS
 70
     0
  0
ENDTAB
  0
TABLE
  2
APPID
 70
     2
  0
APPID
  2
ACAD
 70
     0
  0
APPID
  2
ACADANNOTATIVE
 70
     0
  0
ENDTAB
  0
TABLE
  2
DIMSTYLE
 70
     2
  0
DIMSTYLE
  2
ISO-25
 70
     0
  3

  4

  5

  6

  7

 40
1.0
 41
2.5
 42
0.625
 43
3.75
 44
1.25
 45
0.0
 46
0.0
 47
0.0
 48
0.0
140
2.5
141
-2.5
142
0.0
143
0.03937007874016
144
1.0
145
0.0
146
1.0
147
0.625
 71
     0
 72
     0
 73
     0
 74
     0
 75
     0
 76
     0
 77
     1
 78
     8
170
     0
171
     3
172
     1
173
     0
174
     0
175
     0
176
     0
177
     0
178
     0
  0
DIMSTYLE
  2
ANNOTATIVE
 70
     0
  3

  4

  5

  6

  7

 40
0.0
 41
2.5
 42
0.625
 43
3.75
 44
1.25
 45
0.0
 46
0.0
 47
0.0
 48
0.0
140
2.5
141
-2.5
142
0.0
143
0.03937007874016
144
1.0
145
0.0
146
1.0
147
0.625
 71
     0
 72
     0
 73
     0
 74
     0
 75
     0
 76
     0
 77
     1
 78
     8
170
     0
171
     3
172
     1
173
     0
174
     0
175
     0
176
     0
177
     0
178
     0
  0
ENDTAB
  0
ENDSEC
  0
SECTION
  2
BLOCKS
  0
BLOCK
  8
0
  2
$MODEL_SPACE
 70
     0
 10
0.0
 20
0.0
 30
0.0
  3
$MODEL_SPACE
  1

  0
ENDBLK
  5
21
  8
0
  0
BLOCK
 67
     1
  8
0
  2
$PAPER_SPACE
 70
     0
 10
0.0
 20
0.0
 30
0.0
  3
$PAPER_SPACE
  1

  0
ENDBLK
  5
1D
 67
     1
  8
0
  0
BLOCK
  8
0
  2
*X1
 70
     1
 10
0.0
 20
0.0
 30
0.0
  3
*X1
  1

  0
POLYLINE
  5
2738
  8
0
 66
     1
 10
0.0
 20
0.0
 30
0.0
 70
    64
 71
    10
 72
     8
  0
VERTEX
  5
2739
  8
0
 10
-408.5000000000002
 20
4.999999999999993
 30
-215.0000000000005
 70
   192
  0
VERTEX
  5
273A
  8
0
 10
-421.5000000000002
 20
4.999999999999995
 30
-215.0000000000005
 70
   192
  0
VERTEX
  5
273B
  8
0
 10
-421.5000000000002
 20
4.999999999999995
 30
-235.0000000000005
 70
   192
  0
VERTEX
  5
273C
  8
0
 10
-408.5000000000001
 20
4.999999999999995
 30
-235.0000000000005
 70
   192
  0
VERTEX
  5
273D
  8
0
 10
-415.0000000000002
 20
-1.500000000000012
 30
-235.0000000000005
 70
   192
  0
VERTEX
  5
273E
  8
0
 10
-415.0000000000002
 20
-1.500000000000012
 30
-215.0000000000005
 70
   192
  0
VERTEX
  5
273F
  8
0
 10
-410.4038059222876
 20
0.4038059222874297
 30
-235.0000000000005
 70
   192
  0
VERTEX
  5
2740
  8
0
 10
-410.4038059222876
 20
0.4038059222874297
 30
-215.0000000000005
 70
   192
  0
VERTEX
  5
2741
  8
0
 10
-419.5961940777127
 20
0.4038059222874315
 30
-235.0000000000005
 70
   192
  0
VERTEX
  5
2742
  8
0
 10
-419.5961940777127
 20
0.4038059222874315
 30
-215.0000000000005
 70
   192
  0
VERTEX
  5
2743
  8
0
 10
0.0
 20
0.0
 30
0.0
 70
   128
 71
     8
 72
     1
 73
    -4
  0
VERTEX
  5
2744
  8
0
 10
0.0
 20
0.0
 30
0.0
 70
   128
 71
     7
 72
    -8
 73
     4
  0
VERTEX
  5
2745
  8
0
 10
0.0
 20
0.0
 30
0.0
 70
   128
 71
     6
 72
     8
 73
    -7
  0
VERTEX
  5
2746
  8
0
 10
0.0
 20
0.0
 30
0.0
 70
   128
 71
     5
 72
    -6
 73
     7
  0
VERTEX
  5
2747
  8
0
 10
0.0
 20
0.0
 30
0.0
 70
   128
 71
    10
 72
     6
 73
    -5
  0
VERTEX
  5
2748
  8
0
 10
0.0
 20
0.0
 30
0.0
 70
   128
 71
     9
 72
   -10
 73
     5
  0
VERTEX
  5
2749
  8
0
 10
0.0
 20
0.0
 30
0.0
 70
   128
 71
     2
 72
    10
 73
    -9
  0
VERTEX
  5
274A
  8
0
 10
0.0
 20
0.0
 30
0.0
 70
   128
 71
     3
 72
    -2
 73
     9
  0
SEQEND
  5
2BC1
  8
0
  0
POLYLINE
  5
274B
  8
0
 66
     1
 10
0.0
 20
0.0
 30
0.0
 70
    64
 71
    10
 72
     8
  0
VERTEX
  5
274C
  8
0
 10
-63.50000000000015
 20
4.999999999999993
 30
-215.0000000000005
 70
   192
  0
VERTEX
  5
274D
  8
0
 10
-76.50000000000018
 20
4.999999999999995
 30
-215.0000000000005
 70
   192
  0
VERTEX
  5
274E
  8
0
 10
-76.50000000000018
 20
4.999999999999995
 30
-235.0000000000005
 70
   192
  0
VERTEX
  5
274F
  8
0
 10
-63.50000000000016
 20
4.999999999999995
 30
-235.0000000000005
 70
   192
  0
VERTEX
  5
2750
  8
0
 10
-70.00000000000017
 20
-1.500000000000026
 30
-235.0000000000005
 70
   192
  0
VERTEX
  5
2751
  8
0
 10
-70.00000000000017
 20
-1.500000000000026
 30
-215.0000000000005
 70
   192
  0
VERTEX
  5
2752
  8
0
 10
-65.4038059222876
 20
0.40380592228742
 30
-235.0000000000005
 70
   192
  0
VERTEX
  5
2753
  8
0
 10
-65.4038059222876
 20
0.40380592228742
 30
-215.0000000000005
 70
   192
  0
VERTEX
  5
2754
  8
0
 10
-74.59619407771274
 20
0.4038059222874217
 30
-235.0000000000005
 70
   192
  0
VERTEX
  5
2755
  8
0
 10
-74.59619407771274
 20
0.4038059222874217
 30
-215.0000000000005
 70
   192
  0
VERTEX
  5
2756
  8
0
 10
0.0
 20
0.0
 30
0.0
 70
   128
 71
     8
 72
     1
 73
    -4
  0
VERTEX
  5
2757
  8
0
 10
0.0
 20
0.0
 30
0.0
 70
   128
 71
     7
 72
    -8
 73
     4
  0
VERTEX
  5
2758
  8
0
 10
0.0
 20
0.0
 30
0.0
 70
   128
 71
     6
 72
     8
 73
    -7
  0
VERTEX
  5
2759
  8
0
 10
0.0
 20
0.0
 30
0.0
 70
   128
 71
     5
 72
    -6
 73
     7
  0
VERTEX
  5
275A
  8
0
 10
0.0
 20
0.0
 30
0.0
 70
   128
 71
    10
 72
     6
 73
    -5
  0
VERTEX
  5
275B
  8
0
 10
0.0
 20
0.0
 30
0.0
 70
   128
 71
     9
 72
   -10
 73
     5
  0
VERTEX
  5
275C
  8
0
 10
0.0
 20
0.0
 30
0.0
 70
   128
 71
     2
 72
    10
 73
    -9
  0
VERTEX
  5
275D
  8
0
 10
0.0
 20
0.0
 30
0.0
 70
   128
 71
     3
 72
    -2
 73
     9
  0
SEQEND
  5
2BC2
  8
0
  0
POLYLINE
  5
275E
  8
0
 66
     1
 10
0.0
 20
0.0
 30
0.0
 70
    64
 71
    10
 72
     8
  0
VERTEX
  5
275F
  8
0
 10
76.50000000000018
 20
4.999999999999995
 30
-215.0000000000005
 70
   192
  0
VERTEX
  5
2760
  8
0
 10
63.50000000000015
 20
4.999999999999993
 30
-215.0000000000005
 70
   192
  0
VERTEX
  5
2761
  8
0
 10
63.50000000000015
 20
4.999999999999993
 30
-235.0000000000005
 70
   192
  0
VERTEX
  5
2762
  8
0
 10
76.5000000000002
 20
4.999999999999995
 30
-235.0000000000005
 70
   192
  0
VERTEX
  5
2763
  8
0
 10
70.00000000000017
 20
-1.500000000000026
 30
-235.0000000000005
 70
   192
  0
VERTEX
  5
2764
  8
0
 10
70.00000000000017
 20
-1.500000000000026
 30
-215.0000000000005
 70
   192
  0
VERTEX
  5
2765
  8
0
 10
74.59619407771274
 20
0.4038059222874217
 30
-235.0000000000005
 70
   192
  0
VERTEX
  5
2766
  8
0
 10
74.59619407771274
 20
0.4038059222874217
 30
-215.0000000000005
 70
   192
  0
VERTEX
  5
2767
  8
0
 10
65.4038059222876
 20
0.40380592228742
 30
-235.0000000000005
 70
   192
  0
VERTEX
  5
2768
  8
0
 10
65.4038059222876
 20
0.40380592228742
 30
-215.0000000000005
 70
   192
  0
VERTEX
  5
2769
  8
0
 10
0.0
 20
0.0
 30
0.0
 70
   128
 71
     8
 72
     1
 73
    -4
  0
VERTEX
  5
276A
  8
0
 10
0.0
 20
0.0
 30
0.0
 70
   128
 71
     7
 72
    -8
 73
     4
  0
VERTEX
  5
276B
  8
0
 10
0.0
 20
0.0
 30
0.0
 70
   128
 71
     6
 72
     8
 73
    -7
  0
VERTEX
  5
276C
  8
0
 10
0.0
 20
0.0
 30
0.0
 70
   128
 71
     5
 72
    -6
 73
     7
  0
VERTEX
  5
276D
  8
0
 10
0.0
 20
0.0
 30
0.0
 70
   128
 71
    10
 72
     6
 73
    -5
  0
VERTEX
  5
276E
  8
0
 10
0.0
 20
0.0
 30
0.0
 70
   128
 71
     9
 72
   -10
 73
     5
  0
VERTEX
  5
276F
  8
0
 10
0.0
 20
0.0
 30
0.0
 70
   128
 71
     2
 72
    10
 73
    -9
  0
VERTEX
  5
2770
  8
0
 10
0.0
 20
0.0
 30
0.0
 70
   128
 71
     3
 72
    -2
 73
     9
  0
SEQEND
  5
2BC3
  8
0
  0
POLYLINE
  5
2771
  8
0
 66
     1
 10
0.0
 20
0.0
 30
0.0
 70
    64
 71
    10
 72
     8
  0
VERTEX
  5
2772
  8
0
 10
421.5000000000002
 20
4.999999999999995
 30
-215.0000000000005
 70
   192
  0
VERTEX
  5
2773
  8
0
 10
408.5000000000002
 20
4.999999999999993
 30
-215.0000000000005
 70
   192
  0
VERTEX
  5
2774
  8
0
 10
408.5000000000002
 20
4.999999999999993
 30
-235.0000000000005
 70
   192
  0
VERTEX
  5
2775
  8
0
 10
421.5000000000002
 20
4.999999999999995
 30
-235.0000000000005
 70
   192
  0
VERTEX
  5
2776
  8
0
 10
415.0000000000002
 20
-1.500000000000012
 30
-235.0000000000005
 70
   192
  0
VERTEX
  5
2777
  8
0
 10
415.0000000000002
 20
-1.500000000000012
 30
-215.0000000000005
 70
   192
  0
VERTEX
  5
2778
  8
0
 10
419.5961940777127
 20
0.4038059222874315
 30
-235.0000000000005
 70
   192
  0
VERTEX
  5
2779
  8
0
 10
419.5961940777127
 20
0.4038059222874315
 30
-215.0000000000005
 70
   192
  0
VERTEX
  5
277A
  8
0
 10
410.4038059222876
 20
0.4038059222874297
 30
-235.0000000000005
 70
   192
  0
VERTEX
  5
277B
  8
0
 10
410.4038059222876
 20
0.4038059222874297
 30
-215.0000000000005
 70
   192
  0
VERTEX
  5
277C
  8
0
 10
0.0
 20
0.0
 30
0.0
 70
   128
 71
     8
 72
     1
 73
    -4
  0
VERTEX
  5
277D
  8
0
 10
0.0
 20
0.0
 30
0.0
 70
   128
 71
     7
 72
    -8
 73
     4
  0
VERTEX
  5
277E
  8
0
 10
0.0
 20
0.0
 30
0.0
 70
   128
 71
     6
 72
     8
 73
    -7
  0
VERTEX
  5
277F
  8
0
 10
0.0
 20
0.0
 30
0.0
 70
   128
 71
     5
 72
    -6
 73
     7
  0
VERTEX
  5
2780
  8
0
 10
0.0
 20
0.0
 30
0.0
 70
   128
 71
    10
 72
     6
 73
    -5
  0
VERTEX
  5
2781
  8
0
 10
0.0
 20
0.0
 30
0.0
 70
   128
 71
     9
 72
   -10
 73
     5
  0
VERTEX
  5
2782
  8
0
 10
0.0
 20
0.0
 30
0.0
 70
   128
 71
     2
 72
    10
 73
    -9
  0
VERTEX
  5
2783
  8
0
 10
0.0
 20
0.0
 30
0.0
 70
   128
 71
     3
 72
    -2
 73
     9
  0
SEQEND
  5
2BC4
  8
0
  0
POLYLINE
  5
2784
  8
0
 66
     1
 10
0.0
 20
0.0
 30
0.0
 70
    64
 71
    19
 72
    20
  0
VERTEX
  5
2785
  8
0
 10
262.0000000000001
 20
-41.29654104114397
 30
-105.4152957353614
 70
   192
  0
VERTEX
  5
2786
  8
0
 10
262.0000000000001
 20
-69.07417109108873
 30
-27.62041956018793
 70
   192
  0
VERTEX
  5
2787
  8
0
 10
285.0661198761593
 20
-69.07417109108872
 30
-18.06611987615916
 70
   192
  0
VERTEX
  5
2788
  8
0
 10
357.0000000000001
 20
-15.27199598670109
 30
-105.4152957353614
 70
   192
  0
VERTEX
  5
2789
  8
0
 10
294.6204195601881
 20
-69.07417109108872
 30
5.000000000000068
 70
   192
  0
VERTEX
  5
278A
  8
0
 10
357.6527056808667
 20
-49.2852166076585
 30
5.000000000000075
 70
   192
  0
VERTEX
  5
278B
  8
0
 10
262.0000000000001
 20
41.00000000000012
 30
-185.0
 70
   192
  0
VERTEX
  5
278C
  8
0
 10
167.0
 20
-15.27199598670111
 30
-105.4152957353614
 70
   192
  0
VERTEX
  5
278D
  8
0
 10
166.3472943191335
 20
-49.28521660765855
 30
5.000000000000064
 70
   192
  0
VERTEX
  5
278E
  8
0
 10
229.3795804398121
 20
-69.07417109108874
 30
5.00000000000006
 70
   192
  0
VERTEX
  5
278F
  8
0
 10
238.9338801238408
 20
-69.07417109108874
 30
-18.06611987615917
 70
   192
  0
VERTEX
  5
2790
  8
0
 10
97.45517328095661
 20
41.00000000000005
 30
-90.00000000000003
 70
   192
  0
VERTEX
  5
2791
  8
0
 10
71.99999999999994
 20
41.00000000000004
 30
4.99999999999999
 70
   192
  0
VERTEX
  5
2792
  8
0
 10
112.209405668537
 20
-11.4201822672278
 30
5.000000000000064
 70
   192
  0
VERTEX
  5
2793
  8
0
 10
411.790594331463
 20
-11.4201822672278
 30
5.000000000000083
 70
   192
  0
VERTEX
  5
2794
  8
0
 10
357.0000000000001
 20
41.00000000000016
 30
-159.5448267190433
 70
   192
  0
VERTEX
  5
2795
  8
0
 10
426.5448267190434
 20
41.00000000000019
 30
-89.99999999999994
 70
   192
  0
VERTEX
  5
2796
  8
0
 10
452.0000000000001
 20
41.00000000000014
 30
5.000000000000088
 70
   192
  0
VERTEX
  5
2797
  8
0
 10
167.0
 20
41.00000000000008
 30
-159.5448267190434
 70
   192
  0
VERTEX
  5
2798
  8
0
 10
0.0
 20
0.0
 30
0.0
 70
   128
 71
     1
 72
     2
 73
     3
  0
VERTEX
  5
2799
  8
0
 10
0.0
 20
0.0
 30
0.0
 70
   128
 71
     4
 72
     1
 73
     3
  0
VERTEX
  5
279A
  8
0
 10
0.0
 20
0.0
 30
0.0
 70
   128
 71
     3
 72
     5
 73
     6
  0
VERTEX
  5
279B
  8
0
 10
0.0
 20
0.0
 30
0.0
 70
   128
 71
     1
 72
     7
 73
     8
  0
VERTEX
  5
279C
  8
0
 10
0.0
 20
0.0
 30
0.0
 70
   128
 71
     9
 72
    10
 73
    11
  0
VERTEX
  5
279D
  8
0
 10
0.0
 20
0.0
 30
0.0
 70
   128
 71
    12
 72
    13
 73
    14
  0
VERTEX
  5
279E
  8
0
 10
0.0
 20
0.0
 30
0.0
 70
   128
 71
     8
 72
     9
 73
    11
  0
VERTEX
  5
279F
  8
0
 10
0.0
 20
0.0
 30
0.0
 70
   128
 71
     1
 72
     8
 73
    11
  0
VERTEX
  5
27A0
  8
0
 10
0.0
 20
0.0
 30
0.0
 70
   128
 71
    11
 72
     2
 73
     1
  0
VERTEX
  5
27A1
  8
0
 10
0.0
 20
0.0
 30
0.0
 70
   128
 71
     4
 72
     3
 73
     6
  0
VERTEX
  5
27A2
  8
0
 10
0.0
 20
0.0
 30
0.0
 70
   128
 71
    15
 72
     4
 73
     6
  0
VERTEX
  5
27A3
  8
0
 10
0.0
 20
0.0
 30
0.0
 70
   128
 71
     7
 72
     1
 73
     4
  0
VERTEX
  5
27A4
  8
0
 10
0.0
 20
0.0
 30
0.0
 70
   128
 71
    16
 72
     7
 73
     4
  0
VERTEX
  5
27A5
  8
0
 10
0.0
 20
0.0
 30
0.0
 70
   128
 71
    16
 72
     4
 73
    15
  0
VERTEX
  5
27A6
  8
0
 10
0.0
 20
0.0
 30
0.0
 70
   128
 71
    17
 72
    16
 73
    15
  0
VERTEX
  5
27A7
  8
0
 10
0.0
 20
0.0
 30
0.0
 70
   128
 71
    18
 72
    17
 73
    15
  0
VERTEX
  5
27A8
  8
0
 10
0.0
 20
0.0
 30
0.0
 70
   128
 71
    14
 72
     9
 73
     8
  0
VERTEX
  5
27A9
  8
0
 10
0.0
 20
0.0
 30
0.0
 70
   128
 71
    12
 72
    14
 73
     8
  0
VERTEX
  5
27AA
  8
0
 10
0.0
 20
0.0
 30
0.0
 70
   128
 71
    19
 72
    12
 73
     8
  0
VERTEX
  5
27AB
  8
0
 10
0.0
 20
0.0
 30
0.0
 70
   128
 71
     8
 72
     7
 73
    19
  0
SEQEND
  5
2BC5
  8
0
  0
POLYLINE
  5
27AC
  8
0
 66
     1
 10
0.0
 20
0.0
 30
0.0
 70
    64
 71
    10
 72
     8
  0
VERTEX
  5
27AD
  8
0
 10
284.5000000000001
 20
-76.07417109108873
 30
5.000000000000067
 70
   192
  0
VERTEX
  5
27AE
  8
0
 10
239.5
 20
-76.07417109108876
 30
5.000000000000061
 70
   192
  0
VERTEX
  5
27AF
  8
0
 10
229.3795804398121
 20
-69.07417109108874
 30
5.00000000000006
 70
   192
  0
VERTEX
  5
27B0
  8
0
 10
294.6204195601881
 20
-69.0741710910887
 30
5.000000000000068
 70
   192
  0
VERTEX
  5
27B1
  8
0
 10
262.0000000000001
 20
-69.07417109108873
 30
-27.62041956018793
 70
   192
  0
VERTEX
  5
27B2
  8
0
 10
262.0000000000001
 20
-76.07417109108874
 30
-17.50000000000001
 70
   192
  0
VERTEX
  5
27B3
  8
0
 10
285.0661198761593
 20
-69.07417109108872
 30
-18.06611987615916
 70
   192
  0
VERTEX
  5
27B4
  8
0
 10
277.9099025766974
 20
-76.07417109108873
 30
-10.90990257669731
 70
   192
  0
VERTEX
  5
27B5
  8
0
 10
238.9338801238408
 20
-69.07417109108874
 30
-18.06611987615917
 70
   192
  0
VERTEX
  5
27B6
  8
0
 10
246.0900974233027
 20
-76.07417109108876
 30
-10.90990257669731
 70
   192
  0
VERTEX
  5
27B7
  8
0
 10
0.0
 20
0.0
 30
0.0
 70
   128
 71
     8
 72
     1
 73
    -4
  0
VERTEX
  5
27B8
  8
0
 10
0.0
 20
0.0
 30
0.0
 70
   128
 71
     7
 72
    -8
 73
     4
  0
VERTEX
  5
27B9
  8
0
 10
0.0
 20
0.0
 30
0.0
 70
   128
 71
     6
 72
     8
 73
    -7
  0
VERTEX
  5
27BA
  8
0
 10
0.0
 20
0.0
 30
0.0
 70
   128
 71
     5
 72
    -6
 73
     7
  0
VERTEX
  5
27BB
  8
0
 10
0.0
 20
0.0
 30
0.0
 70
   128
 71
    10
 72
     6
 73
    -5
  0
VERTEX
  5
27BC
  8
0
 10
0.0
 20
0.0
 30
0.0
 70
   128
 71
     9
 72
   -10
 73
     5
  0
VERTEX
  5
27BD
  8
0
 10
0.0
 20
0.0
 30
0.0
 70
   128
 71
     2
 72
    10
 73
    -9
  0
VERTEX
  5
27BE
  8
0
 10
0.0
 20
0.0
 30
0.0
 70
   128
 71
     3
 72
    -2
 73
     9
  0
SEQEND
  5
2BC6
  8
0
  0
POLYLINE
  5
27BF
  8
0
 66
     1
 10
0.0
 20
0.0
 30
0.0
 70
    64
 71
    11
 72
     9
  0
VERTEX
  5
27C0
  8
0
 10
284.5000000000001
 20
-90.00000000000027
 30
5.000000000000076
 70
   192
  0
VERTEX
  5
27C1
  8
0
 10
284.5000000000002
 20
-76.07417109108874
 30
5.000000000000067
 70
   192
  0
VERTEX
  5
27C2
  8
0
 10
277.9099025766974
 20
-76.07417109108873
 30
-10.90990257669731
 70
   192
  0
VERTEX
  5
27C3
  8
0
 10
280.2028823734364
 20
-90.00000000000027
 30
-8.225168176580587
 70
   192
  0
VERTEX
  5
27C4
  8
0
 10
262.0000000000001
 20
-76.07417109108874
 30
-17.50000000000001
 70
   192
  0
VERTEX
  5
27C5
  8
0
 10
246.0900974233027
 20
-76.07417109108876
 30
-10.90990257669731
 70
   192
  0
VERTEX
  5
27C6
  8
0
 10
255.0471176265637
 20
-90.00000000000028
 30
-16.39877161664091
 70
   192
  0
VERTEX
  5
27C7
  8
0
 10
239.5
 20
-76.07417109108876
 30
5.000000000000061
 70
   192
  0
VERTEX
  5
27C8
  8
0
 10
239.5
 20
-90.0000000000003
 30
5.000000000000069
 70
   192
  0
VERTEX
  5
27C9
  8
0
 10
243.7971176265637
 20
-90.0000000000003
 30
-8.225168176580592
 70
   192
  0
VERTEX
  5
27CA
  8
0
 10
268.9528823734364
 20
-90.00000000000028
 30
-16.39877161664091
 70
   192
  0
VERTEX
  5
27CB
  8
0
 10
0.0
 20
0.0
 30
0.0
 70
   128
 71
     1
 72
     2
 73
     3
  0
VERTEX
  5
27CC
  8
0
 10
0.0
 20
0.0
 30
0.0
 70
   128
 71
     4
 72
     1
 73
     3
  0
VERTEX
  5
27CD
  8
0
 10
0.0
 20
0.0
 30
0.0
 70
   128
 71
     5
 72
     6
 73
     7
  0
VERTEX
  5
27CE
  8
0
 10
0.0
 20
0.0
 30
0.0
 70
   128
 71
     8
 72
     9
 73
    10
  0
VERTEX
  5
27CF
  8
0
 10
0.0
 20
0.0
 30
0.0
 70
   128
 71
     6
 72
     8
 73
    10
  0
VERTEX
  5
27D0
  8
0
 10
0.0
 20
0.0
 30
0.0
 70
   128
 71
     5
 72
     7
 73
    11
  0
VERTEX
  5
27D1
  8
0
 10
0.0
 20
0.0
 30
0.0
 70
   128
 71
     5
 72
    11
 73
     4
  0
VERTEX
  5
27D2
  8
0
 10
0.0
 20
0.0
 30
0.0
 70
   128
 71
     3
 72
     5
 73
     4
  0
VERTEX
  5
27D3
  8
0
 10
0.0
 20
0.0
 30
0.0
 70
   128
 71
     6
 72
    10
 73
     7
  0
SEQEND
  5
2BC7
  8
0
  0
POLYLINE
  5
27D4
  8
0
 66
     1
 10
0.0
 20
0.0
 30
0.0
 70
    64
 71
    10
 72
     8
  0
VERTEX
  5
27D5
  8
0
 10
89.99999999999942
 20
41.00000000000004
 30
-183.9999999999999
 70
   192
  0
VERTEX
  5
27D6
  8
0
 10
89.99999999999942
 20
41.00000000000004
 30
-149.9999999999999
 70
   192
  0
VERTEX
  5
27D7
  8
0
 10
89.99999999999942
 20
59.99999999999999
 30
-149.9999999999999
 70
   192
  0
VERTEX
  5
27D8
  8
0
 10
89.99999999999942
 20
59.99999999999999
 30
-183.9999999999999
 70
   192
  0
VERTEX
  5
27D9
  8
0
 10
72.99999999999943
 20
59.99999999999999
 30
-166.9999999999999
 70
   192
  0
VERTEX
  5
27DA
  8
0
 10
72.99999999999943
 20
41.00000000000004
 30
-166.9999999999999
 70
   192
  0
VERTEX
  5
27DB
  8
0
 10
77.97918471982813
 20
59.99999999999999
 30
-179.0208152801712
 70
   192
  0
VERTEX
  5
27DC
  8
0
 10
77.97918471982811
 20
41.00000000000004
 30
-179.0208152801712
 70
   192
  0
VERTEX
  5
27DD
  8
0
 10
77.97918471982811
 20
59.99999999999999
 30
-154.9791847198287
 70
   192
  0
VERTEX
  5
27DE
  8
0
 10
77.97918471982813
 20
41.00000000000004
 30
-154.9791847198287
 70
   192
  0
VERTEX
  5
27DF
  8
0
 10
0.0
 20
0.0
 30
0.0
 70
   128
 71
     8
 72
     1
 73
    -4
  0
VERTEX
  5
27E0
  8
0
 10
0.0
 20
0.0
 30
0.0
 70
   128
 71
     7
 72
    -8
 73
     4
  0
VERTEX
  5
27E1
  8
0
 10
0.0
 20
0.0
 30
0.0
 70
   128
 71
     6
 72
     8
 73
    -7
  0
VERTEX
  5
27E2
  8
0
 10
0.0
 20
0.0
 30
0.0
 70
   128
 71
     5
 72
    -6
 73
     7
  0
VERTEX
  5
27E3
  8
0
 10
0.0
 20
0.0
 30
0.0
 70
   128
 71
    10
 72
     6
 73
    -5
  0
VERTEX
  5
27E4
  8
0
 10
0.0
 20
0.0
 30
0.0
 70
   128
 71
     9
 72
   -10
 73
     5
  0
VERTEX
  5
27E5
  8
0
 10
0.0
 20
0.0
 30
0.0
 70
   128
 71
     2
 72
    10
 73
    -9
  0
VERTEX
  5
27E6
  8
0
 10
0.0
 20
0.0
 30
0.0
 70
   128
 71
     3
 72
    -2
 73
     9
  0
SEQEND
  5
2BC8
  8
0
  0
POLYLINE
  5
27E7
  8
0
 66
     1
 10
0.0
 20
0.0
 30
0.0
 70
    64
 71
    13
 72
    11
  0
VERTEX
  5
27E8
  8
0
 10
262.0000000000001
 20
41.00000000000012
 30
-185.0
 70
   192
  0
VERTEX
  5
27E9
  8
0
 10
262.0
 20
59.99999999999999
 30
-185.0000000000001
 70
   192
  0
VERTEX
  5
27EA
  8
0
 10
150.3208020644301
 20
59.99999999999999
 30
-148.7132289312401
 70
   192
  0
VERTEX
  5
27EB
  8
0
 10
167.0
 20
41.00000000000008
 30
-159.5448267190434
 70
   192
  0
VERTEX
  5
27EC
  8
0
 10
97.45517328095659
 20
41.00000000000005
 30
100.0000000000001
 70
   192
  0
VERTEX
  5
27ED
  8
0
 10
71.99999999999994
 20
41.00000000000004
 30
5.000000000000064
 70
   192
  0
VERTEX
  5
27EE
  8
0
 10
81.29926190392072
 20
60.00000000000001
 30
63.71322893123997
 70
   192
  0
VERTEX
  5
27EF
  8
0
 10
261.9999999999999
 20
60.00000000000003
 30
195.0000000000001
 70
   192
  0
VERTEX
  5
27F0
  8
0
 10
262.0
 20
41.00000000000012
 30
195.0
 70
   192
  0
VERTEX
  5
27F1
  8
0
 10
166.9999999999999
 20
41.00000000000008
 30
169.5448267190434
 70
   192
  0
VERTEX
  5
27F2
  8
0
 10
150.32080206443
 20
60.00000000000002
 30
158.71322893124
 70
   192
  0
VERTEX
  5
27F3
  8
0
 10
97.45517328095661
 20
41.00000000000005
 30
-90.00000000000003
 70
   192
  0
VERTEX
  5
27F4
  8
0
 10
81.29926190392075
 20
60.0
 30
-53.7132289312401
 70
   192
  0
VERTEX
  5
27F5
  8
0
 10
0.0
 20
0.0
 30
0.0
 70
   128
 71
     1
 72
     2
 73
     3
  0
VERTEX
  5
27F6
  8
0
 10
0.0
 20
0.0
 30
0.0
 70
   128
 71
     4
 72
     1
 73
     3
  0
VERTEX
  5
27F7
  8
0
 10
0.0
 20
0.0
 30
0.0
 70
   128
 71
     5
 72
     6
 73
     7
  0
VERTEX
  5
27F8
  8
0
 10
0.0
 20
0.0
 30
0.0
 70
   128
 71
     8
 72
     9
 73
    10
  0
VERTEX
  5
27F9
  8
0
 10
0.0
 20
0.0
 30
0.0
 70
   128
 71
    11
 72
     8
 73
    10
  0
VERTEX
  5
27FA
  8
0
 10
0.0
 20
0.0
 30
0.0
 70
   128
 71
     6
 72
    12
 73
    13
  0
VERTEX
  5
27FB
  8
0
 10
0.0
 20
0.0
 30
0.0
 70
   128
 71
     7
 72
     6
 73
    13
  0
VERTEX
  5
27FC
  8
0
 10
0.0
 20
0.0
 30
0.0
 70
   128
 71
    12
 72
     4
 73
     3
  0
VERTEX
  5
27FD
  8
0
 10
0.0
 20
0.0
 30
0.0
 70
   128
 71
    13
 72
    12
 73
     3
  0
VERTEX
  5
27FE
  8
0
 10
0.0
 20
0.0
 30
0.0
 70
   128
 71
    10
 72
     5
 73
     7
  0
VERTEX
  5
27FF
  8
0
 10
0.0
 20
0.0
 30
0.0
 70
   128
 71
    11
 72
    10
 73
     7
  0
SEQEND
  5
2BC9
  8
0
  0
POLYLINE
  5
2800
  8
0
 66
     1
 10
0.0
 20
0.0
 30
0.0
 70
    64
 71
    18
 72
    19
  0
VERTEX
  5
2801
  8
0
 10
277.9099025766974
 20
-90.00000000000027
 30
20.90990257669741
 70
   192
  0
VERTEX
  5
2802
  8
0
 10
284.5000000000001
 20
-90.00000000000027
 30
5.000000000000077
 70
   192
  0
VERTEX
  5
2803
  8
0
 10
361.5393550526992
 20
-69.07419109253331
 30
5.000000000000076
 70
   192
  0
VERTEX
  5
2804
  8
0
 10
370.9033733441996
 20
-29.69746042342888
 30
120.6085504270087
 70
   192
  0
VERTEX
  5
2805
  8
0
 10
262.0
 20
-60.84535824384292
 30
120.6085504270087
 70
   192
  0
VERTEX
  5
2806
  8
0
 10
262.0000000000001
 20
-90.00000000000028
 30
27.50000000000009
 70
   192
  0
VERTEX
  5
2807
  8
0
 10
246.0900974233027
 20
-90.0000000000003
 30
20.9099025766974
 70
   192
  0
VERTEX
  5
2808
  8
0
 10
153.0966266558003
 20
-29.69746042342885
 30
120.6085504270087
 70
   192
  0
VERTEX
  5
2809
  8
0
 10
162.4606449473009
 20
-69.07419109253343
 30
5.000000000000064
 70
   192
  0
VERTEX
  5
280A
  8
0
 10
239.5000000000002
 20
-90.00000000000028
 30
5.000000000000064
 70
   192
  0
VERTEX
  5
280B
  8
0
 10
50.0
 20
41.00000000000004
 30
5.000000000000052
 70
   192
  0
VERTEX
  5
280C
  8
0
 10
96.79323766010108
 20
-23.67878025019468
 30
5.000000000000064
 70
   192
  0
VERTEX
  5
280D
  8
0
 10
433.5116028074888
 20
41.00000000000004
 30
129.6104734860044
 70
   192
  0
VERTEX
  5
280E
  8
0
 10
327.5116028074888
 20
41.00000000000004
 30
206.6239814545726
 70
   192
  0
VERTEX
  5
280F
  8
0
 10
196.4883971925111
 20
41.00000000000004
 30
206.6239814545726
 70
   192
  0
VERTEX
  5
2810
  8
0
 10
427.2067623398989
 20
-23.67878025019468
 30
5.000000000000084
 70
   192
  0
VERTEX
  5
2811
  8
0
 10
474.0
 20
41.00000000000001
 30
5.00000000000009
 70
   192
  0
VERTEX
  5
2812
  8
0
 10
90.48839719251112
 20
41.00000000000004
 30
129.6104734860044
 70
   192
  0
VERTEX
  5
2813
  8
0
 10
0.0
 20
0.0
 30
0.0
 70
   128
 71
     1
 72
     2
 73
     3
  0
VERTEX
  5
2814
  8
0
 10
0.0
 20
0.0
 30
0.0
 70
   128
 71
     1
 72
     3
 73
     4
  0
VERTEX
  5
2815
  8
0
 10
0.0
 20
0.0
 30
0.0
 70
   128
 71
     1
 72
     4
 73
     5
  0
VERTEX
  5
2816
  8
0
 10
0.0
 20
0.0
 30
0.0
 70
   128
 71
     5
 72
     6
 73
     1
  0
VERTEX
  5
2817
  8
0
 10
0.0
 20
0.0
 30
0.0
 70
   128
 71
     7
 72
     6
 73
     5
  0
VERTEX
  5
2818
  8
0
 10
0.0
 20
0.0
 30
0.0
 70
   128
 71
     5
 72
     8
 73
     9
  0
VERTEX
  5
2819
  8
0
 10
0.0
 20
0.0
 30
0.0
 70
   128
 71
     5
 72
     9
 73
    10
  0
VERTEX
  5
281A
  8
0
 10
0.0
 20
0.0
 30
0.0
 70
   128
 71
     5
 72
    10
 73
     7
  0
VERTEX
  5
281B
  8
0
 10
0.0
 20
0.0
 30
0.0
 70
   128
 71
     8
 72
    11
 73
    12
  0
VERTEX
  5
281C
  8
0
 10
0.0
 20
0.0
 30
0.0
 70
   128
 71
    12
 72
     9
 73
     8
  0
VERTEX
  5
281D
  8
0
 10
0.0
 20
0.0
 30
0.0
 70
   128
 71
     4
 72
    13
 73
    14
  0
VERTEX
  5
281E
  8
0
 10
0.0
 20
0.0
 30
0.0
 70
   128
 71
    14
 72
     5
 73
     4
  0
VERTEX
  5
281F
  8
0
 10
0.0
 20
0.0
 30
0.0
 70
   128
 71
    14
 72
    15
 73
     8
  0
VERTEX
  5
2820
  8
0
 10
0.0
 20
0.0
 30
0.0
 70
   128
 71
    14
 72
     8
 73
     5
  0
VERTEX
  5
2821
  8
0
 10
0.0
 20
0.0
 30
0.0
 70
   128
 71
     3
 72
    16
 73
     4
  0
VERTEX
  5
2822
  8
0
 10
0.0
 20
0.0
 30
0.0
 70
   128
 71
    13
 72
     4
 73
    16
  0
VERTEX
  5
2823
  8
0
 10
0.0
 20
0.0
 30
0.0
 70
   128
 71
    13
 72
    16
 73
    17
  0
VERTEX
  5
2824
  8
0
 10
0.0
 20
0.0
 30
0.0
 70
   128
 71
    11
 72
     8
 73
    15
  0
VERTEX
  5
2825
  8
0
 10
0.0
 20
0.0
 30
0.0
 70
   128
 71
    11
 72
    15
 73
    18
  0
SEQEND
  5
2BCA
  8
0
  0
POLYLINE
  5
2826
  8
0
 66
     1
 10
0.0
 20
0.0
 30
0.0
 70
    64
 71
    62
 72
    68
  0
VERTEX
  5
2827
  8
0
 10
470.0
 20
41.00000000000004
 30
-215.0
 70
   192
  0
VERTEX
  5
2828
  8
0
 10
400.5000000000002
 20
41.00000000000004
 30
-215.0
 70
   192
  0
VERTEX
  5
2829
  8
0
 10
395.9620834398409
 20
-32.51424827458016
 30
-215.0
 70
   192
  0
VERTEX
  5
282A
  8
0
 10
393.4642303117093
 20
-37.8346906607351
 30
-215.0
 70
   192
  0
VERTEX
  5
282B
  8
0
 10
388.0000000000001
 20
-39.99999999999992
 30
-215.0
 70
   192
  0
VERTEX
  5
282C
  8
0
 10
382.5357696882908
 20
-37.83469066073512
 30
-215.0
 70
   192
  0
VERTEX
  5
282D
  8
0
 10
380.0379165601593
 20
-32.51424827458018
 30
-215.0
 70
   192
  0
VERTEX
  5
282E
  8
0
 10
375.5000000000001
 20
41.00000000000006
 30
-215.0
 70
   192
  0
VERTEX
  5
282F
  8
0
 10
147.5000000000001
 20
41.00000000000004
 30
-215.0
 70
   192
  0
VERTEX
  5
2830
  8
0
 10
142.9620834398408
 20
-32.5142482745802
 30
-215.0
 70
   192
  0
VERTEX
  5
2831
  8
0
 10
140.4642303117095
 20
-37.83469066073515
 30
-215.0
 70
   192
  0
VERTEX
  5
2832
  8
0
 10
135.0000000000002
 20
-39.99999999999995
 30
-215.0
 70
   192
  0
VERTEX
  5
2833
  8
0
 10
129.5357696882909
 20
-37.83469066073513
 30
-215.0
 70
   192
  0
VERTEX
  5
2834
  8
0
 10
127.0379165601595
 20
-32.51424827458019
 30
-215.0
 70
   192
  0
VERTEX
  5
2835
  8
0
 10
122.5
 20
41.00000000000004
 30
-215.0
 70
   192
  0
VERTEX
  5
2836
  8
0
 10
-470.0000000000001
 20
41.00000000000004
 30
-215.0
 70
   192
  0
VERTEX
  5
2837
  8
0
 10
-465.0000000000001
 20
39.66025403784432
 30
-215.0
 70
   192
  0
VERTEX
  5
2838
  8
0
 10
-461.3397459621557
 20
35.99999999999995
 30
-215.0
 70
   192
  0
VERTEX
  5
2839
  8
0
 10
-460.0000000000001
 20
30.99999999999997
 30
-215.0
 70
   192
  0
VERTEX
  5
283A
  8
0
 10
-460.0
 20
-10.00000000000001
 30
-215.0
 70
   192
  0
VERTEX
  5
283B
  8
0
 10
-453.301270189222
 20
-35.00000000000003
 30
-215.0
 70
   192
  0
VERTEX
  5
283C
  8
0
 10
-435.0000000000001
 20
-53.30127018922194
 30
-215.0
 70
   192
  0
VERTEX
  5
283D
  8
0
 10
-410.0000000000001
 20
-60.0
 30
-215.0
 70
   192
  0
VERTEX
  5
283E
  8
0
 10
410.0
 20
-60.00000000000002
 30
-215.0
 70
   192
  0
VERTEX
  5
283F
  8
0
 10
435.0
 20
-53.30127018922193
 30
-215.0
 70
   192
  0
VERTEX
  5
2840
  8
0
 10
453.3012701892219
 20
-35.00000000000001
 30
-215.0
 70
   192
  0
VERTEX
  5
2841
  8
0
 10
460.0
 20
-10.00000000000002
 30
-215.0
 70
   192
  0
VERTEX
  5
2842
  8
0
 10
459.9999999999999
 20
30.99999999999998
 30
-215.0
 70
   192
  0
VERTEX
  5
2843
  8
0
 10
461.3397459621557
 20
35.99999999999999
 30
-215.0
 70
   192
  0
VERTEX
  5
2844
  8
0
 10
465.0000000000001
 20
39.66025403784437
 30
-215.0
 70
   192
  0
VERTEX
  5
2845
  8
0
 10
63.50000000000015
 20
4.999999999999994
 30
-215.0000000000005
 70
   192
  0
VERTEX
  5
2846
  8
0
 10
65.4038059222876
 20
9.596194077712568
 30
-215.0000000000005
 70
   192
  0
VERTEX
  5
2847
  8
0
 10
70.00000000000017
 20
11.50000000000001
 30
-215.0000000000005
 70
   192
  0
VERTEX
  5
2848
  8
0
 10
74.59619407771274
 20
9.596194077712568
 30
-215.0000000000005
 70
   192
  0
VERTEX
  5
2849
  8
0
 10
76.5000000000002
 20
4.999999999999994
 30
-215.0000000000005
 70
   192
  0
VERTEX
  5
284A
  8
0
 10
74.59619407771274
 20
0.4038059222874217
 30
-215.0000000000005
 70
   192
  0
VERTEX
  5
284B
  8
0
 10
70.00000000000017
 20
-1.500000000000026
 30
-215.0000000000005
 70
   192
  0
VERTEX
  5
284C
  8
0
 10
65.4038059222876
 20
0.40380592228742
 30
-215.0000000000005
 70
   192
  0
VERTEX
  5
284D
  8
0
 10
408.5000000000002
 20
4.999999999999994
 30
-215.0000000000005
 70
   192
  0
VERTEX
  5
284E
  8
0
 10
410.4038059222876
 20
9.596194077712557
 30
-215.0000000000005
 70
   192
  0
VERTEX
  5
284F
  8
0
 10
415.0000000000002
 20
11.5
 30
-215.0000000000005
 70
   192
  0
VERTEX
  5
2850
  8
0
 10
419.5961940777127
 20
9.596194077712557
 30
-215.0000000000005
 70
   192
  0
VERTEX
  5
2851
  8
0
 10
421.5000000000002
 20
4.999999999999994
 30
-215.0000000000005
 70
   192
  0
VERTEX
  5
2852
  8
0
 10
419.5961940777127
 20
0.4038059222874315
 30
-215.0000000000005
 70
   192
  0
VERTEX
  5
2853
  8
0
 10
415.0000000000002
 20
-1.500000000000012
 30
-215.0000000000005
 70
   192
  0
VERTEX
  5
2854
  8
0
 10
410.4038059222876
 20
0.4038059222874297
 30
-215.0000000000005
 70
   192
  0
VERTEX
  5
2855
  8
0
 10
-63.50000000000015
 20
4.999999999999993
 30
-215.0000000000005
 70
   192
  0
VERTEX
  5
2856
  8
0
 10
-65.4038059222876
 20
0.40380592228742
 30
-215.0000000000005
 70
   192
  0
VERTEX
  5
2857
  8
0
 10
-70.00000000000017
 20
-1.500000000000026
 30
-215.0000000000005
 70
   192
  0
VERTEX
  5
2858
  8
0
 10
-74.59619407771274
 20
0.4038059222874217
 30
-215.0000000000005
 70
   192
  0
VERTEX
  5
2859
  8
0
 10
-76.50000000000018
 20
4.999999999999995
 30
-215.0000000000005
 70
   192
  0
VERTEX
  5
285A
  8
0
 10
-74.59619407771274
 20
9.596194077712566
 30
-215.0000000000005
 70
   192
  0
VERTEX
  5
285B
  8
0
 10
-70.00000000000017
 20
11.50000000000001
 30
-215.0000000000005
 70
   192
  0
VERTEX
  5
285C
  8
0
 10
-65.4038059222876
 20
9.596194077712568
 30
-215.0000000000005
 70
   192
  0
VERTEX
  5
285D
  8
0
 10
-408.5000000000002
 20
4.999999999999993
 30
-215.0000000000005
 70
   192
  0
VERTEX
  5
285E
  8
0
 10
-410.4038059222876
 20
0.4038059222874297
 30
-215.0000000000005
 70
   192
  0
VERTEX
  5
285F
  8
0
 10
-415.0000000000002
 20
-1.500000000000012
 30
-215.0000000000005
 70
   192
  0
VERTEX
  5
2860
  8
0
 10
-419.5961940777127
 20
0.4038059222874315
 30
-215.0000000000005
 70
   192
  0
VERTEX
  5
2861
  8
0
 10
-421.5000000000002
 20
4.999999999999995
 30
-215.0000000000005
 70
   192
  0
VERTEX
  5
2862
  8
0
 10
-419.5961940777127
 20
9.596194077712557
 30
-215.0000000000005
 70
   192
  0
VERTEX
  5
2863
  8
0
 10
-415.0000000000002
 20
11.5
 30
-215.0000000000005
 70
   192
  0
VERTEX
  5
2864
  8
0
 10
-410.4038059222876
 20
9.596194077712557
 30
-215.0000000000005
 70
   192
  0
VERTEX
  5
2865
  8
0
 10
0.0
 20
0.0
 30
0.0
 70
   128
 71
   -31
 72
    47
 73
   -48
  0
VERTEX
  5
2866
  8
0
 10
0.0
 20
0.0
 30
0.0
 70
   128
 71
    38
 72
   -31
 73
   -48
  0
VERTEX
  5
2867
  8
0
 10
0.0
 20
0.0
 30
0.0
 70
   128
 71
    48
 72
   -49
 73
   -38
  0
VERTEX
  5
2868
  8
0
 10
0.0
 20
0.0
 30
0.0
 70
   128
 71
   -23
 72
   -38
 73
   -49
  0
VERTEX
  5
2869
  8
0
 10
0.0
 20
0.0
 30
0.0
 70
   128
 71
    49
 72
   -50
 73
   -23
  0
VERTEX
  5
286A
  8
0
 10
0.0
 20
0.0
 30
0.0
 70
   128
 71
    15
 72
    16
 73
   -17
  0
VERTEX
  5
286B
  8
0
 10
0.0
 20
0.0
 30
0.0
 70
   128
 71
    17
 72
   -18
 73
   -15
  0
VERTEX
  5
286C
  8
0
 10
0.0
 20
0.0
 30
0.0
 70
   128
 71
    18
 72
   -19
 73
   -15
  0
VERTEX
  5
286D
  8
0
 10
0.0
 20
0.0
 30
0.0
 70
   128
 71
    -2
 72
    39
 73
   -40
  0
VERTEX
  5
286E
  8
0
 10
0.0
 20
0.0
 30
0.0
 70
   128
 71
    40
 72
   -41
 73
    -2
  0
VERTEX
  5
286F
  8
0
 10
0.0
 20
0.0
 30
0.0
 70
   128
 71
    41
 72
   -42
 73
    -2
  0
VERTEX
  5
2870
  8
0
 10
0.0
 20
0.0
 30
0.0
 70
   128
 71
   -28
 72
    -2
 73
   -42
  0
VERTEX
  5
2871
  8
0
 10
0.0
 20
0.0
 30
0.0
 70
   128
 71
    27
 72
   -28
 73
   -42
  0
VERTEX
  5
2872
  8
0
 10
0.0
 20
0.0
 30
0.0
 70
   128
 71
    42
 72
   -43
 73
   -27
  0
VERTEX
  5
2873
  8
0
 10
0.0
 20
0.0
 30
0.0
 70
   128
 71
    28
 72
   -29
 73
    -2
  0
VERTEX
  5
2874
  8
0
 10
0.0
 20
0.0
 30
0.0
 70
   128
 71
    29
 72
   -30
 73
    -2
  0
VERTEX
  5
2875
  8
0
 10
0.0
 20
0.0
 30
0.0
 70
   128
 71
    30
 72
     1
 73
    -2
  0
VERTEX
  5
2876
  8
0
 10
0.0
 20
0.0
 30
0.0
 70
   128
 71
    43
 72
   -44
 73
   -27
  0
VERTEX
  5
2877
  8
0
 10
0.0
 20
0.0
 30
0.0
 70
   128
 71
    25
 72
    26
 73
   -27
  0
VERTEX
  5
2878
  8
0
 10
0.0
 20
0.0
 30
0.0
 70
   128
 71
   -45
 72
   -25
 73
   -27
  0
VERTEX
  5
2879
  8
0
 10
0.0
 20
0.0
 30
0.0
 70
   128
 71
    44
 72
   -45
 73
   -27
  0
VERTEX
  5
287A
  8
0
 10
0.0
 20
0.0
 30
0.0
 70
   128
 71
    -3
 72
    24
 73
   -25
  0
VERTEX
  5
287B
  8
0
 10
0.0
 20
0.0
 30
0.0
 70
   128
 71
   -46
 72
    -3
 73
   -25
  0
VERTEX
  5
287C
  8
0
 10
0.0
 20
0.0
 30
0.0
 70
   128
 71
    45
 72
   -46
 73
   -25
  0
VERTEX
  5
287D
  8
0
 10
0.0
 20
0.0
 30
0.0
 70
   128
 71
    46
 72
   -39
 73
    -3
  0
VERTEX
  5
287E
  8
0
 10
0.0
 20
0.0
 30
0.0
 70
   128
 71
   -39
 72
     2
 73
    -3
  0
VERTEX
  5
287F
  8
0
 10
0.0
 20
0.0
 30
0.0
 70
   128
 71
     3
 72
    -4
 73
   -24
  0
VERTEX
  5
2880
  8
0
 10
0.0
 20
0.0
 30
0.0
 70
   128
 71
     4
 72
    -5
 73
   -24
  0
VERTEX
  5
2881
  8
0
 10
0.0
 20
0.0
 30
0.0
 70
   128
 71
     5
 72
    -6
 73
   -24
  0
VERTEX
  5
2882
  8
0
 10
0.0
 20
0.0
 30
0.0
 70
   128
 71
   -10
 72
   -24
 73
    -6
  0
VERTEX
  5
2883
  8
0
 10
0.0
 20
0.0
 30
0.0
 70
   128
 71
     6
 72
    -7
 73
   -10
  0
VERTEX
  5
2884
  8
0
 10
0.0
 20
0.0
 30
0.0
 70
   128
 71
     8
 72
     9
 73
   -10
  0
VERTEX
  5
2885
  8
0
 10
0.0
 20
0.0
 30
0.0
 70
   128
 71
     7
 72
    -8
 73
   -10
  0
VERTEX
  5
2886
  8
0
 10
0.0
 20
0.0
 30
0.0
 70
   128
 71
    10
 72
   -11
 73
   -24
  0
VERTEX
  5
2887
  8
0
 10
0.0
 20
0.0
 30
0.0
 70
   128
 71
    11
 72
   -12
 73
   -24
  0
VERTEX
  5
2888
  8
0
 10
0.0
 20
0.0
 30
0.0
 70
   128
 71
    23
 72
   -24
 73
   -12
  0
VERTEX
  5
2889
  8
0
 10
0.0
 20
0.0
 30
0.0
 70
   128
 71
    12
 72
   -13
 73
   -23
  0
VERTEX
  5
288A
  8
0
 10
0.0
 20
0.0
 30
0.0
 70
   128
 71
    13
 72
   -14
 73
   -23
  0
VERTEX
  5
288B
  8
0
 10
0.0
 20
0.0
 30
0.0
 70
   128
 71
   -47
 72
    31
 73
   -32
  0
VERTEX
  5
288C
  8
0
 10
0.0
 20
0.0
 30
0.0
 70
   128
 71
   -55
 72
    51
 73
   -52
  0
VERTEX
  5
288D
  8
0
 10
0.0
 20
0.0
 30
0.0
 70
   128
 71
    52
 72
   -53
 73
   -55
  0
VERTEX
  5
288E
  8
0
 10
0.0
 20
0.0
 30
0.0
 70
   128
 71
   -51
 72
    55
 73
   -56
  0
VERTEX
  5
288F
  8
0
 10
0.0
 20
0.0
 30
0.0
 70
   128
 71
    50
 72
   -51
 73
   -56
  0
VERTEX
  5
2890
  8
0
 10
0.0
 20
0.0
 30
0.0
 70
   128
 71
   -23
 72
   -50
 73
   -56
  0
VERTEX
  5
2891
  8
0
 10
0.0
 20
0.0
 30
0.0
 70
   128
 71
   -57
 72
    22
 73
   -23
  0
VERTEX
  5
2892
  8
0
 10
0.0
 20
0.0
 30
0.0
 70
   128
 71
    56
 72
   -57
 73
   -23
  0
VERTEX
  5
2893
  8
0
 10
0.0
 20
0.0
 30
0.0
 70
   128
 71
    20
 72
    21
 73
   -22
  0
VERTEX
  5
2894
  8
0
 10
0.0
 20
0.0
 30
0.0
 70
   128
 71
   -58
 72
   -20
 73
   -22
  0
VERTEX
  5
2895
  8
0
 10
0.0
 20
0.0
 30
0.0
 70
   128
 71
    57
 72
   -58
 73
   -22
  0
VERTEX
  5
2896
  8
0
 10
0.0
 20
0.0
 30
0.0
 70
   128
 71
    58
 72
   -59
 73
   -20
  0
VERTEX
  5
2897
  8
0
 10
0.0
 20
0.0
 30
0.0
 70
   128
 71
   -60
 72
    19
 73
   -20
  0
VERTEX
  5
2898
  8
0
 10
0.0
 20
0.0
 30
0.0
 70
   128
 71
    59
 72
   -60
 73
   -20
  0
VERTEX
  5
2899
  8
0
 10
0.0
 20
0.0
 30
0.0
 70
   128
 71
    60
 72
   -61
 73
   -19
  0
VERTEX
  5
289A
  8
0
 10
0.0
 20
0.0
 30
0.0
 70
   128
 71
    61
 72
   -62
 73
   -19
  0
VERTEX
  5
289B
  8
0
 10
0.0
 20
0.0
 30
0.0
 70
   128
 71
   -15
 72
   -19
 73
   -62
  0
VERTEX
  5
289C
  8
0
 10
0.0
 20
0.0
 30
0.0
 70
   128
 71
   -53
 72
   -15
 73
   -62
  0
VERTEX
  5
289D
  8
0
 10
0.0
 20
0.0
 30
0.0
 70
   128
 71
    62
 72
   -55
 73
   -53
  0
VERTEX
  5
289E
  8
0
 10
0.0
 20
0.0
 30
0.0
 70
   128
 71
    53
 72
   -54
 73
   -15
  0
VERTEX
  5
289F
  8
0
 10
0.0
 20
0.0
 30
0.0
 70
   128
 71
   -47
 72
   -32
 73
   -15
  0
VERTEX
  5
28A0
  8
0
 10
0.0
 20
0.0
 30
0.0
 70
   128
 71
    54
 72
   -47
 73
   -15
  0
VERTEX
  5
28A1
  8
0
 10
0.0
 20
0.0
 30
0.0
 70
   128
 71
    32
 72
   -33
 73
   -15
  0
VERTEX
  5
28A2
  8
0
 10
0.0
 20
0.0
 30
0.0
 70
   128
 71
    33
 72
   -34
 73
   -15
  0
VERTEX
  5
28A3
  8
0
 10
0.0
 20
0.0
 30
0.0
 70
   128
 71
    34
 72
   -35
 73
   -15
  0
VERTEX
  5
28A4
  8
0
 10
0.0
 20
0.0
 30
0.0
 70
   128
 71
   -36
 72
    14
 73
   -15
  0
VERTEX
  5
28A5
  8
0
 10
0.0
 20
0.0
 30
0.0
 70
   128
 71
    35
 72
   -36
 73
   -15
  0
VERTEX
  5
28A6
  8
0
 10
0.0
 20
0.0
 30
0.0
 70
   128
 71
    36
 72
   -37
 73
   -14
  0
VERTEX
  5
28A7
  8
0
 10
0.0
 20
0.0
 30
0.0
 70
   128
 71
   -38
 72
   -23
 73
   -14
  0
VERTEX
  5
28A8
  8
0
 10
0.0
 20
0.0
 30
0.0
 70
   128
 71
    37
 72
   -38
 73
   -14
  0
SEQEND
  5
2BCB
  8
0
  0
POLYLINE
  5
28A9
  8
0
 66
     1
 10
0.0
 20
0.0
 30
0.0
 70
    64
 71
    58
 72
    64
  0
VERTEX
  5
28AA
  8
0
 10
-497.5
 20
62.99999999999997
 30
-235.0
 70
   192
  0
VERTEX
  5
28AB
  8
0
 10
497.5
 20
62.99999999999997
 30
-235.0
 70
   192
  0
VERTEX
  5
28AC
  8
0
 10
498.7226041910272
 20
62.67432669217325
 30
-235.0
 70
   192
  0
VERTEX
  5
28AD
  8
0
 10
499.6806510477567
 20
61.69730676869314
 30
-235.0
 70
   192
  0
VERTEX
  5
28AE
  8
0
 10
500.0
 20
60.45049024320358
 30
-235.0
 70
   192
  0
VERTEX
  5
28AF
  8
0
 10
500.0
 20
40.99999999999998
 30
-235.0000000000002
 70
   192
  0
VERTEX
  5
28B0
  8
0
 10
470.0000000000001
 20
40.99999999999997
 30
-235.0000000000001
 70
   192
  0
VERTEX
  5
28B1
  8
0
 10
465.0000000000001
 20
39.66025403784437
 30
-235.0000000000002
 70
   192
  0
VERTEX
  5
28B2
  8
0
 10
461.3397459621557
 20
35.99999999999999
 30
-235.0000000000002
 70
   192
  0
VERTEX
  5
28B3
  8
0
 10
460.0000000000001
 20
30.99999999999998
 30
-235.0000000000003
 70
   192
  0
VERTEX
  5
28B4
  8
0
 10
459.9999999999999
 20
-10.00000000000002
 30
-235.0000000000006
 70
   192
  0
VERTEX
  5
28B5
  8
0
 10
453.3012701892219
 20
-35.00000000000004
 30
-235.0000000000009
 70
   192
  0
VERTEX
  5
28B6
  8
0
 10
435.0
 20
-53.30127018922195
 30
-235.000000000001
 70
   192
  0
VERTEX
  5
28B7
  8
0
 10
410.0
 20
-60.00000000000001
 30
-235.0000000000011
 70
   192
  0
VERTEX
  5
28B8
  8
0
 10
-410.0000000000001
 20
-60.00000000000002
 30
-235.0
 70
   192
  0
VERTEX
  5
28B9
  8
0
 10
-435.0000000000001
 20
-53.30127018922193
 30
-235.000000000001
 70
   192
  0
VERTEX
  5
28BA
  8
0
 10
-453.3012701892221
 20
-35.0
 30
-235.0000000000009
 70
   192
  0
VERTEX
  5
28BB
  8
0
 10
-460.0000000000001
 20
-10.00000000000001
 30
-235.0000000000006
 70
   192
  0
VERTEX
  5
28BC
  8
0
 10
-460.0000000000001
 20
30.99999999999997
 30
-235.0000000000003
 70
   192
  0
VERTEX
  5
28BD
  8
0
 10
-461.3397459621557
 20
35.99999999999995
 30
-235.0000000000002
 70
   192
  0
VERTEX
  5
28BE
  8
0
 10
-465.0000000000001
 20
39.66025403784432
 30
-235.0000000000002
 70
   192
  0
VERTEX
  5
28BF
  8
0
 10
-470.0000000000001
 20
40.99999999999993
 30
-235.0000000000002
 70
   192
  0
VERTEX
  5
28C0
  8
0
 10
-500.0
 20
40.99999999999997
 30
-235.0000000000001
 70
   192
  0
VERTEX
  5
28C1
  8
0
 10
-500.0
 20
60.45049024320358
 30
-235.0
 70
   192
  0
VERTEX
  5
28C2
  8
0
 10
-499.6806510477568
 20
61.69730676869316
 30
-235.0
 70
   192
  0
VERTEX
  5
28C3
  8
0
 10
-498.7226041910271
 20
62.67432669217327
 30
-234.9999999999999
 70
   192
  0
VERTEX
  5
28C4
  8
0
 10
76.5000000000002
 20
4.999999999999994
 30
-235.0000000000005
 70
   192
  0
VERTEX
  5
28C5
  8
0
 10
74.59619407771274
 20
9.596194077712568
 30
-235.0000000000005
 70
   192
  0
VERTEX
  5
28C6
  8
0
 10
70.00000000000017
 20
11.50000000000001
 30
-235.0000000000005
 70
   192
  0
VERTEX
  5
28C7
  8
0
 10
65.4038059222876
 20
9.596194077712568
 30
-235.0000000000005
 70
   192
  0
VERTEX
  5
28C8
  8
0
 10
63.50000000000015
 20
4.999999999999994
 30
-235.0000000000005
 70
   192
  0
VERTEX
  5
28C9
  8
0
 10
65.4038059222876
 20
0.40380592228742
 30
-235.0000000000005
 70
   192
  0
VERTEX
  5
28CA
  8
0
 10
70.00000000000017
 20
-1.500000000000026
 30
-235.0000000000005
 70
   192
  0
VERTEX
  5
28CB
  8
0
 10
74.59619407771274
 20
0.4038059222874217
 30
-235.0000000000005
 70
   192
  0
VERTEX
  5
28CC
  8
0
 10
421.5000000000002
 20
4.999999999999994
 30
-235.0000000000005
 70
   192
  0
VERTEX
  5
28CD
  8
0
 10
419.5961940777127
 20
9.596194077712557
 30
-235.0000000000005
 70
   192
  0
VERTEX
  5
28CE
  8
0
 10
415.0000000000002
 20
11.5
 30
-235.0000000000005
 70
   192
  0
VERTEX
  5
28CF
  8
0
 10
410.4038059222876
 20
9.596194077712557
 30
-235.0000000000005
 70
   192
  0
VERTEX
  5
28D0
  8
0
 10
408.5000000000002
 20
4.999999999999994
 30
-235.0000000000005
 70
   192
  0
VERTEX
  5
28D1
  8
0
 10
410.4038059222876
 20
0.4038059222874297
 30
-235.0000000000005
 70
   192
  0
VERTEX
  5
28D2
  8
0
 10
415.0000000000002
 20
-1.500000000000012
 30
-235.0000000000005
 70
   192
  0
VERTEX
  5
28D3
  8
0
 10
419.5961940777127
 20
0.4038059222874315
 30
-235.0000000000005
 70
   192
  0
VERTEX
  5
28D4
  8
0
 10
-76.50000000000018
 20
4.999999999999995
 30
-235.0000000000005
 70
   192
  0
VERTEX
  5
28D5
  8
0
 10
-74.59619407771274
 20
0.4038059222874217
 30
-235.0000000000005
 70
   192
  0
VERTEX
  5
28D6
  8
0
 10
-70.00000000000017
 20
-1.500000000000026
 30
-235.0000000000005
 70
   192
  0
VERTEX
  5
28D7
  8
0
 10
-65.4038059222876
 20
0.40380592228742
 30
-235.0000000000005
 70
   192
  0
VERTEX
  5
28D8
  8
0
 10
-63.50000000000015
 20
4.999999999999993
 30
-235.0000000000005
 70
   192
  0
VERTEX
  5
28D9
  8
0
 10
-65.4038059222876
 20
9.596194077712568
 30
-235.0000000000005
 70
   192
  0
VERTEX
  5
28DA
  8
0
 10
-70.00000000000017
 20
11.50000000000001
 30
-235.0000000000005
 70
   192
  0
VERTEX
  5
28DB
  8
0
 10
-74.59619407771274
 20
9.596194077712566
 30
-235.0000000000005
 70
   192
  0
VERTEX
  5
28DC
  8
0
 10
-421.5000000000002
 20
4.999999999999995
 30
-235.0000000000005
 70
   192
  0
VERTEX
  5
28DD
  8
0
 10
-419.5961940777127
 20
0.4038059222874315
 30
-235.0000000000005
 70
   192
  0
VERTEX
  5
28DE
  8
0
 10
-415.0000000000002
 20
-1.500000000000012
 30
-235.0000000000005
 70
   192
  0
VERTEX
  5
28DF
  8
0
 10
-410.4038059222876
 20
0.4038059222874297
 30
-235.0000000000005
 70
   192
  0
VERTEX
  5
28E0
  8
0
 10
-408.5000000000002
 20
4.999999999999993
 30
-235.0000000000005
 70
   192
  0
VERTEX
  5
28E1
  8
0
 10
-410.4038059222876
 20
9.596194077712557
 30
-235.0000000000005
 70
   192
  0
VERTEX
  5
28E2
  8
0
 10
-415.0000000000002
 20
11.5
 30
-235.0000000000005
 70
   192
  0
VERTEX
  5
28E3
  8
0
 10
-419.5961940777127
 20
9.596194077712557
 30
-235.0000000000005
 70
   192
  0
VERTEX
  5
28E4
  8
0
 10
0.0
 20
0.0
 30
0.0
 70
   128
 71
   -27
 72
    39
 73
   -40
  0
VERTEX
  5
28E5
  8
0
 10
0.0
 20
0.0
 30
0.0
 70
   128
 71
    34
 72
   -27
 73
   -40
  0
VERTEX
  5
28E6
  8
0
 10
0.0
 20
0.0
 30
0.0
 70
   128
 71
   -14
 72
   -34
 73
   -40
  0
VERTEX
  5
28E7
  8
0
 10
0.0
 20
0.0
 30
0.0
 70
   128
 71
   -41
 72
    13
 73
   -14
  0
VERTEX
  5
28E8
  8
0
 10
0.0
 20
0.0
 30
0.0
 70
   128
 71
    40
 72
   -41
 73
   -14
  0
VERTEX
  5
28E9
  8
0
 10
0.0
 20
0.0
 30
0.0
 70
   128
 71
    11
 72
    12
 73
   -13
  0
VERTEX
  5
28EA
  8
0
 10
0.0
 20
0.0
 30
0.0
 70
   128
 71
   -42
 72
   -11
 73
   -13
  0
VERTEX
  5
28EB
  8
0
 10
0.0
 20
0.0
 30
0.0
 70
   128
 71
    41
 72
   -42
 73
   -13
  0
VERTEX
  5
28EC
  8
0
 10
0.0
 20
0.0
 30
0.0
 70
   128
 71
    42
 72
   -35
 73
   -11
  0
VERTEX
  5
28ED
  8
0
 10
0.0
 20
0.0
 30
0.0
 70
   128
 71
     5
 72
     6
 73
    -7
  0
VERTEX
  5
28EE
  8
0
 10
0.0
 20
0.0
 30
0.0
 70
   128
 71
     4
 72
    -5
 73
    -7
  0
VERTEX
  5
28EF
  8
0
 10
0.0
 20
0.0
 30
0.0
 70
   128
 71
     3
 72
    -4
 73
    -7
  0
VERTEX
  5
28F0
  8
0
 10
0.0
 20
0.0
 30
0.0
 70
   128
 71
     2
 72
    -3
 73
    -7
  0
VERTEX
  5
28F1
  8
0
 10
0.0
 20
0.0
 30
0.0
 70
   128
 71
     7
 72
    -8
 73
    -2
  0
VERTEX
  5
28F2
  8
0
 10
0.0
 20
0.0
 30
0.0
 70
   128
 71
   -36
 72
    -2
 73
    -8
  0
VERTEX
  5
28F3
  8
0
 10
0.0
 20
0.0
 30
0.0
 70
   128
 71
     8
 72
    -9
 73
   -36
  0
VERTEX
  5
28F4
  8
0
 10
0.0
 20
0.0
 30
0.0
 70
   128
 71
     9
 72
   -10
 73
   -36
  0
VERTEX
  5
28F5
  8
0
 10
0.0
 20
0.0
 30
0.0
 70
   128
 71
   -11
 72
    35
 73
   -36
  0
VERTEX
  5
28F6
  8
0
 10
0.0
 20
0.0
 30
0.0
 70
   128
 71
    10
 72
   -11
 73
   -36
  0
VERTEX
  5
28F7
  8
0
 10
0.0
 20
0.0
 30
0.0
 70
   128
 71
    36
 72
   -37
 73
    -2
  0
VERTEX
  5
28F8
  8
0
 10
0.0
 20
0.0
 30
0.0
 70
   128
 71
    37
 72
   -38
 73
    -2
  0
VERTEX
  5
28F9
  8
0
 10
0.0
 20
0.0
 30
0.0
 70
   128
 71
   -28
 72
    -2
 73
   -38
  0
VERTEX
  5
28FA
  8
0
 10
0.0
 20
0.0
 30
0.0
 70
   128
 71
    27
 72
   -28
 73
   -38
  0
VERTEX
  5
28FB
  8
0
 10
0.0
 20
0.0
 30
0.0
 70
   128
 71
    38
 72
   -39
 73
   -27
  0
VERTEX
  5
28FC
  8
0
 10
0.0
 20
0.0
 30
0.0
 70
   128
 71
    28
 72
   -29
 73
    -2
  0
VERTEX
  5
28FD
  8
0
 10
0.0
 20
0.0
 30
0.0
 70
   128
 71
     1
 72
    -2
 73
   -29
  0
VERTEX
  5
28FE
  8
0
 10
0.0
 20
0.0
 30
0.0
 70
   128
 71
    29
 72
   -30
 73
    -1
  0
VERTEX
  5
28FF
  8
0
 10
0.0
 20
0.0
 30
0.0
 70
   128
 71
    30
 72
   -31
 73
    -1
  0
VERTEX
  5
2900
  8
0
 10
0.0
 20
0.0
 30
0.0
 70
   128
 71
    31
 72
   -32
 73
    -1
  0
VERTEX
  5
2901
  8
0
 10
0.0
 20
0.0
 30
0.0
 70
   128
 71
    32
 72
   -33
 73
    -1
  0
VERTEX
  5
2902
  8
0
 10
0.0
 20
0.0
 30
0.0
 70
   128
 71
   -43
 72
    55
 73
   -56
  0
VERTEX
  5
2903
  8
0
 10
0.0
 20
0.0
 30
0.0
 70
   128
 71
    50
 72
   -43
 73
   -56
  0
VERTEX
  5
2904
  8
0
 10
0.0
 20
0.0
 30
0.0
 70
   128
 71
    56
 72
   -57
 73
   -50
  0
VERTEX
  5
2905
  8
0
 10
0.0
 20
0.0
 30
0.0
 70
   128
 71
   -57
 72
   -19
 73
   -50
  0
VERTEX
  5
2906
  8
0
 10
0.0
 20
0.0
 30
0.0
 70
   128
 71
    57
 72
   -58
 73
   -19
  0
VERTEX
  5
2907
  8
0
 10
0.0
 20
0.0
 30
0.0
 70
   128
 71
   -51
 72
    18
 73
   -19
  0
VERTEX
  5
2908
  8
0
 10
0.0
 20
0.0
 30
0.0
 70
   128
 71
    58
 72
   -51
 73
   -19
  0
VERTEX
  5
2909
  8
0
 10
0.0
 20
0.0
 30
0.0
 70
   128
 71
    51
 72
   -52
 73
   -18
  0
VERTEX
  5
290A
  8
0
 10
0.0
 20
0.0
 30
0.0
 70
   128
 71
    16
 72
    17
 73
   -18
  0
VERTEX
  5
290B
  8
0
 10
0.0
 20
0.0
 30
0.0
 70
   128
 71
   -53
 72
   -16
 73
   -18
  0
VERTEX
  5
290C
  8
0
 10
0.0
 20
0.0
 30
0.0
 70
   128
 71
    52
 72
   -53
 73
   -18
  0
VERTEX
  5
290D
  8
0
 10
0.0
 20
0.0
 30
0.0
 70
   128
 71
   -54
 72
    15
 73
   -16
  0
VERTEX
  5
290E
  8
0
 10
0.0
 20
0.0
 30
0.0
 70
   128
 71
    53
 72
   -54
 73
   -16
  0
VERTEX
  5
290F
  8
0
 10
0.0
 20
0.0
 30
0.0
 70
   128
 71
    43
 72
   -44
 73
   -15
  0
VERTEX
  5
2910
  8
0
 10
0.0
 20
0.0
 30
0.0
 70
   128
 71
   -55
 72
   -43
 73
   -15
  0
VERTEX
  5
2911
  8
0
 10
0.0
 20
0.0
 30
0.0
 70
   128
 71
    54
 72
   -55
 73
   -15
  0
VERTEX
  5
2912
  8
0
 10
0.0
 20
0.0
 30
0.0
 70
   128
 71
    44
 72
   -45
 73
   -15
  0
VERTEX
  5
2913
  8
0
 10
0.0
 20
0.0
 30
0.0
 70
   128
 71
    14
 72
   -15
 73
   -45
  0
VERTEX
  5
2914
  8
0
 10
0.0
 20
0.0
 30
0.0
 70
   128
 71
    45
 72
   -46
 73
   -14
  0
VERTEX
  5
2915
  8
0
 10
0.0
 20
0.0
 30
0.0
 70
   128
 71
   -47
 72
   -33
 73
   -14
  0
VERTEX
  5
2916
  8
0
 10
0.0
 20
0.0
 30
0.0
 70
   128
 71
    46
 72
   -47
 73
   -14
  0
VERTEX
  5
2917
  8
0
 10
0.0
 20
0.0
 30
0.0
 70
   128
 71
    47
 72
   -48
 73
   -33
  0
VERTEX
  5
2918
  8
0
 10
0.0
 20
0.0
 30
0.0
 70
   128
 71
    48
 72
   -49
 73
   -33
  0
VERTEX
  5
2919
  8
0
 10
0.0
 20
0.0
 30
0.0
 70
   128
 71
    -1
 72
   -33
 73
   -49
  0
VERTEX
  5
291A
  8
0
 10
0.0
 20
0.0
 30
0.0
 70
   128
 71
    49
 72
   -50
 73
    -1
  0
VERTEX
  5
291B
  8
0
 10
0.0
 20
0.0
 30
0.0
 70
   128
 71
    33
 72
   -34
 73
   -14
  0
VERTEX
  5
291C
  8
0
 10
0.0
 20
0.0
 30
0.0
 70
   128
 71
    19
 72
   -20
 73
   -50
  0
VERTEX
  5
291D
  8
0
 10
0.0
 20
0.0
 30
0.0
 70
   128
 71
    20
 72
   -21
 73
   -50
  0
VERTEX
  5
291E
  8
0
 10
0.0
 20
0.0
 30
0.0
 70
   128
 71
   -21
 72
    -1
 73
   -50
  0
VERTEX
  5
291F
  8
0
 10
0.0
 20
0.0
 30
0.0
 70
   128
 71
    21
 72
   -22
 73
    -1
  0
VERTEX
  5
2920
  8
0
 10
0.0
 20
0.0
 30
0.0
 70
   128
 71
    25
 72
    26
 73
    -1
  0
VERTEX
  5
2921
  8
0
 10
0.0
 20
0.0
 30
0.0
 70
   128
 71
    24
 72
   -25
 73
    -1
  0
VERTEX
  5
2922
  8
0
 10
0.0
 20
0.0
 30
0.0
 70
   128
 71
    23
 72
   -24
 73
    -1
  0
VERTEX
  5
2923
  8
0
 10
0.0
 20
0.0
 30
0.0
 70
   128
 71
    22
 72
   -23
 73
    -1
  0
SEQEND
  5
2BCC
  8
0
  0
POLYLINE
  5
2924
  8
0
 66
     1
 10
0.0
 20
0.0
 30
0.0
 70
    64
 71
    30
 72
    30
  0
VERTEX
  5
2925
  8
0
 10
474.0
 20
41.00000000000004
 30
5.000000000000051
 70
   192
  0
VERTEX
  5
2926
  8
0
 10
465.3714335054987
 20
41.00000000000004
 30
-54.86701958439667
 70
   192
  0
VERTEX
  5
2927
  8
0
 10
440.1881128875609
 20
41.00000000000004
 30
-109.8607697413257
 70
   192
  0
VERTEX
  5
2928
  8
0
 10
400.5000000000002
 20
41.00000000000004
 30
-155.5046728291732
 70
   192
  0
VERTEX
  5
2929
  8
0
 10
400.5000000000002
 20
41.00000000000007
 30
-215.0
 70
   192
  0
VERTEX
  5
292A
  8
0
 10
470.0
 20
41.00000000000004
 30
-215.0
 70
   192
  0
VERTEX
  5
292B
  8
0
 10
470.0000000000001
 20
40.99999999999997
 30
-235.0000000000001
 70
   192
  0
VERTEX
  5
292C
  8
0
 10
500.0
 20
40.99999999999997
 30
-235.0000000000001
 70
   192
  0
VERTEX
  5
292D
  8
0
 10
500.0
 20
41.00000000000004
 30
235.0
 70
   192
  0
VERTEX
  5
292E
  8
0
 10
-500.0
 20
41.00000000000004
 30
235.0
 70
   192
  0
VERTEX
  5
292F
  8
0
 10
-500.0
 20
41.00000000000004
 30
-235.0000000000001
 70
   192
  0
VERTEX
  5
2930
  8
0
 10
-470.0000000000001
 20
40.99999999999997
 30
-235.0000000000001
 70
   192
  0
VERTEX
  5
2931
  8
0
 10
-470.0000000000001
 20
40.99999999999997
 30
-215.0
 70
   192
  0
VERTEX
  5
2932
  8
0
 10
122.5
 20
41.00000000000004
 30
-215.0
 70
   192
  0
VERTEX
  5
2933
  8
0
 10
122.5
 20
41.00000000000004
 30
-154.636305394481
 70
   192
  0
VERTEX
  5
2934
  8
0
 10
83.33505965996159
 20
41.00000000000004
 30
-109.1176546082616
 70
   192
  0
VERTEX
  5
2935
  8
0
 10
58.50433990857678
 20
41.00000000000004
 30
-54.44338755451214
 70
   192
  0
VERTEX
  5
2936
  8
0
 10
50.0
 20
41.00000000000004
 30
5.000000000000103
 70
   192
  0
VERTEX
  5
2937
  8
0
 10
90.48839719251112
 20
41.00000000000004
 30
129.6104734860044
 70
   192
  0
VERTEX
  5
2938
  8
0
 10
196.4883971925111
 20
41.00000000000004
 30
206.6239814545726
 70
   192
  0
VERTEX
  5
2939
  8
0
 10
327.5116028074888
 20
41.00000000000004
 30
206.6239814545726
 70
   192
  0
VERTEX
  5
293A
  8
0
 10
433.5116028074888
 20
41.00000000000004
 30
129.6104734860044
 70
   192
  0
VERTEX
  5
293B
  8
0
 10
89.99999999999942
 20
41.00000000000004
 30
-183.9999999999999
 70
   192
  0
VERTEX
  5
293C
  8
0
 10
77.97918471982811
 20
41.00000000000004
 30
-179.0208152801712
 70
   192
  0
VERTEX
  5
293D
  8
0
 10
72.99999999999943
 20
41.00000000000004
 30
-166.9999999999999
 70
   192
  0
VERTEX
  5
293E
  8
0
 10
77.97918471982813
 20
41.00000000000004
 30
-154.9791847198287
 70
   192
  0
VERTEX
  5
293F
  8
0
 10
89.99999999999942
 20
41.00000000000004
 30
-149.9999999999999
 70
   192
  0
VERTEX
  5
2940
  8
0
 10
102.0208152801707
 20
41.00000000000004
 30
-154.9791847198287
 70
   192
  0
VERTEX
  5
2941
  8
0
 10
106.9999999999994
 20
41.00000000000004
 30
-166.9999999999999
 70
   192
  0
VERTEX
  5
2942
  8
0
 10
102.0208152801707
 20
41.00000000000004
 30
-179.0208152801712
 70
   192
  0
VERTEX
  5
2943
  8
0
 10
0.0
 20
0.0
 30
0.0
 70
   128
 71
    11
 72
    12
 73
   -13
  0
VERTEX
  5
2944
  8
0
 10
0.0
 20
0.0
 30
0.0
 70
   128
 71
   -14
 72
    23
 73
   -24
  0
VERTEX
  5
2945
  8
0
 10
0.0
 20
0.0
 30
0.0
 70
   128
 71
    13
 72
   -14
 73
   -24
  0
VERTEX
  5
2946
  8
0
 10
0.0
 20
0.0
 30
0.0
 70
   128
 71
    24
 72
   -25
 73
   -13
  0
VERTEX
  5
2947
  8
0
 10
0.0
 20
0.0
 30
0.0
 70
   128
 71
   -25
 72
   -16
 73
   -13
  0
VERTEX
  5
2948
  8
0
 10
0.0
 20
0.0
 30
0.0
 70
   128
 71
    25
 72
   -26
 73
   -16
  0
VERTEX
  5
2949
  8
0
 10
0.0
 20
0.0
 30
0.0
 70
   128
 71
    26
 72
   -27
 73
   -16
  0
VERTEX
  5
294A
  8
0
 10
0.0
 20
0.0
 30
0.0
 70
   128
 71
   -27
 72
    15
 73
   -16
  0
VERTEX
  5
294B
  8
0
 10
0.0
 20
0.0
 30
0.0
 70
   128
 71
    27
 72
   -28
 73
   -15
  0
VERTEX
  5
294C
  8
0
 10
0.0
 20
0.0
 30
0.0
 70
   128
 71
    28
 72
   -29
 73
   -15
  0
VERTEX
  5
294D
  8
0
 10
0.0
 20
0.0
 30
0.0
 70
   128
 71
    29
 72
   -30
 73
   -15
  0
VERTEX
  5
294E
  8
0
 10
0.0
 20
0.0
 30
0.0
 70
   128
 71
    14
 72
   -15
 73
   -30
  0
VERTEX
  5
294F
  8
0
 10
0.0
 20
0.0
 30
0.0
 70
   128
 71
    30
 72
   -23
 73
   -14
  0
VERTEX
  5
2950
  8
0
 10
0.0
 20
0.0
 30
0.0
 70
   128
 71
    16
 72
   -17
 73
   -13
  0
VERTEX
  5
2951
  8
0
 10
0.0
 20
0.0
 30
0.0
 70
   128
 71
    17
 72
   -18
 73
   -13
  0
VERTEX
  5
2952
  8
0
 10
0.0
 20
0.0
 30
0.0
 70
   128
 71
    10
 72
   -11
 73
   -13
  0
VERTEX
  5
2953
  8
0
 10
0.0
 20
0.0
 30
0.0
 70
   128
 71
    18
 72
   -19
 73
   -10
  0
VERTEX
  5
2954
  8
0
 10
0.0
 20
0.0
 30
0.0
 70
   128
 71
   -13
 72
   -18
 73
   -10
  0
VERTEX
  5
2955
  8
0
 10
0.0
 20
0.0
 30
0.0
 70
   128
 71
    19
 72
   -20
 73
   -10
  0
VERTEX
  5
2956
  8
0
 10
0.0
 20
0.0
 30
0.0
 70
   128
 71
   -20
 72
     9
 73
   -10
  0
VERTEX
  5
2957
  8
0
 10
0.0
 20
0.0
 30
0.0
 70
   128
 71
    20
 72
   -21
 73
    -9
  0
VERTEX
  5
2958
  8
0
 10
0.0
 20
0.0
 30
0.0
 70
   128
 71
    21
 72
   -22
 73
    -9
  0
VERTEX
  5
2959
  8
0
 10
0.0
 20
0.0
 30
0.0
 70
   128
 71
    22
 72
    -1
 73
    -9
  0
VERTEX
  5
295A
  8
0
 10
0.0
 20
0.0
 30
0.0
 70
   128
 71
    -1
 72
    -6
 73
    -9
  0
VERTEX
  5
295B
  8
0
 10
0.0
 20
0.0
 30
0.0
 70
   128
 71
     1
 72
    -2
 73
    -6
  0
VERTEX
  5
295C
  8
0
 10
0.0
 20
0.0
 30
0.0
 70
   128
 71
     2
 72
    -3
 73
    -6
  0
VERTEX
  5
295D
  8
0
 10
0.0
 20
0.0
 30
0.0
 70
   128
 71
     4
 72
     5
 73
    -6
  0
VERTEX
  5
295E
  8
0
 10
0.0
 20
0.0
 30
0.0
 70
   128
 71
     3
 72
    -4
 73
    -6
  0
VERTEX
  5
295F
  8
0
 10
0.0
 20
0.0
 30
0.0
 70
   128
 71
    -6
 72
     8
 73
    -9
  0
VERTEX
  5
2960
  8
0
 10
0.0
 20
0.0
 30
0.0
 70
   128
 71
     6
 72
     7
 73
    -8
  0
SEQEND
  5
2BCD
  8
0
  0
POLYLINE
  5
2961
  8
0
 66
     1
 10
0.0
 20
0.0
 30
0.0
 70
    64
 71
     6
 72
     4
  0
VERTEX
  5
2962
  8
0
 10
147.5000000000001
 20
41.00000000000004
 30
-215.0
 70
   192
  0
VERTEX
  5
2963
  8
0
 10
375.5
 20
41.00000000000004
 30
-215.0
 70
   192
  0
VERTEX
  5
2964
  8
0
 10
375.5000000000001
 20
41.00000000000006
 30
-174.057951512911
 70
   192
  0
VERTEX
  5
2965
  8
0
 10
301.2994544831678
 20
41.00000000000004
 30
-203.3255934284729
 70
   192
  0
VERTEX
  5
2966
  8
0
 10
221.5356404341945
 20
41.00000000000004
 30
-203.1024641971574
 70
   192
  0
VERTEX
  5
2967
  8
0
 10
147.5000000000001
 20
41.00000000000004
 30
-173.4201502073126
 70
   192
  0
VERTEX
  5
2968
  8
0
 10
0.0
 20
0.0
 30
0.0
 70
   128
 71
     2
 72
     3
 73
    -4
  0
VERTEX
  5
2969
  8
0
 10
0.0
 20
0.0
 30
0.0
 70
   128
 71
    -5
 72
     1
 73
    -2
  0
VERTEX
  5
296A
  8
0
 10
0.0
 20
0.0
 30
0.0
 70
   128
 71
     4
 72
    -5
 73
    -2
  0
VERTEX
  5
296B
  8
0
 10
0.0
 20
0.0
 30
0.0
 70
   128
 71
     5
 72
     6
 73
    -1
  0
SEQEND
  5
2BCE
  8
0
  0
POLYLINE
  5
296C
  8
0
 66
     1
 10
0.0
 20
0.0
 30
0.0
 70
    64
 71
    41
 72
    42
  0
VERTEX
  5
296D
  8
0
 10
369.1109633881276
 20
-26.82035805323727
 30
-116.4500796279642
 70
   192
  0
VERTEX
  5
296E
  8
0
 10
377.2792154082306
 20
12.17671038666737
 30
-152.5511044366191
 70
   192
  0
VERTEX
  5
296F
  8
0
 10
378.806735119783
 20
-12.56910894048087
 30
-126.4397426926407
 70
   192
  0
VERTEX
  5
2970
  8
0
 10
380.0379165601595
 20
-32.51424827458024
 30
-96.48698468990955
 70
   192
  0
VERTEX
  5
2971
  8
0
 10
382.8703680897506
 20
-38.13244584817588
 30
-82.1521638918699
 70
   192
  0
VERTEX
  5
2972
  8
0
 10
262.0
 20
-57.45560139427567
 30
-116.4500796279642
 70
   192
  0
VERTEX
  5
2973
  8
0
 10
280.2028823734364
 20
-90.00000000000027
 30
-8.225168176580587
 70
   192
  0
VERTEX
  5
2974
  8
0
 10
268.9528823734364
 20
-90.00000000000028
 30
-16.39877161664091
 70
   192
  0
VERTEX
  5
2975
  8
0
 10
361.5393550526992
 20
-69.07419109253331
 30
5.000000000000076
 70
   192
  0
VERTEX
  5
2976
  8
0
 10
284.5
 20
-90.00000000000026
 30
5.000000000000067
 70
   192
  0
VERTEX
  5
2977
  8
0
 10
243.7971176265637
 20
-90.0000000000003
 30
-8.225168176580592
 70
   192
  0
VERTEX
  5
2978
  8
0
 10
239.5
 20
-90.0000000000003
 30
5.000000000000069
 70
   192
  0
VERTEX
  5
2979
  8
0
 10
162.4606449473009
 20
-69.07419109253343
 30
5.000000000000064
 70
   192
  0
VERTEX
  5
297A
  8
0
 10
154.8890366118723
 20
-26.82035805323724
 30
-116.4500796279642
 70
   192
  0
VERTEX
  5
297B
  8
0
 10
255.0471176265637
 20
-90.00000000000028
 30
-16.39877161664091
 70
   192
  0
VERTEX
  5
297C
  8
0
 10
144.1895416034166
 20
-12.62942602465139
 30
-125.4679659025376
 70
   192
  0
VERTEX
  5
297D
  8
0
 10
145.7172483464791
 20
12.11942321296007
 30
-151.7633110332432
 70
   192
  0
VERTEX
  5
297E
  8
0
 10
140.10168217929
 20
-38.15542048195107
 30
-80.65932804267148
 70
   192
  0
VERTEX
  5
297F
  8
0
 10
142.9620834398409
 20
-32.51424827458017
 30
-95.31217387899488
 70
   192
  0
VERTEX
  5
2980
  8
0
 10
96.79323766010108
 20
-23.67878025019468
 30
5.000000000000064
 70
   192
  0
VERTEX
  5
2981
  8
0
 10
50.0
 20
41.00000000000001
 30
5.000000000000064
 70
   192
  0
VERTEX
  5
2982
  8
0
 10
58.50433990857678
 20
41.00000000000004
 30
-54.44338755451214
 70
   192
  0
VERTEX
  5
2983
  8
0
 10
83.33505965996159
 20
41.00000000000004
 30
-109.1176546082616
 70
   192
  0
VERTEX
  5
2984
  8
0
 10
133.583268595669
 20
-39.87328018109079
 30
-66.22685449628814
 70
   192
  0
VERTEX
  5
2985
  8
0
 10
127.0379165601593
 20
-32.51424827458018
 30
-72.57444064181581
 70
   192
  0
VERTEX
  5
2986
  8
0
 10
125.8760833819456
 20
-13.69255078751794
 30
-104.7039220491499
 70
   192
  0
VERTEX
  5
2987
  8
0
 10
389.4019720315735
 20
-39.87593424325082
 30
-68.01970657075005
 70
   192
  0
VERTEX
  5
2988
  8
0
 10
395.962083439841
 20
-32.51424827458022
 30
-74.28882650014572
 70
   192
  0
VERTEX
  5
2989
  8
0
 10
427.2067623398989
 20
-23.67878025019468
 30
5.000000000000084
 70
   192
  0
VERTEX
  5
298A
  8
0
 10
397.1311001955783
 20
-13.57617683163525
 30
-106.0909731046327
 70
   192
  0
VERTEX
  5
298B
  8
0
 10
398.6638390363719
 20
11.25419238921977
 30
-133.5226546937822
 70
   192
  0
VERTEX
  5
298C
  8
0
 10
440.1881128875609
 20
41.00000000000004
 30
-109.8607697413257
 70
   192
  0
VERTEX
  5
298D
  8
0
 10
465.3714335054987
 20
41.00000000000004
 30
-54.86701958439667
 70
   192
  0
VERTEX
  5
298E
  8
0
 10
474.0
 20
41.00000000000004
 30
5.000000000000051
 70
   192
  0
VERTEX
  5
298F
  8
0
 10
400.5000000000003
 20
40.99999999999999
 30
-155.5046728291732
 70
   192
  0
VERTEX
  5
2990
  8
0
 10
301.2994544831678
 20
41.00000000000004
 30
-203.3255934284729
 70
   192
  0
VERTEX
  5
2991
  8
0
 10
375.5000000000001
 20
41.00000000000004
 30
-174.0579515129109
 70
   192
  0
VERTEX
  5
2992
  8
0
 10
147.5000000000001
 20
41.0
 30
-173.4201502073127
 70
   192
  0
VERTEX
  5
2993
  8
0
 10
221.5356404341945
 20
41.00000000000004
 30
-203.1024641971574
 70
   192
  0
VERTEX
  5
2994
  8
0
 10
122.5
 20
41.00000000000004
 30
-154.636305394481
 70
   192
  0
VERTEX
  5
2995
  8
0
 10
124.3429263738703
 20
11.1445927433021
 30
-132.4289190545732
 70
   192
  0
VERTEX
  5
2996
  8
0
 10
0.0
 20
0.0
 30
0.0
 70
   128
 71
     1
 72
     2
 73
     3
  0
VERTEX
  5
2997
  8
0
 10
0.0
 20
0.0
 30
0.0
 70
   128
 71
     1
 72
     4
 73
     5
  0
VERTEX
  5
2998
  8
0
 10
0.0
 20
0.0
 30
0.0
 70
   128
 71
     6
 72
     7
 73
     8
  0
VERTEX
  5
2999
  8
0
 10
0.0
 20
0.0
 30
0.0
 70
   128
 71
     9
 72
    10
 73
     7
  0
VERTEX
  5
299A
  8
0
 10
0.0
 20
0.0
 30
0.0
 70
   128
 71
    11
 72
    12
 73
    13
  0
VERTEX
  5
299B
  8
0
 10
0.0
 20
0.0
 30
0.0
 70
   128
 71
    13
 72
    14
 73
     6
  0
VERTEX
  5
299C
  8
0
 10
0.0
 20
0.0
 30
0.0
 70
   128
 71
    13
 72
     6
 73
    15
  0
VERTEX
  5
299D
  8
0
 10
0.0
 20
0.0
 30
0.0
 70
   128
 71
    13
 72
    15
 73
    11
  0
VERTEX
  5
299E
  8
0
 10
0.0
 20
0.0
 30
0.0
 70
   128
 71
    16
 72
    17
 73
    14
  0
VERTEX
  5
299F
  8
0
 10
0.0
 20
0.0
 30
0.0
 70
   128
 71
    14
 72
    18
 73
    19
  0
VERTEX
  5
29A0
  8
0
 10
0.0
 20
0.0
 30
0.0
 70
   128
 71
    20
 72
    21
 73
    22
  0
VERTEX
  5
29A1
  8
0
 10
0.0
 20
0.0
 30
0.0
 70
   128
 71
    20
 72
    22
 73
    23
  0
VERTEX
  5
29A2
  8
0
 10
0.0
 20
0.0
 30
0.0
 70
   128
 71
    18
 72
    14
 73
    13
  0
VERTEX
  5
29A3
  8
0
 10
0.0
 20
0.0
 30
0.0
 70
   128
 71
    13
 72
    24
 73
    18
  0
VERTEX
  5
29A4
  8
0
 10
0.0
 20
0.0
 30
0.0
 70
   128
 71
    13
 72
    20
 73
    24
  0
VERTEX
  5
29A5
  8
0
 10
0.0
 20
0.0
 30
0.0
 70
   128
 71
    20
 72
    25
 73
    24
  0
VERTEX
  5
29A6
  8
0
 10
0.0
 20
0.0
 30
0.0
 70
   128
 71
    20
 72
    26
 73
    25
  0
VERTEX
  5
29A7
  8
0
 10
0.0
 20
0.0
 30
0.0
 70
   128
 71
    27
 72
    28
 73
    29
  0
VERTEX
  5
29A8
  8
0
 10
0.0
 20
0.0
 30
0.0
 70
   128
 71
    27
 72
    29
 73
     9
  0
VERTEX
  5
29A9
  8
0
 10
0.0
 20
0.0
 30
0.0
 70
   128
 71
     9
 72
     7
 73
     5
  0
VERTEX
  5
29AA
  8
0
 10
0.0
 20
0.0
 30
0.0
 70
   128
 71
     9
 72
     5
 73
    27
  0
VERTEX
  5
29AB
  8
0
 10
0.0
 20
0.0
 30
0.0
 70
   128
 71
     7
 72
     6
 73
     1
  0
VERTEX
  5
29AC
  8
0
 10
0.0
 20
0.0
 30
0.0
 70
   128
 71
     7
 72
     1
 73
     5
  0
VERTEX
  5
29AD
  8
0
 10
0.0
 20
0.0
 30
0.0
 70
   128
 71
    28
 72
    30
 73
   -31
  0
VERTEX
  5
29AE
  8
0
 10
0.0
 20
0.0
 30
0.0
 70
   128
 71
    28
 72
    32
 73
    33
  0
VERTEX
  5
29AF
  8
0
 10
0.0
 20
0.0
 30
0.0
 70
   128
 71
    28
 72
    33
 73
    34
  0
VERTEX
  5
29B0
  8
0
 10
0.0
 20
0.0
 30
0.0
 70
   128
 71
    28
 72
    34
 73
    29
  0
VERTEX
  5
29B1
  8
0
 10
0.0
 20
0.0
 30
0.0
 70
   128
 71
   -28
 72
    31
 73
    35
  0
VERTEX
  5
29B2
  8
0
 10
0.0
 20
0.0
 30
0.0
 70
   128
 71
    28
 72
    35
 73
    32
  0
VERTEX
  5
29B3
  8
0
 10
0.0
 20
0.0
 30
0.0
 70
   128
 71
    36
 72
    37
 73
     2
  0
VERTEX
  5
29B4
  8
0
 10
0.0
 20
0.0
 30
0.0
 70
   128
 71
     4
 72
     1
 73
     3
  0
VERTEX
  5
29B5
  8
0
 10
0.0
 20
0.0
 30
0.0
 70
   128
 71
    15
 72
     6
 73
     8
  0
VERTEX
  5
29B6
  8
0
 10
0.0
 20
0.0
 30
0.0
 70
   128
 71
    17
 72
    38
 73
    39
  0
VERTEX
  5
29B7
  8
0
 10
0.0
 20
0.0
 30
0.0
 70
   128
 71
     6
 72
    14
 73
    17
  0
VERTEX
  5
29B8
  8
0
 10
0.0
 20
0.0
 30
0.0
 70
   128
 71
     6
 72
    17
 73
    39
  0
VERTEX
  5
29B9
  8
0
 10
0.0
 20
0.0
 30
0.0
 70
   128
 71
     6
 72
    39
 73
    36
  0
VERTEX
  5
29BA
  8
0
 10
0.0
 20
0.0
 30
0.0
 70
   128
 71
    36
 72
     2
 73
     1
  0
VERTEX
  5
29BB
  8
0
 10
0.0
 20
0.0
 30
0.0
 70
   128
 71
    36
 72
     1
 73
     6
  0
VERTEX
  5
29BC
  8
0
 10
0.0
 20
0.0
 30
0.0
 70
   128
 71
    16
 72
    14
 73
    19
  0
VERTEX
  5
29BD
  8
0
 10
0.0
 20
0.0
 30
0.0
 70
   128
 71
    20
 72
    23
 73
    40
  0
VERTEX
  5
29BE
  8
0
 10
0.0
 20
0.0
 30
0.0
 70
   128
 71
    20
 72
    40
 73
    41
  0
VERTEX
  5
29BF
  8
0
 10
0.0
 20
0.0
 30
0.0
 70
   128
 71
    20
 72
    41
 73
    26
  0
SEQEND
  5
2BCF
  8
0
  0
POLYLINE
  5
29C0
  8
0
 66
     1
 10
0.0
 20
0.0
 30
0.0
 70
    64
 71
     4
 72
     2
  0
VERTEX
  5
29C1
  8
0
 10
-410.0000000000001
 20
-60.00000000000002
 30
-235.0
 70
   192
  0
VERTEX
  5
29C2
  8
0
 10
410.0
 20
-60.00000000000002
 30
-235.0
 70
   192
  0
VERTEX
  5
29C3
  8
0
 10
410.0
 20
-60.00000000000002
 30
-215.0
 70
   192
  0
VERTEX
  5
29C4
  8
0
 10
-410.0000000000001
 20
-60.00000000000002
 30
-215.0
 70
   192
  0
VERTEX
  5
29C5
  8
0
 10
0.0
 20
0.0
 30
0.0
 70
   128
 71
     3
 72
     4
 73
    -1
  0
VERTEX
  5
29C6
  8
0
 10
0.0
 20
0.0
 30
0.0
 70
   128
 71
     2
 72
    -3
 73
     1
  0
SEQEND
  5
2BD0
  8
0
  0
POLYLINE
  5
29C7
  8
0
 66
     1
 10
0.0
 20
0.0
 30
0.0
 70
    64
 71
    22
 72
    24
  0
VERTEX
  5
29C8
  8
0
 10
-497.5
 20
60.00000000000004
 30
232.5
 70
   192
  0
VERTEX
  5
29C9
  8
0
 10
497.5
 20
60.00000000000004
 30
232.5
 70
   192
  0
VERTEX
  5
29CA
  8
0
 10
497.5000000000001
 20
59.99999999999998
 30
-220.0
 70
   192
  0
VERTEX
  5
29CB
  8
0
 10
-497.5
 20
59.99999999999998
 30
-220.0
 70
   192
  0
VERTEX
  5
29CC
  8
0
 10
262.0
 20
59.99999999999999
 30
-185.0000000000001
 70
   192
  0
VERTEX
  5
29CD
  8
0
 10
373.67919793557
 20
59.99999999999999
 30
-148.7132289312401
 70
   192
  0
VERTEX
  5
29CE
  8
0
 10
442.7007380960792
 20
60.0
 30
-53.71322893124005
 70
   192
  0
VERTEX
  5
29CF
  8
0
 10
442.7007380960792
 20
60.00000000000001
 30
63.71322893124
 70
   192
  0
VERTEX
  5
29D0
  8
0
 10
373.67919793557
 20
60.00000000000002
 30
158.71322893124
 70
   192
  0
VERTEX
  5
29D1
  8
0
 10
262.0
 20
60.00000000000003
 30
195.0
 70
   192
  0
VERTEX
  5
29D2
  8
0
 10
150.32080206443
 20
60.00000000000002
 30
158.71322893124
 70
   192
  0
VERTEX
  5
29D3
  8
0
 10
81.29926190392072
 20
60.00000000000001
 30
63.71322893123997
 70
   192
  0
VERTEX
  5
29D4
  8
0
 10
81.29926190392075
 20
60.0
 30
-53.7132289312401
 70
   192
  0
VERTEX
  5
29D5
  8
0
 10
150.3208020644301
 20
59.99999999999999
 30
-148.7132289312401
 70
   192
  0
VERTEX
  5
29D6
  8
0
 10
89.99999999999942
 20
59.99999999999999
 30
-183.9999999999999
 70
   192
  0
VERTEX
  5
29D7
  8
0
 10
102.0208152801707
 20
59.99999999999999
 30
-179.0208152801712
 70
   192
  0
VERTEX
  5
29D8
  8
0
 10
106.9999999999994
 20
59.99999999999999
 30
-166.9999999999999
 70
   192
  0
VERTEX
  5
29D9
  8
0
 10
102.0208152801707
 20
59.99999999999999
 30
-154.9791847198287
 70
   192
  0
VERTEX
  5
29DA
  8
0
 10
89.99999999999942
 20
59.99999999999999
 30
-149.9999999999999
 70
   192
  0
VERTEX
  5
29DB
  8
0
 10
77.97918471982811
 20
59.99999999999999
 30
-154.9791847198287
 70
   192
  0
VERTEX
  5
29DC
  8
0
 10
72.99999999999943
 20
59.99999999999999
 30
-166.9999999999999
 70
   192
  0
VERTEX
  5
29DD
  8
0
 10
77.97918471982813
 20
59.99999999999999
 30
-179.0208152801712
 70
   192
  0
VERTEX
  5
29DE
  8
0
 10
0.0
 20
0.0
 30
0.0
 70
   128
 71
    -3
 72
     5
 73
    -6
  0
VERTEX
  5
29DF
  8
0
 10
0.0
 20
0.0
 30
0.0
 70
   128
 71
     6
 72
    -7
 73
    -3
  0
VERTEX
  5
29E0
  8
0
 10
0.0
 20
0.0
 30
0.0
 70
   128
 71
    -8
 72
     2
 73
    -3
  0
VERTEX
  5
29E1
  8
0
 10
0.0
 20
0.0
 30
0.0
 70
   128
 71
     7
 72
    -8
 73
    -3
  0
VERTEX
  5
29E2
  8
0
 10
0.0
 20
0.0
 30
0.0
 70
   128
 71
     8
 72
    -9
 73
    -2
  0
VERTEX
  5
29E3
  8
0
 10
0.0
 20
0.0
 30
0.0
 70
   128
 71
     9
 72
   -10
 73
    -2
  0
VERTEX
  5
29E4
  8
0
 10
0.0
 20
0.0
 30
0.0
 70
   128
 71
     1
 72
    -2
 73
   -10
  0
VERTEX
  5
29E5
  8
0
 10
0.0
 20
0.0
 30
0.0
 70
   128
 71
    10
 72
   -11
 73
    -1
  0
VERTEX
  5
29E6
  8
0
 10
0.0
 20
0.0
 30
0.0
 70
   128
 71
    11
 72
   -12
 73
    -1
  0
VERTEX
  5
29E7
  8
0
 10
0.0
 20
0.0
 30
0.0
 70
   128
 71
   -13
 72
     4
 73
    -1
  0
VERTEX
  5
29E8
  8
0
 10
0.0
 20
0.0
 30
0.0
 70
   128
 71
    12
 72
   -13
 73
    -1
  0
VERTEX
  5
29E9
  8
0
 10
0.0
 20
0.0
 30
0.0
 70
   128
 71
    -5
 72
    15
 73
   -16
  0
VERTEX
  5
29EA
  8
0
 10
0.0
 20
0.0
 30
0.0
 70
   128
 71
   -17
 72
    14
 73
    -5
  0
VERTEX
  5
29EB
  8
0
 10
0.0
 20
0.0
 30
0.0
 70
   128
 71
    16
 72
   -17
 73
    -5
  0
VERTEX
  5
29EC
  8
0
 10
0.0
 20
0.0
 30
0.0
 70
   128
 71
    17
 72
   -18
 73
   -14
  0
VERTEX
  5
29ED
  8
0
 10
0.0
 20
0.0
 30
0.0
 70
   128
 71
    18
 72
   -19
 73
   -14
  0
VERTEX
  5
29EE
  8
0
 10
0.0
 20
0.0
 30
0.0
 70
   128
 71
    13
 72
   -14
 73
   -19
  0
VERTEX
  5
29EF
  8
0
 10
0.0
 20
0.0
 30
0.0
 70
   128
 71
    19
 72
   -20
 73
   -13
  0
VERTEX
  5
29F0
  8
0
 10
0.0
 20
0.0
 30
0.0
 70
   128
 71
    20
 72
   -21
 73
   -13
  0
VERTEX
  5
29F1
  8
0
 10
0.0
 20
0.0
 30
0.0
 70
   128
 71
    -4
 72
   -13
 73
   -21
  0
VERTEX
  5
29F2
  8
0
 10
0.0
 20
0.0
 30
0.0
 70
   128
 71
    21
 72
   -22
 73
    -4
  0
VERTEX
  5
29F3
  8
0
 10
0.0
 20
0.0
 30
0.0
 70
   128
 71
    22
 72
   -15
 73
    -4
  0
VERTEX
  5
29F4
  8
0
 10
0.0
 20
0.0
 30
0.0
 70
   128
 71
   -15
 72
     3
 73
    -4
  0
VERTEX
  5
29F5
  8
0
 10
0.0
 20
0.0
 30
0.0
 70
   128
 71
    -5
 72
    -3
 73
   -15
  0
SEQEND
  5
2BD1
  8
0
  0
POLYLINE
  5
29F6
  8
0
 66
     1
 10
0.0
 20
0.0
 30
0.0
 70
    64
 71
     4
 72
     2
  0
VERTEX
  5
29F7
  8
0
 10
-497.5
 20
59.99999999999998
 30
-220.0
 70
   192
  0
VERTEX
  5
29F8
  8
0
 10
497.5
 20
59.99999999999998
 30
-220.0
 70
   192
  0
VERTEX
  5
29F9
  8
0
 10
497.5000000000001
 20
62.99999999999997
 30
-235.0
 70
   192
  0
VERTEX
  5
29FA
  8
0
 10
-497.5
 20
62.99999999999997
 30
-235.0
 70
   192
  0
VERTEX
  5
29FB
  8
0
 10
0.0
 20
0.0
 30
0.0
 70
   128
 71
     3
 72
     4
 73
    -1
  0
VERTEX
  5
29FC
  8
0
 10
0.0
 20
0.0
 30
0.0
 70
   128
 71
     2
 72
    -3
 73
     1
  0
SEQEND
  5
2BD2
  8
0
  0
POLYLINE
  5
29FD
  8
0
 66
     1
 10
0.0
 20
0.0
 30
0.0
 70
    64
 71
     4
 72
     2
  0
VERTEX
  5
29FE
  8
0
 10
500.0
 20
41.00000000000004
 30
235.0
 70
   192
  0
VERTEX
  5
29FF
  8
0
 10
500.0
 20
57.50000000000004
 30
235.0
 70
   192
  0
VERTEX
  5
2A00
  8
0
 10
-500.0
 20
57.50000000000004
 30
235.0
 70
   192
  0
VERTEX
  5
2A01
  8
0
 10
-500.0
 20
41.00000000000004
 30
235.0
 70
   192
  0
VERTEX
  5
2A02
  8
0
 10
0.0
 20
0.0
 30
0.0
 70
   128
 71
     3
 72
     4
 73
    -1
  0
VERTEX
  5
2A03
  8
0
 10
0.0
 20
0.0
 30
0.0
 70
   128
 71
     2
 72
    -3
 73
     1
  0
SEQEND
  5
2BD3
  8
0
  0
POLYLINE
  5
2A04
  8
0
 66
     1
 10
0.0
 20
0.0
 30
0.0
 70
    64
 71
     5
 72
     3
  0
VERTEX
  5
2A05
  8
0
 10
-500.0
 20
57.50000000000004
 30
235.0
 70
   192
  0
VERTEX
  5
2A06
  8
0
 10
-500.0
 20
41.00000000000004
 30
235.0
 70
   192
  0
VERTEX
  5
2A07
  8
0
 10
-500.0
 20
40.99999999999998
 30
-235.0
 70
   192
  0
VERTEX
  5
2A08
  8
0
 10
-500.0
 20
60.45049024320359
 30
-235.0
 70
   192
  0
VERTEX
  5
2A09
  8
0
 10
-500.0
 20
57.49999999999997
 30
-220.2475487839819
 70
   192
  0
VERTEX
  5
2A0A
  8
0
 10
0.0
 20
0.0
 30
0.0
 70
   128
 71
     5
 72
     4
 73
    -3
  0
VERTEX
  5
2A0B
  8
0
 10
0.0
 20
0.0
 30
0.0
 70
   128
 71
     3
 72
     2
 73
    -1
  0
VERTEX
  5
2A0C
  8
0
 10
0.0
 20
0.0
 30
0.0
 70
   128
 71
    -3
 72
     1
 73
    -5
  0
SEQEND
  5
2BD4
  8
0
  0
POLYLINE
  5
2A0D
  8
0
 66
     1
 10
0.0
 20
0.0
 30
0.0
 70
    64
 71
     5
 72
     3
  0
VERTEX
  5
2A0E
  8
0
 10
500.0
 20
40.99999999999998
 30
-235.0000000000002
 70
   192
  0
VERTEX
  5
2A0F
  8
0
 10
500.0
 20
60.45049024320358
 30
-235.0
 70
   192
  0
VERTEX
  5
2A10
  8
0
 10
500.0
 20
57.49999999999997
 30
-220.2475487839819
 70
   192
  0
VERTEX
  5
2A11
  8
0
 10
500.0
 20
57.50000000000003
 30
235.0
 70
   192
  0
VERTEX
  5
2A12
  8
0
 10
500.0
 20
41.00000000000004
 30
235.0
 70
   192
  0
VERTEX
  5
2A13
  8
0
 10
0.0
 20
0.0
 30
0.0
 70
   128
 71
     1
 72
     2
 73
    -3
  0
VERTEX
  5
2A14
  8
0
 10
0.0
 20
0.0
 30
0.0
 70
   128
 71
     4
 72
     5
 73
    -1
  0
VERTEX
  5
2A15
  8
0
 10
0.0
 20
0.0
 30
0.0
 70
   128
 71
     3
 72
    -4
 73
    -1
  0
SEQEND
  5
2BD5
  8
0
  0
POLYLINE
  5
2A16
  8
0
 66
     1
 10
0.0
 20
0.0
 30
0.0
 70
    64
 71
     4
 72
     2
  0
VERTEX
  5
2A17
  8
0
 10
460.0
 20
30.99999999999998
 30
-215.0
 70
   192
  0
VERTEX
  5
2A18
  8
0
 10
460.0
 20
30.99999999999998
 30
-235.0000000000003
 70
   192
  0
VERTEX
  5
2A19
  8
0
 10
459.9999999999999
 20
-10.00000000000002
 30
-235.0000000000006
 70
   192
  0
VERTEX
  5
2A1A
  8
0
 10
459.9999999999999
 20
-10.00000000000001
 30
-215.0
 70
   192
  0
VERTEX
  5
2A1B
  8
0
 10
0.0
 20
0.0
 30
0.0
 70
   128
 71
     1
 72
     4
 73
    -3
  0
VERTEX
  5
2A1C
  8
0
 10
0.0
 20
0.0
 30
0.0
 70
   128
 71
    -1
 72
     3
 73
     2
  0
SEQEND
  5
2BD6
  8
0
  0
POLYLINE
  5
2A1D
  8
0
 66
     1
 10
0.0
 20
0.0
 30
0.0
 70
    64
 71
     8
 72
     6
  0
VERTEX
  5
2A1E
  8
0
 10
453.3012701892219
 20
-35.00000000000004
 30
-235.0000000000009
 70
   192
  0
VERTEX
  5
2A1F
  8
0
 10
453.3012701892219
 20
-35.00000000000001
 30
-215.0
 70
   192
  0
VERTEX
  5
2A20
  8
0
 10
435.0
 20
-53.30127018922193
 30
-215.0
 70
   192
  0
VERTEX
  5
2A21
  8
0
 10
435.0
 20
-53.30127018922195
 30
-235.000000000001
 70
   192
  0
VERTEX
  5
2A22
  8
0
 10
460.0
 20
-10.00000000000002
 30
-235.0000000000006
 70
   192
  0
VERTEX
  5
2A23
  8
0
 10
459.9999999999999
 20
-10.00000000000002
 30
-215.0
 70
   192
  0
VERTEX
  5
2A24
  8
0
 10
410.0
 20
-60.0
 30
-215.0
 70
   192
  0
VERTEX
  5
2A25
  8
0
 10
410.0
 20
-60.00000000000002
 30
-235.0000000000011
 70
   192
  0
VERTEX
  5
2A26
  8
0
 10
0.0
 20
0.0
 30
0.0
 70
   128
 71
     1
 72
     2
 73
    -3
  0
VERTEX
  5
2A27
  8
0
 10
0.0
 20
0.0
 30
0.0
 70
   128
 71
    -1
 72
     3
 73
     4
  0
VERTEX
  5
2A28
  8
0
 10
0.0
 20
0.0
 30
0.0
 70
   128
 71
     5
 72
     6
 73
    -2
  0
VERTEX
  5
2A29
  8
0
 10
0.0
 20
0.0
 30
0.0
 70
   128
 71
    -5
 72
     2
 73
     1
  0
VERTEX
  5
2A2A
  8
0
 10
0.0
 20
0.0
 30
0.0
 70
   128
 71
     4
 72
     3
 73
    -7
  0
VERTEX
  5
2A2B
  8
0
 10
0.0
 20
0.0
 30
0.0
 70
   128
 71
    -4
 72
     7
 73
     8
  0
SEQEND
  5
2BD7
  8
0
  0
POLYLINE
  5
2A2C
  8
0
 66
     1
 10
0.0
 20
0.0
 30
0.0
 70
    64
 71
     8
 72
     6
  0
VERTEX
  5
2A2D
  8
0
 10
465.0000000000001
 20
39.66025403784437
 30
-215.0
 70
   192
  0
VERTEX
  5
2A2E
  8
0
 10
461.3397459621557
 20
35.99999999999999
 30
-215.0
 70
   192
  0
VERTEX
  5
2A2F
  8
0
 10
461.3397459621557
 20
35.99999999999999
 30
-235.0000000000002
 70
   192
  0
VERTEX
  5
2A30
  8
0
 10
465.0000000000001
 20
39.66025403784437
 30
-235.0000000000002
 70
   192
  0
VERTEX
  5
2A31
  8
0
 10
460.0000000000001
 20
30.99999999999998
 30
-215.0
 70
   192
  0
VERTEX
  5
2A32
  8
0
 10
460.0
 20
30.99999999999998
 30
-235.0000000000003
 70
   192
  0
VERTEX
  5
2A33
  8
0
 10
470.0000000000001
 20
40.99999999999999
 30
-215.0
 70
   192
  0
VERTEX
  5
2A34
  8
0
 10
470.0000000000001
 20
40.99999999999998
 30
-235.0000000000002
 70
   192
  0
VERTEX
  5
2A35
  8
0
 10
0.0
 20
0.0
 30
0.0
 70
   128
 71
     1
 72
     2
 73
    -3
  0
VERTEX
  5
2A36
  8
0
 10
0.0
 20
0.0
 30
0.0
 70
   128
 71
     4
 72
    -1
 73
     3
  0
VERTEX
  5
2A37
  8
0
 10
0.0
 20
0.0
 30
0.0
 70
   128
 71
     2
 72
     5
 73
    -6
  0
VERTEX
  5
2A38
  8
0
 10
0.0
 20
0.0
 30
0.0
 70
   128
 71
     3
 72
    -2
 73
     6
  0
VERTEX
  5
2A39
  8
0
 10
0.0
 20
0.0
 30
0.0
 70
   128
 71
     7
 72
     1
 73
    -4
  0
VERTEX
  5
2A3A
  8
0
 10
0.0
 20
0.0
 30
0.0
 70
   128
 71
     8
 72
    -7
 73
     4
  0
SEQEND
  5
2BD8
  8
0
  0
POLYLINE
  5
2A3B
  8
0
 66
     1
 10
0.0
 20
0.0
 30
0.0
 70
    64
 71
     8
 72
     6
  0
VERTEX
  5
2A3C
  8
0
 10
-435.0000000000001
 20
-53.30127018922193
 30
-235.000000000001
 70
   192
  0
VERTEX
  5
2A3D
  8
0
 10
-435.0000000000001
 20
-53.30127018922194
 30
-215.0
 70
   192
  0
VERTEX
  5
2A3E
  8
0
 10
-453.301270189222
 20
-35.00000000000003
 30
-215.0
 70
   192
  0
VERTEX
  5
2A3F
  8
0
 10
-453.3012701892221
 20
-35.0
 30
-235.0000000000009
 70
   192
  0
VERTEX
  5
2A40
  8
0
 10
-410.0000000000001
 20
-60.00000000000001
 30
-235.0000000000011
 70
   192
  0
VERTEX
  5
2A41
  8
0
 10
-410.0000000000001
 20
-60.00000000000002
 30
-215.0
 70
   192
  0
VERTEX
  5
2A42
  8
0
 10
-460.0000000000001
 20
-10.00000000000002
 30
-215.0
 70
   192
  0
VERTEX
  5
2A43
  8
0
 10
-460.0000000000001
 20
-10.00000000000002
 30
-235.0000000000006
 70
   192
  0
VERTEX
  5
2A44
  8
0
 10
0.0
 20
0.0
 30
0.0
 70
   128
 71
     1
 72
     2
 73
    -3
  0
VERTEX
  5
2A45
  8
0
 10
0.0
 20
0.0
 30
0.0
 70
   128
 71
    -1
 72
     3
 73
     4
  0
VERTEX
  5
2A46
  8
0
 10
0.0
 20
0.0
 30
0.0
 70
   128
 71
     5
 72
     6
 73
    -2
  0
VERTEX
  5
2A47
  8
0
 10
0.0
 20
0.0
 30
0.0
 70
   128
 71
    -5
 72
     2
 73
     1
  0
VERTEX
  5
2A48
  8
0
 10
0.0
 20
0.0
 30
0.0
 70
   128
 71
     4
 72
     3
 73
    -7
  0
VERTEX
  5
2A49
  8
0
 10
0.0
 20
0.0
 30
0.0
 70
   128
 71
    -4
 72
     7
 73
     8
  0
SEQEND
  5
2BD9
  8
0
  0
POLYLINE
  5
2A4A
  8
0
 66
     1
 10
0.0
 20
0.0
 30
0.0
 70
    64
 71
     4
 72
     2
  0
VERTEX
  5
2A4B
  8
0
 10
-460.0000000000001
 20
-10.00000000000002
 30
-215.0
 70
   192
  0
VERTEX
  5
2A4C
  8
0
 10
-460.0000000000001
 20
-10.00000000000002
 30
-235.0000000000006
 70
   192
  0
VERTEX
  5
2A4D
  8
0
 10
-460.0000000000001
 20
30.99999999999997
 30
-235.0000000000003
 70
   192
  0
VERTEX
  5
2A4E
  8
0
 10
-460.0000000000001
 20
30.99999999999998
 30
-215.0
 70
   192
  0
VERTEX
  5
2A4F
  8
0
 10
0.0
 20
0.0
 30
0.0
 70
   128
 71
     1
 72
     4
 73
    -3
  0
VERTEX
  5
2A50
  8
0
 10
0.0
 20
0.0
 30
0.0
 70
   128
 71
    -1
 72
     3
 73
     2
  0
SEQEND
  5
2BDA
  8
0
  0
POLYLINE
  5
2A51
  8
0
 66
     1
 10
0.0
 20
0.0
 30
0.0
 70
    64
 71
     8
 72
     6
  0
VERTEX
  5
2A52
  8
0
 10
-461.3397459621557
 20
35.99999999999995
 30
-215.0
 70
   192
  0
VERTEX
  5
2A53
  8
0
 10
-465.0000000000001
 20
39.66025403784432
 30
-215.0
 70
   192
  0
VERTEX
  5
2A54
  8
0
 10
-465.0000000000001
 20
39.66025403784432
 30
-235.0000000000002
 70
   192
  0
VERTEX
  5
2A55
  8
0
 10
-461.3397459621557
 20
35.99999999999995
 30
-235.0000000000002
 70
   192
  0
VERTEX
  5
2A56
  8
0
 10
-470.0000000000001
 20
40.99999999999993
 30
-215.0
 70
   192
  0
VERTEX
  5
2A57
  8
0
 10
-470.0000000000001
 20
40.99999999999997
 30
-235.0000000000001
 70
   192
  0
VERTEX
  5
2A58
  8
0
 10
-460.0000000000001
 20
30.99999999999997
 30
-215.0
 70
   192
  0
VERTEX
  5
2A59
  8
0
 10
-460.0000000000001
 20
30.99999999999997
 30
-235.0000000000003
 70
   192
  0
VERTEX
  5
2A5A
  8
0
 10
0.0
 20
0.0
 30
0.0
 70
   128
 71
     1
 72
     2
 73
    -3
  0
VERTEX
  5
2A5B
  8
0
 10
0.0
 20
0.0
 30
0.0
 70
   128
 71
     4
 72
    -1
 73
     3
  0
VERTEX
  5
2A5C
  8
0
 10
0.0
 20
0.0
 30
0.0
 70
   128
 71
     2
 72
     5
 73
    -6
  0
VERTEX
  5
2A5D
  8
0
 10
0.0
 20
0.0
 30
0.0
 70
   128
 71
     3
 72
    -2
 73
     6
  0
VERTEX
  5
2A5E
  8
0
 10
0.0
 20
0.0
 30
0.0
 70
   128
 71
     7
 72
     1
 73
    -4
  0
VERTEX
  5
2A5F
  8
0
 10
0.0
 20
0.0
 30
0.0
 70
   128
 71
     8
 72
    -7
 73
     4
  0
SEQEND
  5
2BDB
  8
0
  0
POLYLINE
  5
2A60
  8
0
 66
     1
 10
0.0
 20
0.0
 30
0.0
 70
    64
 71
    13
 72
    11
  0
VERTEX
  5
2A61
  8
0
 10
262.0
 20
41.00000000000012
 30
195.0000000000001
 70
   192
  0
VERTEX
  5
2A62
  8
0
 10
262.0
 20
60.00000000000003
 30
195.0
 70
   192
  0
VERTEX
  5
2A63
  8
0
 10
373.67919793557
 20
60.00000000000002
 30
158.71322893124
 70
   192
  0
VERTEX
  5
2A64
  8
0
 10
357.0
 20
41.00000000000016
 30
169.5448267190435
 70
   192
  0
VERTEX
  5
2A65
  8
0
 10
426.5448267190434
 20
41.00000000000019
 30
-89.99999999999994
 70
   192
  0
VERTEX
  5
2A66
  8
0
 10
452.0000000000001
 20
41.00000000000021
 30
5.000000000000087
 70
   192
  0
VERTEX
  5
2A67
  8
0
 10
442.7007380960792
 20
60.0
 30
-53.71322893124005
 70
   192
  0
VERTEX
  5
2A68
  8
0
 10
262.0
 20
59.99999999999999
 30
-185.0000000000001
 70
   192
  0
VERTEX
  5
2A69
  8
0
 10
262.0
 20
41.00000000000012
 30
-185.0000000000001
 70
   192
  0
VERTEX
  5
2A6A
  8
0
 10
357.0000000000001
 20
41.00000000000016
 30
-159.5448267190433
 70
   192
  0
VERTEX
  5
2A6B
  8
0
 10
373.67919793557
 20
59.99999999999999
 30
-148.7132289312401
 70
   192
  0
VERTEX
  5
2A6C
  8
0
 10
426.5448267190434
 20
41.00000000000019
 30
100.0000000000001
 70
   192
  0
VERTEX
  5
2A6D
  8
0
 10
442.7007380960792
 20
60.00000000000001
 30
63.71322893124
 70
   192
  0
VERTEX
  5
2A6E
  8
0
 10
0.0
 20
0.0
 30
0.0
 70
   128
 71
     1
 72
     2
 73
     3
  0
VERTEX
  5
2A6F
  8
0
 10
0.0
 20
0.0
 30
0.0
 70
   128
 71
     4
 72
     1
 73
     3
  0
VERTEX
  5
2A70
  8
0
 10
0.0
 20
0.0
 30
0.0
 70
   128
 71
     5
 72
     6
 73
     7
  0
VERTEX
  5
2A71
  8
0
 10
0.0
 20
0.0
 30
0.0
 70
   128
 71
     8
 72
     9
 73
    10
  0
VERTEX
  5
2A72
  8
0
 10
0.0
 20
0.0
 30
0.0
 70
   128
 71
    11
 72
     8
 73
    10
  0
VERTEX
  5
2A73
  8
0
 10
0.0
 20
0.0
 30
0.0
 70
   128
 71
     6
 72
    12
 73
    13
  0
VERTEX
  5
2A74
  8
0
 10
0.0
 20
0.0
 30
0.0
 70
   128
 71
     7
 72
     6
 73
    13
  0
VERTEX
  5
2A75
  8
0
 10
0.0
 20
0.0
 30
0.0
 70
   128
 71
    12
 72
     4
 73
     3
  0
VERTEX
  5
2A76
  8
0
 10
0.0
 20
0.0
 30
0.0
 70
   128
 71
    13
 72
    12
 73
     3
  0
VERTEX
  5
2A77
  8
0
 10
0.0
 20
0.0
 30
0.0
 70
   128
 71
    10
 72
     5
 73
     7
  0
VERTEX
  5
2A78
  8
0
 10
0.0
 20
0.0
 30
0.0
 70
   128
 71
    11
 72
    10
 73
     7
  0
SEQEND
  5
2BDC
  8
0
  0
POLYLINE
  5
2A79
  8
0
 66
     1
 10
0.0
 20
0.0
 30
0.0
 70
    64
 71
    10
 72
     8
  0
VERTEX
  5
2A7A
  8
0
 10
89.99999999999942
 20
41.00000000000004
 30
-149.9999999999999
 70
   192
  0
VERTEX
  5
2A7B
  8
0
 10
89.99999999999942
 20
41.00000000000004
 30
-183.9999999999999
 70
   192
  0
VERTEX
  5
2A7C
  8
0
 10
89.99999999999942
 20
59.99999999999999
 30
-183.9999999999999
 70
   192
  0
VERTEX
  5
2A7D
  8
0
 10
89.99999999999942
 20
59.99999999999999
 30
-150.0
 70
   192
  0
VERTEX
  5
2A7E
  8
0
 10
106.9999999999994
 20
59.99999999999999
 30
-166.9999999999999
 70
   192
  0
VERTEX
  5
2A7F
  8
0
 10
106.9999999999994
 20
41.00000000000004
 30
-166.9999999999999
 70
   192
  0
VERTEX
  5
2A80
  8
0
 10
102.0208152801707
 20
59.99999999999999
 30
-154.9791847198287
 70
   192
  0
VERTEX
  5
2A81
  8
0
 10
102.0208152801707
 20
41.00000000000004
 30
-154.9791847198287
 70
   192
  0
VERTEX
  5
2A82
  8
0
 10
102.0208152801707
 20
59.99999999999999
 30
-179.0208152801712
 70
   192
  0
VERTEX
  5
2A83
  8
0
 10
102.0208152801707
 20
41.00000000000004
 30
-179.0208152801712
 70
   192
  0
VERTEX
  5
2A84
  8
0
 10
0.0
 20
0.0
 30
0.0
 70
   128
 71
     8
 72
     1
 73
    -4
  0
VERTEX
  5
2A85
  8
0
 10
0.0
 20
0.0
 30
0.0
 70
   128
 71
     7
 72
    -8
 73
     4
  0
VERTEX
  5
2A86
  8
0
 10
0.0
 20
0.0
 30
0.0
 70
   128
 71
     6
 72
     8
 73
    -7
  0
VERTEX
  5
2A87
  8
0
 10
0.0
 20
0.0
 30
0.0
 70
   128
 71
     5
 72
    -6
 73
     7
  0
VERTEX
  5
2A88
  8
0
 10
0.0
 20
0.0
 30
0.0
 70
   128
 71
    10
 72
     6
 73
    -5
  0
VERTEX
  5
2A89
  8
0
 10
0.0
 20
0.0
 30
0.0
 70
   128
 71
     9
 72
   -10
 73
     5
  0
VERTEX
  5
2A8A
  8
0
 10
0.0
 20
0.0
 30
0.0
 70
   128
 71
     3
 72
     2
 73
   -10
  0
VERTEX
  5
2A8B
  8
0
 10
0.0
 20
0.0
 30
0.0
 70
   128
 71
     9
 72
    -3
 73
    10
  0
SEQEND
  5
2BDD
  8
0
  0
POLYLINE
  5
2A8C
  8
0
 66
     1
 10
0.0
 20
0.0
 30
0.0
 70
    64
 71
    10
 72
     8
  0
VERTEX
  5
2A8D
  8
0
 10
239.5
 20
-90.0000000000003
 30
5.000000000000064
 70
   192
  0
VERTEX
  5
2A8E
  8
0
 10
284.5000000000002
 20
-90.00000000000028
 30
5.000000000000067
 70
   192
  0
VERTEX
  5
2A8F
  8
0
 10
284.5000000000002
 20
-76.07417109108874
 30
5.000000000000067
 70
   192
  0
VERTEX
  5
2A90
  8
0
 10
239.5
 20
-76.07417109108877
 30
5.000000000000064
 70
   192
  0
VERTEX
  5
2A91
  8
0
 10
262.0000000000001
 20
-76.07417109108874
 30
27.50000000000014
 70
   192
  0
VERTEX
  5
2A92
  8
0
 10
262.0000000000001
 20
-90.00000000000028
 30
27.50000000000009
 70
   192
  0
VERTEX
  5
2A93
  8
0
 10
246.0900974233027
 20
-76.07417109108876
 30
20.90990257669744
 70
   192
  0
VERTEX
  5
2A94
  8
0
 10
246.0900974233027
 20
-90.0000000000003
 30
20.9099025766974
 70
   192
  0
VERTEX
  5
2A95
  8
0
 10
277.9099025766974
 20
-76.07417109108873
 30
20.90990257669744
 70
   192
  0
VERTEX
  5
2A96
  8
0
 10
277.9099025766974
 20
-90.00000000000027
 30
20.90990257669741
 70
   192
  0
VERTEX
  5
2A97
  8
0
 10
0.0
 20
0.0
 30
0.0
 70
   128
 71
     8
 72
     1
 73
    -4
  0
VERTEX
  5
2A98
  8
0
 10
0.0
 20
0.0
 30
0.0
 70
   128
 71
     7
 72
    -8
 73
     4
  0
VERTEX
  5
2A99
  8
0
 10
0.0
 20
0.0
 30
0.0
 70
   128
 71
     6
 72
     8
 73
    -7
  0
VERTEX
  5
2A9A
  8
0
 10
0.0
 20
0.0
 30
0.0
 70
   128
 71
     5
 72
    -6
 73
     7
  0
VERTEX
  5
2A9B
  8
0
 10
0.0
 20
0.0
 30
0.0
 70
   128
 71
    10
 72
     6
 73
    -5
  0
VERTEX
  5
2A9C
  8
0
 10
0.0
 20
0.0
 30
0.0
 70
   128
 71
     9
 72
   -10
 73
     5
  0
VERTEX
  5
2A9D
  8
0
 10
0.0
 20
0.0
 30
0.0
 70
   128
 71
     3
 72
     2
 73
   -10
  0
VERTEX
  5
2A9E
  8
0
 10
0.0
 20
0.0
 30
0.0
 70
   128
 71
     9
 72
    -3
 73
    10
  0
SEQEND
  5
2BDE
  8
0
  0
POLYLINE
  5
2A9F
  8
0
 66
     1
 10
0.0
 20
0.0
 30
0.0
 70
    64
 71
    10
 72
     8
  0
VERTEX
  5
2AA0
  8
0
 10
239.5
 20
-76.07417109108876
 30
5.000000000000064
 70
   192
  0
VERTEX
  5
2AA1
  8
0
 10
284.5000000000001
 20
-76.07417109108873
 30
5.000000000000067
 70
   192
  0
VERTEX
  5
2AA2
  8
0
 10
294.6204195601881
 20
-69.0741710910887
 30
5.000000000000068
 70
   192
  0
VERTEX
  5
2AA3
  8
0
 10
229.3795804398121
 20
-69.07417109108873
 30
5.000000000000064
 70
   192
  0
VERTEX
  5
2AA4
  8
0
 10
262.0000000000001
 20
-69.07417109108873
 30
37.62041956018806
 70
   192
  0
VERTEX
  5
2AA5
  8
0
 10
262.0000000000001
 20
-76.07417109108874
 30
27.50000000000014
 70
   192
  0
VERTEX
  5
2AA6
  8
0
 10
238.9338801238408
 20
-69.07417109108874
 30
28.06611987615929
 70
   192
  0
VERTEX
  5
2AA7
  8
0
 10
246.0900974233027
 20
-76.07417109108876
 30
20.90990257669744
 70
   192
  0
VERTEX
  5
2AA8
  8
0
 10
285.0661198761593
 20
-69.07417109108872
 30
28.06611987615929
 70
   192
  0
VERTEX
  5
2AA9
  8
0
 10
277.9099025766974
 20
-76.07417109108873
 30
20.90990257669744
 70
   192
  0
VERTEX
  5
2AAA
  8
0
 10
0.0
 20
0.0
 30
0.0
 70
   128
 71
     8
 72
     1
 73
    -4
  0
VERTEX
  5
2AAB
  8
0
 10
0.0
 20
0.0
 30
0.0
 70
   128
 71
     7
 72
    -8
 73
     4
  0
VERTEX
  5
2AAC
  8
0
 10
0.0
 20
0.0
 30
0.0
 70
   128
 71
     6
 72
     8
 73
    -7
  0
VERTEX
  5
2AAD
  8
0
 10
0.0
 20
0.0
 30
0.0
 70
   128
 71
     5
 72
    -6
 73
     7
  0
VERTEX
  5
2AAE
  8
0
 10
0.0
 20
0.0
 30
0.0
 70
   128
 71
    10
 72
     6
 73
    -5
  0
VERTEX
  5
2AAF
  8
0
 10
0.0
 20
0.0
 30
0.0
 70
   128
 71
     9
 72
   -10
 73
     5
  0
VERTEX
  5
2AB0
  8
0
 10
0.0
 20
0.0
 30
0.0
 70
   128
 71
     3
 72
     2
 73
   -10
  0
VERTEX
  5
2AB1
  8
0
 10
0.0
 20
0.0
 30
0.0
 70
   128
 71
     9
 72
    -3
 73
    10
  0
SEQEND
  5
2BDF
  8
0
  0
POLYLINE
  5
2AB2
  8
0
 66
     1
 10
0.0
 20
0.0
 30
0.0
 70
    64
 71
    19
 72
    20
  0
VERTEX
  5
2AB3
  8
0
 10
426.5448267190434
 20
41.00000000000019
 30
100.0000000000001
 70
   192
  0
VERTEX
  5
2AB4
  8
0
 10
452.0000000000001
 20
41.00000000000014
 30
5.000000000000088
 70
   192
  0
VERTEX
  5
2AB5
  8
0
 10
411.790594331463
 20
-11.4201822672278
 30
5.000000000000083
 70
   192
  0
VERTEX
  5
2AB6
  8
0
 10
357.6527056808667
 20
-49.2852166076585
 30
5.000000000000075
 70
   192
  0
VERTEX
  5
2AB7
  8
0
 10
294.6204195601879
 20
-69.07417109108874
 30
5.000000000000068
 70
   192
  0
VERTEX
  5
2AB8
  8
0
 10
285.0661198761593
 20
-69.07417109108872
 30
28.06611987615929
 70
   192
  0
VERTEX
  5
2AB9
  8
0
 10
357.0000000000001
 20
-15.27199598670106
 30
115.4152957353615
 70
   192
  0
VERTEX
  5
2ABA
  8
0
 10
262.0000000000001
 20
-41.29654104114397
 30
115.4152957353615
 70
   192
  0
VERTEX
  5
2ABB
  8
0
 10
262.0000000000001
 20
-69.07417109108873
 30
37.62041956018806
 70
   192
  0
VERTEX
  5
2ABC
  8
0
 10
261.9999999999999
 20
41.00000000000012
 30
195.0000000000001
 70
   192
  0
VERTEX
  5
2ABD
  8
0
 10
238.9338801238408
 20
-69.07417109108874
 30
28.06611987615929
 70
   192
  0
VERTEX
  5
2ABE
  8
0
 10
167.0
 20
-15.27199598670114
 30
115.4152957353615
 70
   192
  0
VERTEX
  5
2ABF
  8
0
 10
229.3795804398121
 20
-69.07417109108874
 30
5.000000000000064
 70
   192
  0
VERTEX
  5
2AC0
  8
0
 10
166.3472943191335
 20
-49.28521660765855
 30
5.000000000000064
 70
   192
  0
VERTEX
  5
2AC1
  8
0
 10
112.209405668537
 20
-11.4201822672278
 30
5.000000000000064
 70
   192
  0
VERTEX
  5
2AC2
  8
0
 10
357.0
 20
41.00000000000016
 30
169.5448267190435
 70
   192
  0
VERTEX
  5
2AC3
  8
0
 10
166.9999999999999
 20
41.00000000000008
 30
169.5448267190434
 70
   192
  0
VERTEX
  5
2AC4
  8
0
 10
72.00000000000003
 20
40.99999999999997
 30
5.000000000000064
 70
   192
  0
VERTEX
  5
2AC5
  8
0
 10
97.45517328095659
 20
41.00000000000005
 30
100.0000000000001
 70
   192
  0
VERTEX
  5
2AC6
  8
0
 10
0.0
 20
0.0
 30
0.0
 70
   128
 71
     1
 72
     2
 73
     3
  0
VERTEX
  5
2AC7
  8
0
 10
0.0
 20
0.0
 30
0.0
 70
   128
 71
     4
 72
     5
 73
     6
  0
VERTEX
  5
2AC8
  8
0
 10
0.0
 20
0.0
 30
0.0
 70
   128
 71
     7
 72
     4
 73
     6
  0
VERTEX
  5
2AC9
  8
0
 10
0.0
 20
0.0
 30
0.0
 70
   128
 71
     8
 72
     7
 73
     6
  0
VERTEX
  5
2ACA
  8
0
 10
0.0
 20
0.0
 30
0.0
 70
   128
 71
     6
 72
     9
 73
     8
  0
VERTEX
  5
2ACB
  8
0
 10
0.0
 20
0.0
 30
0.0
 70
   128
 71
     8
 72
    10
 73
     7
  0
VERTEX
  5
2ACC
  8
0
 10
0.0
 20
0.0
 30
0.0
 70
   128
 71
     8
 72
     9
 73
    11
  0
VERTEX
  5
2ACD
  8
0
 10
0.0
 20
0.0
 30
0.0
 70
   128
 71
    12
 72
     8
 73
    11
  0
VERTEX
  5
2ACE
  8
0
 10
0.0
 20
0.0
 30
0.0
 70
   128
 71
    11
 72
    13
 73
    14
  0
VERTEX
  5
2ACF
  8
0
 10
0.0
 20
0.0
 30
0.0
 70
   128
 71
    11
 72
    14
 73
    15
  0
VERTEX
  5
2AD0
  8
0
 10
0.0
 20
0.0
 30
0.0
 70
   128
 71
    12
 72
    11
 73
    15
  0
VERTEX
  5
2AD1
  8
0
 10
0.0
 20
0.0
 30
0.0
 70
   128
 71
     3
 72
     4
 73
     7
  0
VERTEX
  5
2AD2
  8
0
 10
0.0
 20
0.0
 30
0.0
 70
   128
 71
     1
 72
     3
 73
     7
  0
VERTEX
  5
2AD3
  8
0
 10
0.0
 20
0.0
 30
0.0
 70
   128
 71
    16
 72
     1
 73
     7
  0
VERTEX
  5
2AD4
  8
0
 10
0.0
 20
0.0
 30
0.0
 70
   128
 71
    16
 72
     7
 73
    10
  0
VERTEX
  5
2AD5
  8
0
 10
0.0
 20
0.0
 30
0.0
 70
   128
 71
    10
 72
     8
 73
    12
  0
VERTEX
  5
2AD6
  8
0
 10
0.0
 20
0.0
 30
0.0
 70
   128
 71
    17
 72
    10
 73
    12
  0
VERTEX
  5
2AD7
  8
0
 10
0.0
 20
0.0
 30
0.0
 70
   128
 71
    15
 72
    18
 73
    19
  0
VERTEX
  5
2AD8
  8
0
 10
0.0
 20
0.0
 30
0.0
 70
   128
 71
    12
 72
    15
 73
    19
  0
VERTEX
  5
2AD9
  8
0
 10
0.0
 20
0.0
 30
0.0
 70
   128
 71
    17
 72
    12
 73
    19
  0
SEQEND
  5
2BE0
  8
0
  0
POLYLINE
  5
2ADA
  8
0
 66
     1
 10
0.0
 20
0.0
 30
0.0
 70
    64
 71
     9
 72
     7
  0
VERTEX
  5
2ADB
  8
0
 10
127.0379165601594
 20
-32.51424827458019
 30
-72.57444064181585
 70
   192
  0
VERTEX
  5
2ADC
  8
0
 10
127.0379165601594
 20
-32.51424827458019
 30
-215.0
 70
   192
  0
VERTEX
  5
2ADD
  8
0
 10
129.5357696882909
 20
-37.83469066073513
 30
-215.0
 70
   192
  0
VERTEX
  5
2ADE
  8
0
 10
140.4642303117095
 20
-37.83469066073515
 30
-215.0
 70
   192
  0
VERTEX
  5
2ADF
  8
0
 10
142.9620834398409
 20
-32.5142482745802
 30
-215.0
 70
   192
  0
VERTEX
  5
2AE0
  8
0
 10
142.9620834398408
 20
-32.5142482745802
 30
-95.31217387899488
 70
   192
  0
VERTEX
  5
2AE1
  8
0
 10
140.10168217929
 20
-38.15542048195107
 30
-80.65932804267148
 70
   192
  0
VERTEX
  5
2AE2
  8
0
 10
135.0000000000002
 20
-39.99999999999995
 30
-215.0
 70
   192
  0
VERTEX
  5
2AE3
  8
0
 10
133.583268595669
 20
-39.87328018109079
 30
-66.22685449628814
 70
   192
  0
VERTEX
  5
2AE4
  8
0
 10
0.0
 20
0.0
 30
0.0
 70
   128
 71
     1
 72
     2
 73
     3
  0
VERTEX
  5
2AE5
  8
0
 10
0.0
 20
0.0
 30
0.0
 70
   128
 71
     4
 72
     5
 73
     6
  0
VERTEX
  5
2AE6
  8
0
 10
0.0
 20
0.0
 30
0.0
 70
   128
 71
     6
 72
     7
 73
     8
  0
VERTEX
  5
2AE7
  8
0
 10
0.0
 20
0.0
 30
0.0
 70
   128
 71
     6
 72
     8
 73
     4
  0
VERTEX
  5
2AE8
  8
0
 10
0.0
 20
0.0
 30
0.0
 70
   128
 71
     8
 72
     7
 73
     9
  0
VERTEX
  5
2AE9
  8
0
 10
0.0
 20
0.0
 30
0.0
 70
   128
 71
     8
 72
     9
 73
     1
  0
VERTEX
  5
2AEA
  8
0
 10
0.0
 20
0.0
 30
0.0
 70
   128
 71
     8
 72
     1
 73
     3
  0
SEQEND
  5
2BE1
  8
0
  0
POLYLINE
  5
2AEB
  8
0
 66
     1
 10
0.0
 20
0.0
 30
0.0
 70
    64
 71
     6
 72
     4
  0
VERTEX
  5
2AEC
  8
0
 10
147.5000000000001
 20
41.00000000000004
 30
-215.0
 70
   192
  0
VERTEX
  5
2AED
  8
0
 10
142.9620834398408
 20
-32.5142482745802
 30
-215.0
 70
   192
  0
VERTEX
  5
2AEE
  8
0
 10
142.9620834398407
 20
-32.51424827458021
 30
-95.31217387899486
 70
   192
  0
VERTEX
  5
2AEF
  8
0
 10
144.1895416034166
 20
-12.62942602465139
 30
-125.4679659025376
 70
   192
  0
VERTEX
  5
2AF0
  8
0
 10
145.7172483464791
 20
12.11942321296007
 30
-151.7633110332432
 70
   192
  0
VERTEX
  5
2AF1
  8
0
 10
147.5000000000001
 20
41.00000000000004
 30
-173.4201502073127
 70
   192
  0
VERTEX
  5
2AF2
  8
0
 10
0.0
 20
0.0
 30
0.0
 70
   128
 71
     4
 72
     3
 73
    -2
  0
VERTEX
  5
2AF3
  8
0
 10
0.0
 20
0.0
 30
0.0
 70
   128
 71
    -2
 72
     5
 73
    -4
  0
VERTEX
  5
2AF4
  8
0
 10
0.0
 20
0.0
 30
0.0
 70
   128
 71
     2
 72
     1
 73
    -6
  0
VERTEX
  5
2AF5
  8
0
 10
0.0
 20
0.0
 30
0.0
 70
   128
 71
    -2
 72
     6
 73
    -5
  0
SEQEND
  5
2BE2
  8
0
  0
POLYLINE
  5
2AF6
  8
0
 66
     1
 10
0.0
 20
0.0
 30
0.0
 70
    64
 71
     6
 72
     4
  0
VERTEX
  5
2AF7
  8
0
 10
127.0379165601593
 20
-32.5142482745802
 30
-215.0
 70
   192
  0
VERTEX
  5
2AF8
  8
0
 10
122.5
 20
41.00000000000004
 30
-215.0
 70
   192
  0
VERTEX
  5
2AF9
  8
0
 10
122.5
 20
40.9999999999999
 30
-154.6363053944809
 70
   192
  0
VERTEX
  5
2AFA
  8
0
 10
124.3429263738703
 20
11.1445927433021
 30
-132.4289190545732
 70
   192
  0
VERTEX
  5
2AFB
  8
0
 10
125.8760833819456
 20
-13.69255078751794
 30
-104.7039220491499
 70
   192
  0
VERTEX
  5
2AFC
  8
0
 10
127.0379165601594
 20
-32.51424827458019
 30
-72.5744406418159
 70
   192
  0
VERTEX
  5
2AFD
  8
0
 10
0.0
 20
0.0
 30
0.0
 70
   128
 71
     4
 72
     3
 73
    -2
  0
VERTEX
  5
2AFE
  8
0
 10
0.0
 20
0.0
 30
0.0
 70
   128
 71
    -4
 72
     2
 73
    -1
  0
VERTEX
  5
2AFF
  8
0
 10
0.0
 20
0.0
 30
0.0
 70
   128
 71
    -1
 72
     5
 73
    -4
  0
VERTEX
  5
2B00
  8
0
 10
0.0
 20
0.0
 30
0.0
 70
   128
 71
     1
 72
     6
 73
    -5
  0
SEQEND
  5
2BE3
  8
0
  0
POLYLINE
  5
2B01
  8
0
 66
     1
 10
0.0
 20
0.0
 30
0.0
 70
    64
 71
     6
 72
     4
  0
VERTEX
  5
2B02
  8
0
 10
380.0379165601594
 20
-32.51424827458018
 30
-215.0
 70
   192
  0
VERTEX
  5
2B03
  8
0
 10
375.5000000000001
 20
41.00000000000006
 30
-215.0
 70
   192
  0
VERTEX
  5
2B04
  8
0
 10
375.5000000000001
 20
41.00000000000004
 30
-174.057951512911
 70
   192
  0
VERTEX
  5
2B05
  8
0
 10
377.2792154082306
 20
12.17671038666737
 30
-152.5511044366191
 70
   192
  0
VERTEX
  5
2B06
  8
0
 10
378.806735119783
 20
-12.56910894048087
 30
-126.4397426926407
 70
   192
  0
VERTEX
  5
2B07
  8
0
 10
380.0379165601594
 20
-32.51424827458017
 30
-96.48698468990955
 70
   192
  0
VERTEX
  5
2B08
  8
0
 10
0.0
 20
0.0
 30
0.0
 70
   128
 71
     4
 72
     3
 73
    -2
  0
VERTEX
  5
2B09
  8
0
 10
0.0
 20
0.0
 30
0.0
 70
   128
 71
    -4
 72
     2
 73
    -1
  0
VERTEX
  5
2B0A
  8
0
 10
0.0
 20
0.0
 30
0.0
 70
   128
 71
    -1
 72
     5
 73
    -4
  0
VERTEX
  5
2B0B
  8
0
 10
0.0
 20
0.0
 30
0.0
 70
   128
 71
     1
 72
     6
 73
    -5
  0
SEQEND
  5
2BE4
  8
0
  0
POLYLINE
  5
2B0C
  8
0
 66
     1
 10
0.0
 20
0.0
 30
0.0
 70
    64
 71
     6
 72
     4
  0
VERTEX
  5
2B0D
  8
0
 10
400.5000000000002
 20
41.00000000000008
 30
-215.0
 70
   192
  0
VERTEX
  5
2B0E
  8
0
 10
395.9620834398409
 20
-32.51424827458016
 30
-215.0
 70
   192
  0
VERTEX
  5
2B0F
  8
0
 10
395.962083439841
 20
-32.51424827458024
 30
-74.28882650014575
 70
   192
  0
VERTEX
  5
2B10
  8
0
 10
397.1311001955783
 20
-13.57617683163525
 30
-106.0909731046327
 70
   192
  0
VERTEX
  5
2B11
  8
0
 10
398.6638390363719
 20
11.25419238921977
 30
-133.5226546937822
 70
   192
  0
VERTEX
  5
2B12
  8
0
 10
400.5000000000002
 20
41.00000000000007
 30
-155.5046728291732
 70
   192
  0
VERTEX
  5
2B13
  8
0
 10
0.0
 20
0.0
 30
0.0
 70
   128
 71
     4
 72
     3
 73
    -2
  0
VERTEX
  5
2B14
  8
0
 10
0.0
 20
0.0
 30
0.0
 70
   128
 71
    -2
 72
     5
 73
    -4
  0
VERTEX
  5
2B15
  8
0
 10
0.0
 20
0.0
 30
0.0
 70
   128
 71
     2
 72
     1
 73
    -6
  0
VERTEX
  5
2B16
  8
0
 10
0.0
 20
0.0
 30
0.0
 70
   128
 71
    -2
 72
     6
 73
    -5
  0
SEQEND
  5
2BE5
  8
0
  0
POLYLINE
  5
2B17
  8
0
 66
     1
 10
0.0
 20
0.0
 30
0.0
 70
    64
 71
     9
 72
     7
  0
VERTEX
  5
2B18
  8
0
 10
382.8703680897506
 20
-38.13244584817588
 30
-82.1521638918699
 70
   192
  0
VERTEX
  5
2B19
  8
0
 10
382.5357696882908
 20
-37.83469066073512
 30
-215.0
 70
   192
  0
VERTEX
  5
2B1A
  8
0
 10
388.0000000000001
 20
-39.99999999999992
 30
-215.0
 70
   192
  0
VERTEX
  5
2B1B
  8
0
 10
380.0379165601594
 20
-32.51424827458023
 30
-96.48698468990958
 70
   192
  0
VERTEX
  5
2B1C
  8
0
 10
380.0379165601594
 20
-32.51424827458017
 30
-215.0
 70
   192
  0
VERTEX
  5
2B1D
  8
0
 10
395.9620834398408
 20
-32.51424827458015
 30
-215.0
 70
   192
  0
VERTEX
  5
2B1E
  8
0
 10
395.9620834398409
 20
-32.51424827458016
 30
-74.28882650014572
 70
   192
  0
VERTEX
  5
2B1F
  8
0
 10
389.4019720315735
 20
-39.87593424325082
 30
-68.01970657075005
 70
   192
  0
VERTEX
  5
2B20
  8
0
 10
393.4642303117093
 20
-37.8346906607351
 30
-215.0
 70
   192
  0
VERTEX
  5
2B21
  8
0
 10
0.0
 20
0.0
 30
0.0
 70
   128
 71
     1
 72
     2
 73
     3
  0
VERTEX
  5
2B22
  8
0
 10
0.0
 20
0.0
 30
0.0
 70
   128
 71
     4
 72
     5
 73
     2
  0
VERTEX
  5
2B23
  8
0
 10
0.0
 20
0.0
 30
0.0
 70
   128
 71
     6
 72
     7
 73
     8
  0
VERTEX
  5
2B24
  8
0
 10
0.0
 20
0.0
 30
0.0
 70
   128
 71
     9
 72
     6
 73
     8
  0
VERTEX
  5
2B25
  8
0
 10
0.0
 20
0.0
 30
0.0
 70
   128
 71
     8
 72
     1
 73
     3
  0
VERTEX
  5
2B26
  8
0
 10
0.0
 20
0.0
 30
0.0
 70
   128
 71
     8
 72
     3
 73
     9
  0
VERTEX
  5
2B27
  8
0
 10
0.0
 20
0.0
 30
0.0
 70
   128
 71
     1
 72
     4
 73
     2
  0
SEQEND
  5
2BE6
  8
0
  0
POLYLINE
  5
2B28
  8
0
 66
     1
 10
0.0
 20
0.0
 30
0.0
 70
    64
 71
    10
 72
     8
  0
VERTEX
  5
2B29
  8
0
 10
408.5000000000002
 20
4.999999999999994
 30
-215.0000000000005
 70
   192
  0
VERTEX
  5
2B2A
  8
0
 10
421.5000000000002
 20
4.999999999999995
 30
-215.0000000000005
 70
   192
  0
VERTEX
  5
2B2B
  8
0
 10
421.5000000000002
 20
4.999999999999995
 30
-235.0000000000005
 70
   192
  0
VERTEX
  5
2B2C
  8
0
 10
408.5000000000001
 20
4.999999999999994
 30
-235.0000000000005
 70
   192
  0
VERTEX
  5
2B2D
  8
0
 10
415.0000000000002
 20
11.5
 30
-235.0000000000005
 70
   192
  0
VERTEX
  5
2B2E
  8
0
 10
415.0000000000002
 20
11.5
 30
-215.0000000000005
 70
   192
  0
VERTEX
  5
2B2F
  8
0
 10
410.4038059222876
 20
9.596194077712557
 30
-235.0000000000005
 70
   192
  0
VERTEX
  5
2B30
  8
0
 10
410.4038059222876
 20
9.596194077712557
 30
-215.0000000000005
 70
   192
  0
VERTEX
  5
2B31
  8
0
 10
419.5961940777127
 20
9.596194077712557
 30
-235.0000000000005
 70
   192
  0
VERTEX
  5
2B32
  8
0
 10
419.5961940777127
 20
9.596194077712557
 30
-215.0000000000005
 70
   192
  0
VERTEX
  5
2B33
  8
0
 10
0.0
 20
0.0
 30
0.0
 70
   128
 71
     8
 72
     1
 73
    -4
  0
VERTEX
  5
2B34
  8
0
 10
0.0
 20
0.0
 30
0.0
 70
   128
 71
     7
 72
    -8
 73
     4
  0
VERTEX
  5
2B35
  8
0
 10
0.0
 20
0.0
 30
0.0
 70
   128
 71
     6
 72
     8
 73
    -7
  0
VERTEX
  5
2B36
  8
0
 10
0.0
 20
0.0
 30
0.0
 70
   128
 71
     5
 72
    -6
 73
     7
  0
VERTEX
  5
2B37
  8
0
 10
0.0
 20
0.0
 30
0.0
 70
   128
 71
    10
 72
     6
 73
    -5
  0
VERTEX
  5
2B38
  8
0
 10
0.0
 20
0.0
 30
0.0
 70
   128
 71
     9
 72
   -10
 73
     5
  0
VERTEX
  5
2B39
  8
0
 10
0.0
 20
0.0
 30
0.0
 70
   128
 71
     3
 72
     2
 73
   -10
  0
VERTEX
  5
2B3A
  8
0
 10
0.0
 20
0.0
 30
0.0
 70
   128
 71
     9
 72
    -3
 73
    10
  0
SEQEND
  5
2BE7
  8
0
  0
POLYLINE
  5
2B3B
  8
0
 66
     1
 10
0.0
 20
0.0
 30
0.0
 70
    64
 71
    10
 72
     8
  0
VERTEX
  5
2B3C
  8
0
 10
63.50000000000015
 20
4.999999999999994
 30
-215.0000000000005
 70
   192
  0
VERTEX
  5
2B3D
  8
0
 10
76.5000000000002
 20
4.999999999999995
 30
-215.0000000000005
 70
   192
  0
VERTEX
  5
2B3E
  8
0
 10
76.5000000000002
 20
4.999999999999995
 30
-235.0000000000005
 70
   192
  0
VERTEX
  5
2B3F
  8
0
 10
63.50000000000016
 20
4.999999999999994
 30
-235.0000000000005
 70
   192
  0
VERTEX
  5
2B40
  8
0
 10
70.00000000000017
 20
11.50000000000001
 30
-235.0000000000005
 70
   192
  0
VERTEX
  5
2B41
  8
0
 10
70.00000000000017
 20
11.50000000000001
 30
-215.0000000000005
 70
   192
  0
VERTEX
  5
2B42
  8
0
 10
65.4038059222876
 20
9.596194077712568
 30
-235.0000000000005
 70
   192
  0
VERTEX
  5
2B43
  8
0
 10
65.4038059222876
 20
9.596194077712568
 30
-215.0000000000005
 70
   192
  0
VERTEX
  5
2B44
  8
0
 10
74.59619407771274
 20
9.596194077712568
 30
-235.0000000000005
 70
   192
  0
VERTEX
  5
2B45
  8
0
 10
74.59619407771274
 20
9.596194077712568
 30
-215.0000000000005
 70
   192
  0
VERTEX
  5
2B46
  8
0
 10
0.0
 20
0.0
 30
0.0
 70
   128
 71
     8
 72
     1
 73
    -4
  0
VERTEX
  5
2B47
  8
0
 10
0.0
 20
0.0
 30
0.0
 70
   128
 71
     7
 72
    -8
 73
     4
  0
VERTEX
  5
2B48
  8
0
 10
0.0
 20
0.0
 30
0.0
 70
   128
 71
     6
 72
     8
 73
    -7
  0
VERTEX
  5
2B49
  8
0
 10
0.0
 20
0.0
 30
0.0
 70
   128
 71
     5
 72
    -6
 73
     7
  0
VERTEX
  5
2B4A
  8
0
 10
0.0
 20
0.0
 30
0.0
 70
   128
 71
    10
 72
     6
 73
    -5
  0
VERTEX
  5
2B4B
  8
0
 10
0.0
 20
0.0
 30
0.0
 70
   128
 71
     9
 72
   -10
 73
     5
  0
VERTEX
  5
2B4C
  8
0
 10
0.0
 20
0.0
 30
0.0
 70
   128
 71
     3
 72
     2
 73
   -10
  0
VERTEX
  5
2B4D
  8
0
 10
0.0
 20
0.0
 30
0.0
 70
   128
 71
     9
 72
    -3
 73
    10
  0
SEQEND
  5
2BE8
  8
0
  0
POLYLINE
  5
2B4E
  8
0
 66
     1
 10
0.0
 20
0.0
 30
0.0
 70
    64
 71
    10
 72
     8
  0
VERTEX
  5
2B4F
  8
0
 10
-76.50000000000018
 20
4.999999999999993
 30
-215.0000000000005
 70
   192
  0
VERTEX
  5
2B50
  8
0
 10
-63.50000000000016
 20
4.999999999999995
 30
-215.0000000000005
 70
   192
  0
VERTEX
  5
2B51
  8
0
 10
-63.50000000000016
 20
4.999999999999995
 30
-235.0000000000005
 70
   192
  0
VERTEX
  5
2B52
  8
0
 10
-76.5000000000002
 20
4.999999999999994
 30
-235.0000000000005
 70
   192
  0
VERTEX
  5
2B53
  8
0
 10
-70.00000000000017
 20
11.50000000000001
 30
-235.0000000000005
 70
   192
  0
VERTEX
  5
2B54
  8
0
 10
-70.00000000000017
 20
11.50000000000001
 30
-215.0000000000005
 70
   192
  0
VERTEX
  5
2B55
  8
0
 10
-74.59619407771274
 20
9.596194077712566
 30
-235.0000000000005
 70
   192
  0
VERTEX
  5
2B56
  8
0
 10
-74.59619407771274
 20
9.596194077712566
 30
-215.0000000000005
 70
   192
  0
VERTEX
  5
2B57
  8
0
 10
-65.4038059222876
 20
9.596194077712568
 30
-235.0000000000005
 70
   192
  0
VERTEX
  5
2B58
  8
0
 10
-65.4038059222876
 20
9.596194077712568
 30
-215.0000000000005
 70
   192
  0
VERTEX
  5
2B59
  8
0
 10
0.0
 20
0.0
 30
0.0
 70
   128
 71
     8
 72
     1
 73
    -4
  0
VERTEX
  5
2B5A
  8
0
 10
0.0
 20
0.0
 30
0.0
 70
   128
 71
     7
 72
    -8
 73
     4
  0
VERTEX
  5
2B5B
  8
0
 10
0.0
 20
0.0
 30
0.0
 70
   128
 71
     6
 72
     8
 73
    -7
  0
VERTEX
  5
2B5C
  8
0
 10
0.0
 20
0.0
 30
0.0
 70
   128
 71
     5
 72
    -6
 73
     7
  0
VERTEX
  5
2B5D
  8
0
 10
0.0
 20
0.0
 30
0.0
 70
   128
 71
    10
 72
     6
 73
    -5
  0
VERTEX
  5
2B5E
  8
0
 10
0.0
 20
0.0
 30
0.0
 70
   128
 71
     9
 72
   -10
 73
     5
  0
VERTEX
  5
2B5F
  8
0
 10
0.0
 20
0.0
 30
0.0
 70
   128
 71
     3
 72
     2
 73
   -10
  0
VERTEX
  5
2B60
  8
0
 10
0.0
 20
0.0
 30
0.0
 70
   128
 71
     9
 72
    -3
 73
    10
  0
SEQEND
  5
2BE9
  8
0
  0
POLYLINE
  5
2B61
  8
0
 66
     1
 10
0.0
 20
0.0
 30
0.0
 70
    64
 71
    10
 72
     8
  0
VERTEX
  5
2B62
  8
0
 10
-421.5000000000002
 20
4.999999999999994
 30
-215.0000000000005
 70
   192
  0
VERTEX
  5
2B63
  8
0
 10
-408.5000000000001
 20
4.999999999999995
 30
-215.0000000000005
 70
   192
  0
VERTEX
  5
2B64
  8
0
 10
-408.5000000000001
 20
4.999999999999995
 30
-235.0000000000005
 70
   192
  0
VERTEX
  5
2B65
  8
0
 10
-421.5000000000002
 20
4.999999999999994
 30
-235.0000000000005
 70
   192
  0
VERTEX
  5
2B66
  8
0
 10
-415.0000000000002
 20
11.5
 30
-235.0000000000005
 70
   192
  0
VERTEX
  5
2B67
  8
0
 10
-415.0000000000002
 20
11.5
 30
-215.0000000000005
 70
   192
  0
VERTEX
  5
2B68
  8
0
 10
-419.5961940777127
 20
9.596194077712557
 30
-235.0000000000005
 70
   192
  0
VERTEX
  5
2B69
  8
0
 10
-419.5961940777127
 20
9.596194077712557
 30
-215.0000000000005
 70
   192
  0
VERTEX
  5
2B6A
  8
0
 10
-410.4038059222876
 20
9.596194077712557
 30
-235.0000000000005
 70
   192
  0
VERTEX
  5
2B6B
  8
0
 10
-410.4038059222876
 20
9.596194077712557
 30
-215.0000000000005
 70
   192
  0
VERTEX
  5
2B6C
  8
0
 10
0.0
 20
0.0
 30
0.0
 70
   128
 71
     8
 72
     1
 73
    -4
  0
VERTEX
  5
2B6D
  8
0
 10
0.0
 20
0.0
 30
0.0
 70
   128
 71
     7
 72
    -8
 73
     4
  0
VERTEX
  5
2B6E
  8
0
 10
0.0
 20
0.0
 30
0.0
 70
   128
 71
     6
 72
     8
 73
    -7
  0
VERTEX
  5
2B6F
  8
0
 10
0.0
 20
0.0
 30
0.0
 70
   128
 71
     5
 72
    -6
 73
     7
  0
VERTEX
  5
2B70
  8
0
 10
0.0
 20
0.0
 30
0.0
 70
   128
 71
    10
 72
     6
 73
    -5
  0
VERTEX
  5
2B71
  8
0
 10
0.0
 20
0.0
 30
0.0
 70
   128
 71
     9
 72
   -10
 73
     5
  0
VERTEX
  5
2B72
  8
0
 10
0.0
 20
0.0
 30
0.0
 70
   128
 71
     3
 72
     2
 73
   -10
  0
VERTEX
  5
2B73
  8
0
 10
0.0
 20
0.0
 30
0.0
 70
   128
 71
     9
 72
    -3
 73
    10
  0
SEQEND
  5
2BEA
  8
0
  0
POLYLINE
  5
2B74
  8
0
 66
     1
 10
0.0
 20
0.0
 30
0.0
 70
    64
 71
     8
 72
     6
  0
VERTEX
  5
2B75
  8
0
 10
-500.0
 20
60.45049024320358
 30
-235.0
 70
   192
  0
VERTEX
  5
2B76
  8
0
 10
-499.6806510477568
 20
58.72260419102719
 30
-220.1264871116705
 70
   192
  0
VERTEX
  5
2B77
  8
0
 10
-499.6806510477568
 20
61.69730676869316
 30
-235.0
 70
   192
  0
VERTEX
  5
2B78
  8
0
 10
-500.0
 20
57.49999999999998
 30
-220.2475487839819
 70
   192
  0
VERTEX
  5
2B79
  8
0
 10
-498.7226041910271
 20
59.68065104775681
 30
-220.031621777918
 70
   192
  0
VERTEX
  5
2B7A
  8
0
 10
-498.7226041910271
 20
62.67432669217327
 30
-234.9999999999999
 70
   192
  0
VERTEX
  5
2B7B
  8
0
 10
-497.5
 20
59.99999999999998
 30
-220.0
 70
   192
  0
VERTEX
  5
2B7C
  8
0
 10
-497.5
 20
62.99999999999998
 30
-235.0
 70
   192
  0
VERTEX
  5
2B7D
  8
0
 10
0.0
 20
0.0
 30
0.0
 70
   128
 71
    -1
 72
     2
 73
     3
  0
VERTEX
  5
2B7E
  8
0
 10
0.0
 20
0.0
 30
0.0
 70
   128
 71
     1
 72
     4
 73
    -2
  0
VERTEX
  5
2B7F
  8
0
 10
0.0
 20
0.0
 30
0.0
 70
   128
 71
    -3
 72
     5
 73
     6
  0
VERTEX
  5
2B80
  8
0
 10
0.0
 20
0.0
 30
0.0
 70
   128
 71
     3
 72
     2
 73
    -5
  0
VERTEX
  5
2B81
  8
0
 10
0.0
 20
0.0
 30
0.0
 70
   128
 71
     6
 72
     5
 73
    -7
  0
VERTEX
  5
2B82
  8
0
 10
0.0
 20
0.0
 30
0.0
 70
   128
 71
    -6
 72
     7
 73
     8
  0
SEQEND
  5
2BEB
  8
0
  0
POLYLINE
  5
2B83
  8
0
 66
     1
 10
0.0
 20
0.0
 30
0.0
 70
    64
 71
     8
 72
     6
  0
VERTEX
  5
2B84
  8
0
 10
-499.6806510477568
 20
58.72260419102719
 30
-220.1264871116705
 70
   192
  0
VERTEX
  5
2B85
  8
0
 10
-500.0
 20
57.49999999999997
 30
-220.2475487839819
 70
   192
  0
VERTEX
  5
2B86
  8
0
 10
-500.0
 20
57.50000000000003
 30
235.0
 70
   192
  0
VERTEX
  5
2B87
  8
0
 10
-498.7226041910271
 20
59.68065104775681
 30
-220.031621777918
 70
   192
  0
VERTEX
  5
2B88
  8
0
 10
-499.6806510477568
 20
58.72260419102719
 30
234.6806510477568
 70
   192
  0
VERTEX
  5
2B89
  8
0
 10
-498.7226041910272
 20
59.68065104775683
 30
233.7226041910272
 70
   192
  0
VERTEX
  5
2B8A
  8
0
 10
-497.5
 20
60.00000000000004
 30
232.5
 70
   192
  0
VERTEX
  5
2B8B
  8
0
 10
-497.5
 20
59.99999999999998
 30
-220.0
 70
   192
  0
VERTEX
  5
2B8C
  8
0
 10
0.0
 20
0.0
 30
0.0
 70
   128
 71
     1
 72
     2
 73
     3
  0
VERTEX
  5
2B8D
  8
0
 10
0.0
 20
0.0
 30
0.0
 70
   128
 71
     4
 72
     1
 73
     3
  0
VERTEX
  5
2B8E
  8
0
 10
0.0
 20
0.0
 30
0.0
 70
   128
 71
     3
 72
     5
 73
     6
  0
VERTEX
  5
2B8F
  8
0
 10
0.0
 20
0.0
 30
0.0
 70
   128
 71
     4
 72
     3
 73
     6
  0
VERTEX
  5
2B90
  8
0
 10
0.0
 20
0.0
 30
0.0
 70
   128
 71
     4
 72
     6
 73
    -7
  0
VERTEX
  5
2B91
  8
0
 10
0.0
 20
0.0
 30
0.0
 70
   128
 71
    -4
 72
     7
 73
     8
  0
SEQEND
  5
2BEC
  8
0
  0
POLYLINE
  5
2B92
  8
0
 66
     1
 10
0.0
 20
0.0
 30
0.0
 70
    64
 71
     8
 72
     6
  0
VERTEX
  5
2B93
  8
0
 10
497.5
 20
60.00000000000004
 30
232.5
 70
   192
  0
VERTEX
  5
2B94
  8
0
 10
-497.5
 20
60.00000000000004
 30
232.5
 70
   192
  0
VERTEX
  5
2B95
  8
0
 10
-498.7226041910272
 20
59.68065104775683
 30
233.7226041910272
 70
   192
  0
VERTEX
  5
2B96
  8
0
 10
498.7226041910271
 20
59.68065104775683
 30
233.7226041910272
 70
   192
  0
VERTEX
  5
2B97
  8
0
 10
-499.6806510477568
 20
58.72260419102719
 30
234.6806510477568
 70
   192
  0
VERTEX
  5
2B98
  8
0
 10
500.0
 20
57.50000000000004
 30
235.0
 70
   192
  0
VERTEX
  5
2B99
  8
0
 10
499.6806510477568
 20
58.7226041910272
 30
234.6806510477568
 70
   192
  0
VERTEX
  5
2B9A
  8
0
 10
-500.0
 20
57.50000000000004
 30
235.0
 70
   192
  0
VERTEX
  5
2B9B
  8
0
 10
0.0
 20
0.0
 30
0.0
 70
   128
 71
     1
 72
     2
 73
    -3
  0
VERTEX
  5
2B9C
  8
0
 10
0.0
 20
0.0
 30
0.0
 70
   128
 71
     4
 72
    -1
 73
     3
  0
VERTEX
  5
2B9D
  8
0
 10
0.0
 20
0.0
 30
0.0
 70
   128
 71
     4
 72
     3
 73
     5
  0
VERTEX
  5
2B9E
  8
0
 10
0.0
 20
0.0
 30
0.0
 70
   128
 71
     6
 72
     7
 73
     4
  0
VERTEX
  5
2B9F
  8
0
 10
0.0
 20
0.0
 30
0.0
 70
   128
 71
     6
 72
     4
 73
     5
  0
VERTEX
  5
2BA0
  8
0
 10
0.0
 20
0.0
 30
0.0
 70
   128
 71
     5
 72
     8
 73
     6
  0
SEQEND
  5
2BED
  8
0
  0
POLYLINE
  5
2BA1
  8
0
 66
     1
 10
0.0
 20
0.0
 30
0.0
 70
    64
 71
     8
 72
     6
  0
VERTEX
  5
2BA2
  8
0
 10
500.0
 20
57.50000000000004
 30
235.0
 70
   192
  0
VERTEX
  5
2BA3
  8
0
 10
499.6806510477567
 20
58.72260419102713
 30
-220.12648711167
 70
   192
  0
VERTEX
  5
2BA4
  8
0
 10
499.6806510477568
 20
58.7226041910272
 30
234.6806510477568
 70
   192
  0
VERTEX
  5
2BA5
  8
0
 10
500.0
 20
57.49999999999997
 30
-220.247548783982
 70
   192
  0
VERTEX
  5
2BA6
  8
0
 10
498.7226041910272
 20
59.68065104775675
 30
-220.0316217779175
 70
   192
  0
VERTEX
  5
2BA7
  8
0
 10
498.7226041910271
 20
59.68065104775683
 30
233.7226041910272
 70
   192
  0
VERTEX
  5
2BA8
  8
0
 10
497.5000000000001
 20
59.99999999999998
 30
-220.0
 70
   192
  0
VERTEX
  5
2BA9
  8
0
 10
497.5000000000001
 20
60.00000000000004
 30
232.5
 70
   192
  0
VERTEX
  5
2BAA
  8
0
 10
0.0
 20
0.0
 30
0.0
 70
   128
 71
    -1
 72
     2
 73
     3
  0
VERTEX
  5
2BAB
  8
0
 10
0.0
 20
0.0
 30
0.0
 70
   128
 71
     1
 72
     4
 73
    -2
  0
VERTEX
  5
2BAC
  8
0
 10
0.0
 20
0.0
 30
0.0
 70
   128
 71
     3
 72
     2
 73
    -5
  0
VERTEX
  5
2BAD
  8
0
 10
0.0
 20
0.0
 30
0.0
 70
   128
 71
    -3
 72
     5
 73
     6
  0
VERTEX
  5
2BAE
  8
0
 10
0.0
 20
0.0
 30
0.0
 70
   128
 71
     6
 72
     5
 73
    -7
  0
VERTEX
  5
2BAF
  8
0
 10
0.0
 20
0.0
 30
0.0
 70
   128
 71
    -6
 72
     7
 73
     8
  0
SEQEND
  5
2BEE
  8
0
  0
POLYLINE
  5
2BB0
  8
0
 66
     1
 10
0.0
 20
0.0
 30
0.0
 70
    64
 71
     8
 72
     6
  0
VERTEX
  5
2BB1
  8
0
 10
499.6806510477567
 20
58.72260419102713
 30
-220.12648711167
 70
   192
  0
VERTEX
  5
2BB2
  8
0
 10
500.0
 20
57.49999999999997
 30
-220.2475487839819
 70
   192
  0
VERTEX
  5
2BB3
  8
0
 10
500.0
 20
60.45049024320359
 30
-235.0
 70
   192
  0
VERTEX
  5
2BB4
  8
0
 10
498.7226041910272
 20
59.68065104775675
 30
-220.0316217779175
 70
   192
  0
VERTEX
  5
2BB5
  8
0
 10
499.6806510477567
 20
61.69730676869314
 30
-235.0
 70
   192
  0
VERTEX
  5
2BB6
  8
0
 10
497.5000000000001
 20
59.99999999999997
 30
-220.0
 70
   192
  0
VERTEX
  5
2BB7
  8
0
 10
498.7226041910272
 20
62.67432669217325
 30
-235.0
 70
   192
  0
VERTEX
  5
2BB8
  8
0
 10
497.5000000000001
 20
62.99999999999997
 30
-235.0
 70
   192
  0
VERTEX
  5
2BB9
  8
0
 10
0.0
 20
0.0
 30
0.0
 70
   128
 71
     1
 72
     2
 73
     3
  0
VERTEX
  5
2BBA
  8
0
 10
0.0
 20
0.0
 30
0.0
 70
   128
 71
     4
 72
     1
 73
     3
  0
VERTEX
  5
2BBB
  8
0
 10
0.0
 20
0.0
 30
0.0
 70
   128
 71
     4
 72
     3
 73
     5
  0
VERTEX
  5
2BBC
  8
0
 10
0.0
 20
0.0
 30
0.0
 70
   128
 71
     6
 72
     4
 73
     5
  0
VERTEX
  5
2BBD
  8
0
 10
0.0
 20
0.0
 30
0.0
 70
   128
 71
     6
 72
     5
 73
     7
  0
VERTEX
  5
2BBE
  8
0
 10
0.0
 20
0.0
 30
0.0
 70
   128
 71
     7
 72
     8
 73
     6
  0
SEQEND
  5
2BEF
  8
0
  0
ENDBLK
  5
2BC0
  8
0
  0
ENDSEC
  0
SECTION
  2
ENTITIES
  0
INSERT
  5
2276
  8
0
  2
*X1
 10
0.0
 20
0.0
 30
0.0
  0
ENDSEC
  0
EOF
