  0
SECTION
  2
HEADER
  9
$ACADVER
  1
AC1009
  9
$DWGCODEPAGE
  3
ansi_1250
  9
$INSBASE
 10
0.0
 20
0.0
 30
0.0
  9
$EXTMIN
 10
-1.50000000000199
 20
-14.24068757890021
 30
-1901.2
  9
$EXTMAX
 10
41.49999999999801
 20
17.04168016722019
 30
0.0000000000002274
  9
$LIMMIN
 10
0.0
 20
0.0
  9
$LIMMAX
 10
420.0
 20
297.0
  9
$ORTHOMODE
 70
     0
  9
$REGENMODE
 70
     1
  9
$FILLMODE
 70
     1
  9
$QTEXTMODE
 70
     0
  9
$MIRRTEXT
 70
     0
  9
$DRAGMODE
 70
     2
  9
$LTSCALE
 40
1.0
  9
$OSMODE
 70
   511
  9
$ATTMODE
 70
     1
  9
$TEXTSIZE
 40
2.5
  9
$TRACEWID
 40
1.0
  9
$TEXTSTYLE
  7
STANDARD
  9
$CLAYER
  8
0
  9
$CELTYPE
  6
BYLAYER
  9
$CECOLOR
 62
   256
  9
$DIMSCALE
 40
1.0
  9
$DIMASZ
 40
2.5
  9
$DIMEXO
 40
0.625
  9
$DIMDLI
 40
3.75
  9
$DIMRND
 40
0.0
  9
$DIMDLE
 40
0.0
  9
$DIMEXE
 40
1.25
  9
$DIMTP
 40
0.0
  9
$DIMTM
 40
0.0
  9
$DIMTXT
 40
2.5
  9
$DIMCEN
 40
-2.5
  9
$DIMTSZ
 40
0.0
  9
$DIMTOL
 70
     0
  9
$DIMLIM
 70
     0
  9
$DIMTIH
 70
     0
  9
$DIMTOH
 70
     0
  9
$DIMSE1
 70
     0
  9
$DIMSE2
 70
     0
  9
$DIMTAD
 70
     1
  9
$DIMZIN
 70
     8
  9
$DIMBLK
  1

  9
$DIMASO
 70
     1
  9
$DIMSHO
 70
     1
  9
$DIMPOST
  1

  9
$DIMAPOST
  1

  9
$DIMALT
 70
     0
  9
$DIMALTD
 70
     3
  9
$DIMALTF
 40
0.03937007874016
  9
$DIMLFAC
 40
1.0
  9
$DIMTOFL
 70
     1
  9
$DIMTVP
 40
0.0
  9
$DIMTIX
 70
     0
  9
$DIMSOXD
 70
     0
  9
$DIMSAH
 70
     0
  9
$DIMBLK1
  1

  9
$DIMBLK2
  1

  9
$DIMSTYLE
  2
ISO-25
  9
$DIMCLRD
 70
     0
  9
$DIMCLRE
 70
     0
  9
$DIMCLRT
 70
     0
  9
$DIMTFAC
 40
1.0
  9
$DIMGAP
 40
0.625
  9
$LUNITS
 70
     2
  9
$LUPREC
 70
     3
  9
$SKETCHINC
 40
1.0
  9
$FILLETRAD
 40
10.0
  9
$AUNITS
 70
     0
  9
$AUPREC
 70
     0
  9
$MENU
  1
.
  9
$ELEVATION
 40
0.0
  9
$PELEVATION
 40
0.0
  9
$THICKNESS
 40
0.0
  9
$LIMCHECK
 70
     0
  9
$CHAMFERA
 40
10.0
  9
$CHAMFERB
 40
10.0
  9
$SKPOLY
 70
     0
  9
$TDCREATE
 40
2455022.720692848
  9
$TDUPDATE
 40
2460539.607648866
  9
$TDINDWG
 40
0.0002552546
  9
$TDUSRTIMER
 40
0.0002552546
  9
$USRTIMER
 70
     1
  9
$ANGBASE
 50
0.0
  9
$ANGDIR
 70
     0
  9
$PDMODE
 70
     0
  9
$PDSIZE
 40
0.0
  9
$PLINEWID
 40
0.0
  9
$COORDS
 70
     1
  9
$SPLFRAME
 70
     0
  9
$SPLINETYPE
 70
     6
  9
$SPLINESEGS
 70
     8
  9
$ATTDIA
 70
     0
  9
$ATTREQ
 70
     1
  9
$HANDLING
 70
     1
  9
$HANDSEED
  5
10AA
  9
$SURFTAB1
 70
     6
  9
$SURFTAB2
 70
     6
  9
$SURFTYPE
 70
     6
  9
$SURFU
 70
     6
  9
$SURFV
 70
     6
  9
$UCSNAME
  2

  9
$UCSORG
 10
0.0
 20
0.0
 30
0.0
  9
$UCSXDIR
 10
1.0
 20
0.0
 30
0.0
  9
$UCSYDIR
 10
0.0
 20
1.0
 30
0.0
  9
$PUCSNAME
  2

  9
$PUCSORG
 10
0.0
 20
0.0
 30
0.0
  9
$PUCSXDIR
 10
1.0
 20
0.0
 30
0.0
  9
$PUCSYDIR
 10
0.0
 20
1.0
 30
0.0
  9
$USERI1
 70
     0
  9
$USERI2
 70
     0
  9
$USERI3
 70
     0
  9
$USERI4
 70
     0
  9
$USERI5
 70
     0
  9
$USERR1
 40
0.0
  9
$USERR2
 40
0.0
  9
$USERR3
 40
0.0
  9
$USERR4
 40
0.0
  9
$USERR5
 40
0.0
  9
$WORLDVIEW
 70
     1
  9
$SHADEDGE
 70
     3
  9
$SHADEDIF
 70
    70
  9
$TILEMODE
 70
     1
  9
$MAXACTVP
 70
    64
  9
$PLIMCHECK
 70
     0
  9
$PEXTMIN
 10
1.000000000000000E+20
 20
1.000000000000000E+20
 30
1.000000000000000E+20
  9
$PEXTMAX
 10
-1.000000000000000E+20
 20
-1.000000000000000E+20
 30
-1.000000000000000E+20
  9
$PLIMMIN
 10
0.0
 20
0.0
  9
$PLIMMAX
 10
0.0
 20
0.0
  9
$UNITMODE
 70
     0
  9
$VISRETAIN
 70
     1
  9
$PLINEGEN
 70
     0
  9
$PSLTSCALE
 70
     1
  0
ENDSEC
  0
SECTION
  2
TABLES
  0
TABLE
  2
VPORT
 70
     1
  0
VPORT
  2
*ACTIVE
 70
     0
 10
0.0
 20
0.0
 11
1.0
 21
1.0
 12
-108.0363133679103
 22
-839.6799448708982
 13
0.0
 23
0.0
 14
10.0
 24
10.0
 15
10.0
 25
10.0
 16
0.577350269189651
 26
0.577350269189651
 36
0.577350269189651
 17
-134.1869158878504
 27
0.0
 37
0.0000000000002274
 40
1614.30192828983
 41
1.739930955120829
 42
50.0
 43
0.0
 44
0.0
 50
0.0
 51
0.0
 71
    16
 72
  1000
 73
     1
 74
     3
 75
     0
 76
     0
 77
     0
 78
     0
  0
ENDTAB
  0
TABLE
  2
LTYPE
 70
     1
  0
LTYPE
  2
CONTINUOUS
 70
     0
  3
Solid line
 72
    65
 73
     0
 40
0.0
  0
ENDTAB
  0
TABLE
  2
LAYER
 70
     1
  0
LAYER
  2
0
 70
     0
 62
     7
  6
CONTINUOUS
  0
ENDTAB
  0
TABLE
  2
STYLE
 70
     2
  0
STYLE
  2
STANDARD
 70
     0
 40
0.0
 41
1.0
 50
0.0
 71
     0
 42
2.5
  3
arial.ttf
  4

  0
STYLE
  2
ANNOTATIVE
 70
     0
 40
0.0
 41
1.0
 50
0.0
 71
     0
 42
2.5
  3
arial.ttf
  4

  0
ENDTAB
  0
TABLE
  2
VIEW
 70
     0
  0
ENDTAB
  0
TABLE
  2
UCS
 70
     0
  0
ENDTAB
  0
TABLE
  2
APPID
 70
     2
  0
APPID
  2
ACAD
 70
     0
  0
APPID
  2
ACADANNOTATIVE
 70
     0
  0
ENDTAB
  0
TABLE
  2
DIMSTYLE
 70
     2
  0
DIMSTYLE
  2
ISO-25
 70
     0
  3

  4

  5

  6

  7

 40
1.0
 41
2.5
 42
0.625
 43
3.75
 44
1.25
 45
0.0
 46
0.0
 47
0.0
 48
0.0
140
2.5
141
-2.5
142
0.0
143
0.03937007874016
144
1.0
145
0.0
146
1.0
147
0.625
 71
     0
 72
     0
 73
     0
 74
     0
 75
     0
 76
     0
 77
     1
 78
     8
170
     0
171
     3
172
     1
173
     0
174
     0
175
     0
176
     0
177
     0
178
     0
  0
DIMSTYLE
  2
ANNOTATIVE
 70
     0
  3

  4

  5

  6

  7

 40
0.0
 41
2.5
 42
0.625
 43
3.75
 44
1.25
 45
0.0
 46
0.0
 47
0.0
 48
0.0
140
2.5
141
-2.5
142
0.0
143
0.03937007874016
144
1.0
145
0.0
146
1.0
147
0.625
 71
     0
 72
     0
 73
     0
 74
     0
 75
     0
 76
     0
 77
     1
 78
     8
170
     0
171
     3
172
     1
173
     0
174
     0
175
     0
176
     0
177
     0
178
     0
  0
ENDTAB
  0
ENDSEC
  0
SECTION
  2
BLOCKS
  0
BLOCK
  8
0
  2
$MODEL_SPACE
 70
     0
 10
0.0
 20
0.0
 30
0.0
  3
$MODEL_SPACE
  1

  0
ENDBLK
  5
21
  8
0
  0
BLOCK
 67
     1
  8
0
  2
$PAPER_SPACE
 70
     0
 10
0.0
 20
0.0
 30
0.0
  3
$PAPER_SPACE
  1

  0
ENDBLK
  5
1D
 67
     1
  8
0
  0
BLOCK
  8
0
  2
*X1
 70
     1
 10
0.0
 20
0.0
 30
0.0
  3
*X1
  1

  0
POLYLINE
  5
8BD
  8
0
 66
     1
 10
0.0
 20
0.0
 30
0.0
 70
    64
 71
     4
 72
     2
  0
VERTEX
  5
8BE
  8
0
 10
38.74644660943
 20
-12.1406875789
 30
0.0
 70
   192
  0
VERTEX
  5
8BF
  8
0
 10
38.74644660943
 20
-12.1406875789
 30
-1900.0
 70
   192
  0
VERTEX
  5
8C0
  8
0
 10
1.299999999999997
 20
-12.1406875789
 30
-1900.0
 70
   192
  0
VERTEX
  5
8C1
  8
0
 10
1.299999999999997
 20
-12.1406875789
 30
0.0
 70
   192
  0
VERTEX
  5
8C2
  8
0
 10
0.0
 20
0.0
 30
0.0
 70
   128
 71
     3
 72
     4
 73
    -1
  0
VERTEX
  5
8C3
  8
0
 10
0.0
 20
0.0
 30
0.0
 70
   128
 71
     2
 72
    -3
 73
     1
  0
SEQEND
  5
102B
  8
0
  0
POLYLINE
  5
8C4
  8
0
 66
     1
 10
0.0
 20
0.0
 30
0.0
 70
    64
 71
   129
 72
   129
  0
VERTEX
  5
8C5
  8
0
 10
10.04644656537
 20
10.7593124210998
 30
-1900.0
 70
   192
  0
VERTEX
  5
8C6
  8
0
 10
9.8964465653699
 20
10.7995047999645
 30
-1900.0
 70
   192
  0
VERTEX
  5
8C7
  8
0
 10
9.786638944234495
 20
10.9093124210999
 30
-1900.0
 70
   192
  0
VERTEX
  5
8C8
  8
0
 10
9.74644656537
 20
11.0593124211
 30
-1900.0
 70
   192
  0
VERTEX
  5
8C9
  8
0
 10
9.7464465653702
 20
16.37596588151
 30
-1900.0
 70
   192
  0
VERTEX
  5
8CA
  8
0
 10
9.709061026549403
 20
16.52099568803118
 30
-1900.0
 70
   192
  0
VERTEX
  5
8CB
  8
0
 10
9.606222266839819
 20
16.62987871147325
 30
-1900.0
 70
   192
  0
VERTEX
  5
8CC
  8
0
 10
9.463561502530938
 20
16.67547728183995
 30
-1900.0
 70
   192
  0
VERTEX
  5
8CD
  8
0
 10
6.446120832254985
 20
16.84790246299912
 30
-1900.0
 70
   192
  0
VERTEX
  5
8CE
  8
0
 10
6.401279835517149
 20
16.73271598175252
 30
-1900.0
 70
   192
  0
VERTEX
  5
8CF
  8
0
 10
6.29729779217069
 20
16.66588503748335
 30
-1900.0
 70
   192
  0
VERTEX
  5
8D0
  8
0
 10
6.173892308555436
 20
16.6729367794029
 30
-1900.0
 70
   192
  0
VERTEX
  5
8D1
  8
0
 10
6.078200085015657
 20
16.75117768177773
 30
-1900.0
 70
   192
  0
VERTEX
  5
8D2
  8
0
 10
6.046772298487774
 20
16.87072237921013
 30
-1900.0
 70
   192
  0
VERTEX
  5
8D3
  8
0
 10
3.063561502530681
 20
17.04119156754744
 30
-1900.0
 70
   192
  0
VERTEX
  5
8D4
  8
0
 10
2.906439455009869
 20
17.00700639858193
 30
-1900.0
 70
   192
  0
VERTEX
  5
8D5
  8
0
 10
2.789539838026995
 20
16.8965960587419
 30
-1900.0
 70
   192
  0
VERTEX
  5
8D6
  8
0
 10
2.74644656537
 20
16.74168016722
 30
-1900.0
 70
   192
  0
VERTEX
  5
8D7
  8
0
 10
2.74644656537
 20
10.7593124211
 30
-1900.0
 70
   192
  0
VERTEX
  5
8D8
  8
0
 10
0.3000000000000007
 20
10.7593124211002
 30
-1900.0
 70
   192
  0
VERTEX
  5
8D9
  8
0
 10
0.149999999999901
 20
10.7191200422355
 30
-1900.0
 70
   192
  0
VERTEX
  5
8DA
  8
0
 10
0.0401923788644964
 20
10.6093124211001
 30
-1900.0
 70
   192
  0
VERTEX
  5
8DB
  8
0
 10
0.0
 20
10.4593124211
 30
-1900.0
 70
   192
  0
VERTEX
  5
8DC
  8
0
 10
-0.0000000000001987
 20
-13.9406875789
 30
-1900.0
 70
   192
  0
VERTEX
  5
8DD
  8
0
 10
0.0401923788644963
 20
-14.0906875789001
 30
-1900.0
 70
   192
  0
VERTEX
  5
8DE
  8
0
 10
0.1499999999999009
 20
-14.2004952000355
 30
-1900.0
 70
   192
  0
VERTEX
  5
8DF
  8
0
 10
0.3000000000000007
 20
-14.2406875789
 30
-1900.0
 70
   192
  0
VERTEX
  5
8E0
  8
0
 10
1.100000000000001
 20
-14.2406875789002
 30
-1900.0
 70
   192
  0
VERTEX
  5
8E1
  8
0
 10
1.250000000000101
 20
-14.2004952000355
 30
-1900.0
 70
   192
  0
VERTEX
  5
8E2
  8
0
 10
1.359807621135506
 20
-14.0906875789001
 30
-1900.0
 70
   192
  0
VERTEX
  5
8E3
  8
0
 10
1.399999999999999
 20
-13.9406875789
 30
-1900.0
 70
   192
  0
VERTEX
  5
8E4
  8
0
 10
1.3999999999998
 20
-13.4406875789
 30
-1900.0
 70
   192
  0
VERTEX
  5
8E5
  8
0
 10
1.440192378864495
 20
-13.2906875788999
 30
-1900.0
 70
   192
  0
VERTEX
  5
8E6
  8
0
 10
1.5499999999999
 20
-13.1808799577645
 30
-1900.0
 70
   192
  0
VERTEX
  5
8E7
  8
0
 10
1.699999999999999
 20
-13.1406875789
 30
-1900.0
 70
   192
  0
VERTEX
  5
8E8
  8
0
 10
10.2732233047
 20
-13.1406875789
 30
-1900.0
 70
   192
  0
VERTEX
  5
8E9
  8
0
 10
10.2732233046998
 20
-13.9406875789
 30
-1900.0
 70
   192
  0
VERTEX
  5
8EA
  8
0
 10
10.3134156835645
 20
-14.0906875789001
 30
-1900.0
 70
   192
  0
VERTEX
  5
8EB
  8
0
 10
10.4232233046999
 20
-14.2004952000355
 30
-1900.0
 70
   192
  0
VERTEX
  5
8EC
  8
0
 10
10.5732233047
 20
-14.2406875789
 30
-1900.0
 70
   192
  0
VERTEX
  5
8ED
  8
0
 10
10.9732233047
 20
-14.2406875789002
 30
-1900.0
 70
   192
  0
VERTEX
  5
8EE
  8
0
 10
11.1232233047001
 20
-14.2004952000355
 30
-1900.0
 70
   192
  0
VERTEX
  5
8EF
  8
0
 10
11.2330309258355
 20
-14.0906875789001
 30
-1900.0
 70
   192
  0
VERTEX
  5
8F0
  8
0
 10
11.2732233047
 20
-13.9406875789
 30
-1900.0
 70
   192
  0
VERTEX
  5
8F1
  8
0
 10
11.2732233047
 20
-13.1406875789
 30
-1900.0
 70
   192
  0
VERTEX
  5
8F2
  8
0
 10
19.8464466094072
 20
-13.1406875789
 30
-1900.0
 70
   192
  0
VERTEX
  5
8F3
  8
0
 10
19.90502525316983
 20
-12.99926622266283
 30
-1900.0
 70
   192
  0
VERTEX
  5
8F4
  8
0
 10
20.046446609407
 20
-12.9406875789002
 30
-1900.0
 70
   192
  0
VERTEX
  5
8F5
  8
0
 10
20.18786796564417
 20
-12.99926622266283
 30
-1900.0
 70
   192
  0
VERTEX
  5
8F6
  8
0
 10
20.2464466094064
 20
-13.1406875789
 30
-1900.0
 70
   192
  0
VERTEX
  5
8F7
  8
0
 10
28.81966991411
 20
-13.1406875789
 30
-1900.0
 70
   192
  0
VERTEX
  5
8F8
  8
0
 10
28.8196699141098
 20
-13.87594996814
 30
-1900.0
 70
   192
  0
VERTEX
  5
8F9
  8
0
 10
28.85986229297449
 20
-14.0259499681401
 30
-1900.0
 70
   192
  0
VERTEX
  5
8FA
  8
0
 10
28.9696699141099
 20
-14.1357575892755
 30
-1900.0
 70
   192
  0
VERTEX
  5
8FB
  8
0
 10
29.11966991411
 20
-14.17594996814
 30
-1900.0
 70
   192
  0
VERTEX
  5
8FC
  8
0
 10
29.518263357889
 20
-14.1759499681402
 30
-1900.0
 70
   192
  0
VERTEX
  5
8FD
  8
0
 10
29.66809772166041
 20
-14.13585314902345
 30
-1900.0
 70
   192
  0
VERTEX
  5
8FE
  8
0
 10
29.77787954288775
 20
-14.02628105769508
 30
-1900.0
 70
   192
  0
VERTEX
  5
8FF
  8
0
 10
29.81826280938301
 20
-13.87652364299663
 30
-1900.0
 70
   192
  0
VERTEX
  5
900
  8
0
 10
29.81966991410979
 20
-13.1406875789
 30
-1900.0
 70
   192
  0
VERTEX
  5
901
  8
0
 10
38.34644660941
 20
-13.1406875788998
 30
-1900.0
 70
   192
  0
VERTEX
  5
902
  8
0
 10
38.4964466094101
 20
-13.1808799577645
 30
-1900.0
 70
   192
  0
VERTEX
  5
903
  8
0
 10
38.60625423054551
 20
-13.2906875788999
 30
-1900.0
 70
   192
  0
VERTEX
  5
904
  8
0
 10
38.64644660941
 20
-13.4406875789
 30
-1900.0
 70
   192
  0
VERTEX
  5
905
  8
0
 10
38.64644660940981
 20
-13.9406875789
 30
-1900.0
 70
   192
  0
VERTEX
  5
906
  8
0
 10
38.6866389882745
 20
-14.0906875789001
 30
-1900.0
 70
   192
  0
VERTEX
  5
907
  8
0
 10
38.79644660940991
 20
-14.2004952000355
 30
-1900.0
 70
   192
  0
VERTEX
  5
908
  8
0
 10
38.94644660941
 20
-14.2406875789
 30
-1900.0
 70
   192
  0
VERTEX
  5
909
  8
0
 10
39.7464466094
 20
-14.2406875789002
 30
-1900.0
 70
   192
  0
VERTEX
  5
90A
  8
0
 10
39.89644660940009
 20
-14.2004952000355
 30
-1900.0
 70
   192
  0
VERTEX
  5
90B
  8
0
 10
40.0062542305355
 20
-14.0906875789001
 30
-1900.0
 70
   192
  0
VERTEX
  5
90C
  8
0
 10
40.0464466094
 20
-13.9406875789
 30
-1900.0
 70
   192
  0
VERTEX
  5
90D
  8
0
 10
40.04644660940019
 20
10.4593124211
 30
-1900.0
 70
   192
  0
VERTEX
  5
90E
  8
0
 10
40.0062542305355
 20
10.6093124211001
 30
-1900.0
 70
   192
  0
VERTEX
  5
90F
  8
0
 10
39.89644660940009
 20
10.7191200422355
 30
-1900.0
 70
   192
  0
VERTEX
  5
910
  8
0
 10
39.7464466094
 20
10.7593124211
 30
-1900.0
 70
   192
  0
VERTEX
  5
911
  8
0
 10
32.04644660941
 20
10.7593124211
 30
-1900.0
 70
   192
  0
VERTEX
  5
912
  8
0
 10
32.04644660940981
 20
12.25930183149
 30
-1900.0
 70
   192
  0
VERTEX
  5
913
  8
0
 10
32.0866389882745
 20
12.4093018314901
 30
-1900.0
 70
   192
  0
VERTEX
  5
914
  8
0
 10
32.1964466094099
 20
12.51910945262551
 30
-1900.0
 70
   192
  0
VERTEX
  5
915
  8
0
 10
32.34644660941
 20
12.55930183149
 30
-1900.0
 70
   192
  0
VERTEX
  5
916
  8
0
 10
33.04644660941
 20
12.5593018314898
 30
-1900.0
 70
   192
  0
VERTEX
  5
917
  8
0
 10
33.1964466094101
 20
12.5994942103545
 30
-1900.0
 70
   192
  0
VERTEX
  5
918
  8
0
 10
33.3062542305455
 20
12.7093018314899
 30
-1900.0
 70
   192
  0
VERTEX
  5
919
  8
0
 10
33.34644660941
 20
12.85930183149
 30
-1900.0
 70
   192
  0
VERTEX
  5
91A
  8
0
 10
33.34644660941019
 20
13.25930183149
 30
-1900.0
 70
   192
  0
VERTEX
  5
91B
  8
0
 10
33.30625423054551
 20
13.4093018314901
 30
-1900.0
 70
   192
  0
VERTEX
  5
91C
  8
0
 10
33.1964466094101
 20
13.5191094526255
 30
-1900.0
 70
   192
  0
VERTEX
  5
91D
  8
0
 10
33.04644660941
 20
13.55930183149
 30
-1900.0
 70
   192
  0
VERTEX
  5
91E
  8
0
 10
31.346446609408
 20
13.5593018314902
 30
-1900.0
 70
   192
  0
VERTEX
  5
91F
  8
0
 10
31.1964466094079
 20
13.5191094526255
 30
-1900.0
 70
   192
  0
VERTEX
  5
920
  8
0
 10
31.0866389882725
 20
13.4093018314901
 30
-1900.0
 70
   192
  0
VERTEX
  5
921
  8
0
 10
31.046446609407
 20
13.25930183149
 30
-1900.0
 70
   192
  0
VERTEX
  5
922
  8
0
 10
31.04644660940701
 20
10.7593124211
 30
-1900.0
 70
   192
  0
VERTEX
  5
923
  8
0
 10
20.2464466094068
 20
10.7593124211
 30
-1900.0
 70
   192
  0
VERTEX
  5
924
  8
0
 10
20.18786796564417
 20
10.61789106486283
 30
-1900.0
 70
   192
  0
VERTEX
  5
925
  8
0
 10
20.046446609407
 20
10.5593124211002
 30
-1900.0
 70
   192
  0
VERTEX
  5
926
  8
0
 10
19.90502525316983
 20
10.61789106486283
 30
-1900.0
 70
   192
  0
VERTEX
  5
927
  8
0
 10
19.8464466094071
 20
10.7593124211
 30
-1900.0
 70
   192
  0
VERTEX
  5
928
  8
0
 10
4.74644656537
 20
9.859312421102
 30
-1900.0
 70
   192
  0
VERTEX
  5
929
  8
0
 10
4.74644656537
 20
10.7593124211
 30
-1900.0
 70
   192
  0
VERTEX
  5
92A
  8
0
 10
3.74644656537
 20
10.7593124211
 30
-1900.0
 70
   192
  0
VERTEX
  5
92B
  8
0
 10
3.746446565369801
 20
15.48257972314
 30
-1900.0
 70
   192
  0
VERTEX
  5
92C
  8
0
 10
3.789539838027048
 20
15.63749561466199
 30
-1900.0
 70
   192
  0
VERTEX
  5
92D
  8
0
 10
3.906439455010049
 20
15.74790595450203
 30
-1900.0
 70
   192
  0
VERTEX
  5
92E
  8
0
 10
4.063561502530561
 20
15.78209112345997
 30
-1900.0
 70
   192
  0
VERTEX
  5
92F
  8
0
 10
8.463561502555969
 20
15.53066255203714
 30
-1900.0
 70
   192
  0
VERTEX
  5
930
  8
0
 10
8.606222266862742
 20
15.48506398167141
 30
-1900.0
 70
   192
  0
VERTEX
  5
931
  8
0
 10
8.70906102657024
 20
15.37618095822967
 30
-1900.0
 70
   192
  0
VERTEX
  5
932
  8
0
 10
8.74644656539
 20
15.23115115171
 30
-1900.0
 70
   192
  0
VERTEX
  5
933
  8
0
 10
8.74644656539
 20
10.7593124211
 30
-1900.0
 70
   192
  0
VERTEX
  5
934
  8
0
 10
7.746446565399999
 20
10.7593124211
 30
-1900.0
 70
   192
  0
VERTEX
  5
935
  8
0
 10
7.746446565399999
 20
9.859312421102
 30
-1900.0
 70
   192
  0
VERTEX
  5
936
  8
0
 10
38.74644660943
 20
9.8593124211022
 30
-1900.0
 70
   192
  0
VERTEX
  5
937
  8
0
 10
38.89644660943009
 20
9.819120042237504
 30
-1900.0
 70
   192
  0
VERTEX
  5
938
  8
0
 10
39.0062542305655
 20
9.7093124211021
 30
-1900.0
 70
   192
  0
VERTEX
  5
939
  8
0
 10
39.04644660943
 20
9.559312421102002
 30
-1900.0
 70
   192
  0
VERTEX
  5
93A
  8
0
 10
39.04644660943019
 20
-11.8406875789
 30
-1900.0
 70
   192
  0
VERTEX
  5
93B
  8
0
 10
39.0062542305655
 20
-11.9906875789001
 30
-1900.0
 70
   192
  0
VERTEX
  5
93C
  8
0
 10
38.89644660943009
 20
-12.10049520003551
 30
-1900.0
 70
   192
  0
VERTEX
  5
93D
  8
0
 10
38.74644660943
 20
-12.1406875789
 30
-1900.0
 70
   192
  0
VERTEX
  5
93E
  8
0
 10
1.299999999999997
 20
-12.1406875789002
 30
-1900.0
 70
   192
  0
VERTEX
  5
93F
  8
0
 10
1.149999999999899
 20
-12.1004952000355
 30
-1900.0
 70
   192
  0
VERTEX
  5
940
  8
0
 10
1.040192378864496
 20
-11.9906875789001
 30
-1900.0
 70
   192
  0
VERTEX
  5
941
  8
0
 10
1.0
 20
-11.8406875789
 30
-1900.0
 70
   192
  0
VERTEX
  5
942
  8
0
 10
0.9999999999998013
 20
9.559312421102
 30
-1900.0
 70
   192
  0
VERTEX
  5
943
  8
0
 10
1.040192378864496
 20
9.7093124211021
 30
-1900.0
 70
   192
  0
VERTEX
  5
944
  8
0
 10
1.149999999999901
 20
9.819120042237504
 30
-1900.0
 70
   192
  0
VERTEX
  5
945
  8
0
 10
1.300000000000001
 20
9.859312421102
 30
-1900.0
 70
   192
  0
VERTEX
  5
946
  8
0
 10
0.0
 20
0.0
 30
0.0
 70
   128
 71
    96
 72
    95
 73
   -94
  0
VERTEX
  5
947
  8
0
 10
0.0
 20
0.0
 30
0.0
 70
   128
 71
   -94
 72
    97
 73
   -96
  0
VERTEX
  5
948
  8
0
 10
0.0
 20
0.0
 30
0.0
 70
   128
 71
    60
 72
    59
 73
   -58
  0
VERTEX
  5
949
  8
0
 10
0.0
 20
0.0
 30
0.0
 70
   128
 71
   -60
 72
    58
 73
   -57
  0
VERTEX
  5
94A
  8
0
 10
0.0
 20
0.0
 30
0.0
 70
   128
 71
   -60
 72
    57
 73
   -56
  0
VERTEX
  5
94B
  8
0
 10
0.0
 20
0.0
 30
0.0
 70
   128
 71
   -60
 72
    56
 73
   -55
  0
VERTEX
  5
94C
  8
0
 10
0.0
 20
0.0
 30
0.0
 70
   128
 71
   -60
 72
    55
 73
   -54
  0
VERTEX
  5
94D
  8
0
 10
0.0
 20
0.0
 30
0.0
 70
   128
 71
   -60
 72
    54
 73
   -53
  0
VERTEX
  5
94E
  8
0
 10
0.0
 20
0.0
 30
0.0
 70
   128
 71
   -60
 72
    53
 73
   -52
  0
VERTEX
  5
94F
  8
0
 10
0.0
 20
0.0
 30
0.0
 70
   128
 71
   -60
 72
    52
 73
   -51
  0
VERTEX
  5
950
  8
0
 10
0.0
 20
0.0
 30
0.0
 70
   128
 71
    47
 72
    46
 73
   -45
  0
VERTEX
  5
951
  8
0
 10
0.0
 20
0.0
 30
0.0
 70
   128
 71
   -45
 72
    48
 73
   -47
  0
VERTEX
  5
952
  8
0
 10
0.0
 20
0.0
 30
0.0
 70
   128
 71
    45
 72
    44
 73
   -43
  0
VERTEX
  5
953
  8
0
 10
0.0
 20
0.0
 30
0.0
 70
   128
 71
   -45
 72
    43
 73
   -42
  0
VERTEX
  5
954
  8
0
 10
0.0
 20
0.0
 30
0.0
 70
   128
 71
   -45
 72
    42
 73
   -41
  0
VERTEX
  5
955
  8
0
 10
0.0
 20
0.0
 30
0.0
 70
   128
 71
   -45
 72
    41
 73
   -40
  0
VERTEX
  5
956
  8
0
 10
0.0
 20
0.0
 30
0.0
 70
   128
 71
   -45
 72
    40
 73
   -39
  0
VERTEX
  5
957
  8
0
 10
0.0
 20
0.0
 30
0.0
 70
   128
 71
   -45
 72
    39
 73
   -38
  0
VERTEX
  5
958
  8
0
 10
0.0
 20
0.0
 30
0.0
 70
   128
 71
   -45
 72
    38
 73
   -37
  0
VERTEX
  5
959
  8
0
 10
0.0
 20
0.0
 30
0.0
 70
   128
 71
   -45
 72
    37
 73
   -36
  0
VERTEX
  5
95A
  8
0
 10
0.0
 20
0.0
 30
0.0
 70
   128
 71
    32
 72
    31
 73
   -30
  0
VERTEX
  5
95B
  8
0
 10
0.0
 20
0.0
 30
0.0
 70
   128
 71
   -32
 72
    30
 73
   -29
  0
VERTEX
  5
95C
  8
0
 10
0.0
 20
0.0
 30
0.0
 70
   128
 71
   -32
 72
    29
 73
   -28
  0
VERTEX
  5
95D
  8
0
 10
0.0
 20
0.0
 30
0.0
 70
   128
 71
   -32
 72
    28
 73
   -27
  0
VERTEX
  5
95E
  8
0
 10
0.0
 20
0.0
 30
0.0
 70
   128
 71
   -32
 72
    27
 73
   -26
  0
VERTEX
  5
95F
  8
0
 10
0.0
 20
0.0
 30
0.0
 70
   128
 71
   -32
 72
    26
 73
   -25
  0
VERTEX
  5
960
  8
0
 10
0.0
 20
0.0
 30
0.0
 70
   128
 71
   -32
 72
    25
 73
   -24
  0
VERTEX
  5
961
  8
0
 10
0.0
 20
0.0
 30
0.0
 70
   128
 71
   -24
 72
    33
 73
   -32
  0
VERTEX
  5
962
  8
0
 10
0.0
 20
0.0
 30
0.0
 70
   128
 71
   -24
 72
    34
 73
   -33
  0
VERTEX
  5
963
  8
0
 10
0.0
 20
0.0
 30
0.0
 70
   128
 71
   123
 72
  -122
 73
   -35
  0
VERTEX
  5
964
  8
0
 10
0.0
 20
0.0
 30
0.0
 70
   128
 71
  -123
 72
    35
 73
   -34
  0
VERTEX
  5
965
  8
0
 10
0.0
 20
0.0
 30
0.0
 70
   128
 71
   -34
 72
   -24
 73
  -124
  0
VERTEX
  5
966
  8
0
 10
0.0
 20
0.0
 30
0.0
 70
   128
 71
   -34
 72
   124
 73
  -123
  0
VERTEX
  5
967
  8
0
 10
0.0
 20
0.0
 30
0.0
 70
   128
 71
   -24
 72
   125
 73
  -124
  0
VERTEX
  5
968
  8
0
 10
0.0
 20
0.0
 30
0.0
 70
   128
 71
    24
 72
   -23
 73
  -126
  0
VERTEX
  5
969
  8
0
 10
0.0
 20
0.0
 30
0.0
 70
   128
 71
   -24
 72
   126
 73
  -125
  0
VERTEX
  5
96A
  8
0
 10
0.0
 20
0.0
 30
0.0
 70
   128
 71
   -23
 72
   127
 73
  -126
  0
VERTEX
  5
96B
  8
0
 10
0.0
 20
0.0
 30
0.0
 70
   128
 71
   -23
 72
   128
 73
  -127
  0
VERTEX
  5
96C
  8
0
 10
0.0
 20
0.0
 30
0.0
 70
   128
 71
   -23
 72
   129
 73
  -128
  0
VERTEX
  5
96D
  8
0
 10
0.0
 20
0.0
 30
0.0
 70
   128
 71
  -122
 72
    36
 73
   -35
  0
VERTEX
  5
96E
  8
0
 10
0.0
 20
0.0
 30
0.0
 70
   128
 71
   -45
 72
   -36
 73
  -122
  0
VERTEX
  5
96F
  8
0
 10
0.0
 20
0.0
 30
0.0
 70
   128
 71
  -122
 72
   -48
 73
   -45
  0
VERTEX
  5
970
  8
0
 10
0.0
 20
0.0
 30
0.0
 70
   128
 71
   122
 72
  -121
 73
   -48
  0
VERTEX
  5
971
  8
0
 10
0.0
 20
0.0
 30
0.0
 70
   128
 71
  -121
 72
    49
 73
   -48
  0
VERTEX
  5
972
  8
0
 10
0.0
 20
0.0
 30
0.0
 70
   128
 71
  -121
 72
    51
 73
   -50
  0
VERTEX
  5
973
  8
0
 10
0.0
 20
0.0
 30
0.0
 70
   128
 71
  -121
 72
    50
 73
   -49
  0
VERTEX
  5
974
  8
0
 10
0.0
 20
0.0
 30
0.0
 70
   128
 71
  -121
 72
   -60
 73
   -51
  0
VERTEX
  5
975
  8
0
 10
0.0
 20
0.0
 30
0.0
 70
   128
 71
  -121
 72
    61
 73
   -60
  0
VERTEX
  5
976
  8
0
 10
0.0
 20
0.0
 30
0.0
 70
   128
 71
  -121
 72
    62
 73
   -61
  0
VERTEX
  5
977
  8
0
 10
0.0
 20
0.0
 30
0.0
 70
   128
 71
  -121
 72
    63
 73
   -62
  0
VERTEX
  5
978
  8
0
 10
0.0
 20
0.0
 30
0.0
 70
   128
 71
  -121
 72
    64
 73
   -63
  0
VERTEX
  5
979
  8
0
 10
0.0
 20
0.0
 30
0.0
 70
   128
 71
  -114
 72
    77
 73
   -76
  0
VERTEX
  5
97A
  8
0
 10
0.0
 20
0.0
 30
0.0
 70
   128
 71
   -76
 72
   115
 73
  -114
  0
VERTEX
  5
97B
  8
0
 10
0.0
 20
0.0
 30
0.0
 70
   128
 71
   -76
 72
   116
 73
  -115
  0
VERTEX
  5
97C
  8
0
 10
0.0
 20
0.0
 30
0.0
 70
   128
 71
   -76
 72
   117
 73
  -116
  0
VERTEX
  5
97D
  8
0
 10
0.0
 20
0.0
 30
0.0
 70
   128
 71
    76
 72
    75
 73
   -74
  0
VERTEX
  5
97E
  8
0
 10
0.0
 20
0.0
 30
0.0
 70
   128
 71
   -76
 72
    74
 73
   -73
  0
VERTEX
  5
97F
  8
0
 10
0.0
 20
0.0
 30
0.0
 70
   128
 71
   -76
 72
    73
 73
   -72
  0
VERTEX
  5
980
  8
0
 10
0.0
 20
0.0
 30
0.0
 70
   128
 71
   -76
 72
   -72
 73
  -118
  0
VERTEX
  5
981
  8
0
 10
0.0
 20
0.0
 30
0.0
 70
   128
 71
   -76
 72
   118
 73
  -117
  0
VERTEX
  5
982
  8
0
 10
0.0
 20
0.0
 30
0.0
 70
   128
 71
   -72
 72
   119
 73
  -118
  0
VERTEX
  5
983
  8
0
 10
0.0
 20
0.0
 30
0.0
 70
   128
 71
   -72
 72
   120
 73
  -119
  0
VERTEX
  5
984
  8
0
 10
0.0
 20
0.0
 30
0.0
 70
   128
 71
   -64
 72
   121
 73
  -120
  0
VERTEX
  5
985
  8
0
 10
0.0
 20
0.0
 30
0.0
 70
   128
 71
  -120
 72
    72
 73
   -71
  0
VERTEX
  5
986
  8
0
 10
0.0
 20
0.0
 30
0.0
 70
   128
 71
  -120
 72
    71
 73
   -70
  0
VERTEX
  5
987
  8
0
 10
0.0
 20
0.0
 30
0.0
 70
   128
 71
  -120
 72
    70
 73
   -69
  0
VERTEX
  5
988
  8
0
 10
0.0
 20
0.0
 30
0.0
 70
   128
 71
  -120
 72
    69
 73
   -68
  0
VERTEX
  5
989
  8
0
 10
0.0
 20
0.0
 30
0.0
 70
   128
 71
  -120
 72
    68
 73
   -67
  0
VERTEX
  5
98A
  8
0
 10
0.0
 20
0.0
 30
0.0
 70
   128
 71
  -120
 72
    67
 73
   -66
  0
VERTEX
  5
98B
  8
0
 10
0.0
 20
0.0
 30
0.0
 70
   128
 71
  -120
 72
    66
 73
   -65
  0
VERTEX
  5
98C
  8
0
 10
0.0
 20
0.0
 30
0.0
 70
   128
 71
  -120
 72
    65
 73
   -64
  0
VERTEX
  5
98D
  8
0
 10
0.0
 20
0.0
 30
0.0
 70
   128
 71
  -114
 72
   -94
 73
   -77
  0
VERTEX
  5
98E
  8
0
 10
0.0
 20
0.0
 30
0.0
 70
   128
 71
    94
 72
   -93
 73
   -78
  0
VERTEX
  5
98F
  8
0
 10
0.0
 20
0.0
 30
0.0
 70
   128
 71
   -94
 72
    78
 73
   -77
  0
VERTEX
  5
990
  8
0
 10
0.0
 20
0.0
 30
0.0
 70
   128
 71
   -93
 72
    79
 73
   -78
  0
VERTEX
  5
991
  8
0
 10
0.0
 20
0.0
 30
0.0
 70
   128
 71
   -93
 72
    80
 73
   -79
  0
VERTEX
  5
992
  8
0
 10
0.0
 20
0.0
 30
0.0
 70
   128
 71
   -93
 72
    81
 73
   -80
  0
VERTEX
  5
993
  8
0
 10
0.0
 20
0.0
 30
0.0
 70
   128
 71
    93
 72
    92
 73
   -91
  0
VERTEX
  5
994
  8
0
 10
0.0
 20
0.0
 30
0.0
 70
   128
 71
   -93
 72
    91
 73
   -90
  0
VERTEX
  5
995
  8
0
 10
0.0
 20
0.0
 30
0.0
 70
   128
 71
   -93
 72
    90
 73
   -89
  0
VERTEX
  5
996
  8
0
 10
0.0
 20
0.0
 30
0.0
 70
   128
 71
   -93
 72
    89
 73
   -88
  0
VERTEX
  5
997
  8
0
 10
0.0
 20
0.0
 30
0.0
 70
   128
 71
   -93
 72
    88
 73
   -87
  0
VERTEX
  5
998
  8
0
 10
0.0
 20
0.0
 30
0.0
 70
   128
 71
   -93
 72
    87
 73
   -86
  0
VERTEX
  5
999
  8
0
 10
0.0
 20
0.0
 30
0.0
 70
   128
 71
   -93
 72
    86
 73
   -85
  0
VERTEX
  5
99A
  8
0
 10
0.0
 20
0.0
 30
0.0
 70
   128
 71
   -93
 72
    85
 73
   -84
  0
VERTEX
  5
99B
  8
0
 10
0.0
 20
0.0
 30
0.0
 70
   128
 71
   -93
 72
    84
 73
   -83
  0
VERTEX
  5
99C
  8
0
 10
0.0
 20
0.0
 30
0.0
 70
   128
 71
   -93
 72
    83
 73
   -82
  0
VERTEX
  5
99D
  8
0
 10
0.0
 20
0.0
 30
0.0
 70
   128
 71
   -93
 72
    82
 73
   -81
  0
VERTEX
  5
99E
  8
0
 10
0.0
 20
0.0
 30
0.0
 70
   128
 71
   -97
 72
   -94
 73
  -114
  0
VERTEX
  5
99F
  8
0
 10
0.0
 20
0.0
 30
0.0
 70
   128
 71
   114
 72
  -113
 73
   -97
  0
VERTEX
  5
9A0
  8
0
 10
0.0
 20
0.0
 30
0.0
 70
   128
 71
  -113
 72
    98
 73
   -97
  0
VERTEX
  5
9A1
  8
0
 10
0.0
 20
0.0
 30
0.0
 70
   128
 71
  -113
 72
     1
 73
   -99
  0
VERTEX
  5
9A2
  8
0
 10
0.0
 20
0.0
 30
0.0
 70
   128
 71
  -113
 72
    99
 73
   -98
  0
VERTEX
  5
9A3
  8
0
 10
0.0
 20
0.0
 30
0.0
 70
   128
 71
  -113
 72
     2
 73
    -1
  0
VERTEX
  5
9A4
  8
0
 10
0.0
 20
0.0
 30
0.0
 70
   128
 71
  -113
 72
     3
 73
    -2
  0
VERTEX
  5
9A5
  8
0
 10
0.0
 20
0.0
 30
0.0
 70
   128
 71
  -113
 72
     4
 73
    -3
  0
VERTEX
  5
9A6
  8
0
 10
0.0
 20
0.0
 30
0.0
 70
   128
 71
   108
 72
  -107
 73
   -10
  0
VERTEX
  5
9A7
  8
0
 10
0.0
 20
0.0
 30
0.0
 70
   128
 71
  -108
 72
    10
 73
    -9
  0
VERTEX
  5
9A8
  8
0
 10
0.0
 20
0.0
 30
0.0
 70
   128
 71
  -108
 72
     9
 73
    -8
  0
VERTEX
  5
9A9
  8
0
 10
0.0
 20
0.0
 30
0.0
 70
   128
 71
    -8
 72
   109
 73
  -108
  0
VERTEX
  5
9AA
  8
0
 10
0.0
 20
0.0
 30
0.0
 70
   128
 71
    -8
 72
   110
 73
  -109
  0
VERTEX
  5
9AB
  8
0
 10
0.0
 20
0.0
 30
0.0
 70
   128
 71
     8
 72
     7
 73
    -6
  0
VERTEX
  5
9AC
  8
0
 10
0.0
 20
0.0
 30
0.0
 70
   128
 71
    -8
 72
     6
 73
    -5
  0
VERTEX
  5
9AD
  8
0
 10
0.0
 20
0.0
 30
0.0
 70
   128
 71
    -8
 72
     5
 73
    -4
  0
VERTEX
  5
9AE
  8
0
 10
0.0
 20
0.0
 30
0.0
 70
   128
 71
    -8
 72
    -4
 73
  -111
  0
VERTEX
  5
9AF
  8
0
 10
0.0
 20
0.0
 30
0.0
 70
   128
 71
    -8
 72
   111
 73
  -110
  0
VERTEX
  5
9B0
  8
0
 10
0.0
 20
0.0
 30
0.0
 70
   128
 71
  -111
 72
    -4
 73
  -113
  0
VERTEX
  5
9B1
  8
0
 10
0.0
 20
0.0
 30
0.0
 70
   128
 71
   113
 72
   112
 73
  -111
  0
VERTEX
  5
9B2
  8
0
 10
0.0
 20
0.0
 30
0.0
 70
   128
 71
  -107
 72
    11
 73
   -10
  0
VERTEX
  5
9B3
  8
0
 10
0.0
 20
0.0
 30
0.0
 70
   128
 71
   107
 72
  -106
 73
   -11
  0
VERTEX
  5
9B4
  8
0
 10
0.0
 20
0.0
 30
0.0
 70
   128
 71
  -106
 72
    12
 73
   -11
  0
VERTEX
  5
9B5
  8
0
 10
0.0
 20
0.0
 30
0.0
 70
   128
 71
  -106
 72
    13
 73
   -12
  0
VERTEX
  5
9B6
  8
0
 10
0.0
 20
0.0
 30
0.0
 70
   128
 71
   102
 72
   101
 73
  -100
  0
VERTEX
  5
9B7
  8
0
 10
0.0
 20
0.0
 30
0.0
 70
   128
 71
  -100
 72
   -19
 73
  -102
  0
VERTEX
  5
9B8
  8
0
 10
0.0
 20
0.0
 30
0.0
 70
   128
 71
    19
 72
   -18
 73
  -103
  0
VERTEX
  5
9B9
  8
0
 10
0.0
 20
0.0
 30
0.0
 70
   128
 71
   -19
 72
   103
 73
  -102
  0
VERTEX
  5
9BA
  8
0
 10
0.0
 20
0.0
 30
0.0
 70
   128
 71
   -18
 72
   104
 73
  -103
  0
VERTEX
  5
9BB
  8
0
 10
0.0
 20
0.0
 30
0.0
 70
   128
 71
    18
 72
    17
 73
   -16
  0
VERTEX
  5
9BC
  8
0
 10
0.0
 20
0.0
 30
0.0
 70
   128
 71
   -18
 72
    16
 73
   -15
  0
VERTEX
  5
9BD
  8
0
 10
0.0
 20
0.0
 30
0.0
 70
   128
 71
   -18
 72
   -15
 73
  -105
  0
VERTEX
  5
9BE
  8
0
 10
0.0
 20
0.0
 30
0.0
 70
   128
 71
   -18
 72
   105
 73
  -104
  0
VERTEX
  5
9BF
  8
0
 10
0.0
 20
0.0
 30
0.0
 70
   128
 71
    15
 72
    14
 73
   -13
  0
VERTEX
  5
9C0
  8
0
 10
0.0
 20
0.0
 30
0.0
 70
   128
 71
   -15
 72
   -13
 73
  -106
  0
VERTEX
  5
9C1
  8
0
 10
0.0
 20
0.0
 30
0.0
 70
   128
 71
   -15
 72
   106
 73
  -105
  0
VERTEX
  5
9C2
  8
0
 10
0.0
 20
0.0
 30
0.0
 70
   128
 71
   100
 72
  -129
 73
   -19
  0
VERTEX
  5
9C3
  8
0
 10
0.0
 20
0.0
 30
0.0
 70
   128
 71
  -129
 72
    23
 73
   -22
  0
VERTEX
  5
9C4
  8
0
 10
0.0
 20
0.0
 30
0.0
 70
   128
 71
  -129
 72
    22
 73
   -21
  0
VERTEX
  5
9C5
  8
0
 10
0.0
 20
0.0
 30
0.0
 70
   128
 71
  -129
 72
    21
 73
   -20
  0
VERTEX
  5
9C6
  8
0
 10
0.0
 20
0.0
 30
0.0
 70
   128
 71
  -129
 72
    20
 73
   -19
  0
SEQEND
  5
102C
  8
0
  0
POLYLINE
  5
9C7
  8
0
 66
     1
 10
0.0
 20
0.0
 30
0.0
 70
    64
 71
     8
 72
     6
  0
VERTEX
  5
9C8
  8
0
 10
39.0062542305655
 20
-11.9906875789001
 30
-1900.0
 70
   192
  0
VERTEX
  5
9C9
  8
0
 10
38.89644660943009
 20
-12.10049520003551
 30
-1900.0
 70
   192
  0
VERTEX
  5
9CA
  8
0
 10
38.89644660943009
 20
-12.10049520003551
 30
0.0
 70
   192
  0
VERTEX
  5
9CB
  8
0
 10
39.0062542305655
 20
-11.9906875789001
 30
0.0
 70
   192
  0
VERTEX
  5
9CC
  8
0
 10
38.74644660943
 20
-12.1406875789002
 30
-1900.0
 70
   192
  0
VERTEX
  5
9CD
  8
0
 10
38.74644660943
 20
-12.1406875789002
 30
0.0
 70
   192
  0
VERTEX
  5
9CE
  8
0
 10
39.0464466094302
 20
-11.8406875789
 30
-1900.0
 70
   192
  0
VERTEX
  5
9CF
  8
0
 10
39.04644660943019
 20
-11.8406875789
 30
0.0
 70
   192
  0
VERTEX
  5
9D0
  8
0
 10
0.0
 20
0.0
 30
0.0
 70
   128
 71
     1
 72
     2
 73
    -3
  0
VERTEX
  5
9D1
  8
0
 10
0.0
 20
0.0
 30
0.0
 70
   128
 71
     4
 72
    -1
 73
     3
  0
VERTEX
  5
9D2
  8
0
 10
0.0
 20
0.0
 30
0.0
 70
   128
 71
     2
 72
     5
 73
    -6
  0
VERTEX
  5
9D3
  8
0
 10
0.0
 20
0.0
 30
0.0
 70
   128
 71
     3
 72
    -2
 73
     6
  0
VERTEX
  5
9D4
  8
0
 10
0.0
 20
0.0
 30
0.0
 70
   128
 71
     7
 72
     1
 73
    -4
  0
VERTEX
  5
9D5
  8
0
 10
0.0
 20
0.0
 30
0.0
 70
   128
 71
     8
 72
    -7
 73
     4
  0
SEQEND
  5
102D
  8
0
  0
POLYLINE
  5
9D6
  8
0
 66
     1
 10
0.0
 20
0.0
 30
0.0
 70
    64
 71
   129
 72
   129
  0
VERTEX
  5
9D7
  8
0
 10
10.04644656537
 20
10.7593124210998
 30
0.0
 70
   192
  0
VERTEX
  5
9D8
  8
0
 10
9.8964465653699
 20
10.7995047999645
 30
0.0
 70
   192
  0
VERTEX
  5
9D9
  8
0
 10
9.786638944234495
 20
10.9093124210999
 30
0.0
 70
   192
  0
VERTEX
  5
9DA
  8
0
 10
9.7464465653698
 20
11.0593124211
 30
0.0
 70
   192
  0
VERTEX
  5
9DB
  8
0
 10
9.74644656537
 20
16.37596588151
 30
0.0
 70
   192
  0
VERTEX
  5
9DC
  8
0
 10
9.709061026549403
 20
16.52099568803118
 30
0.0
 70
   192
  0
VERTEX
  5
9DD
  8
0
 10
9.606222266839819
 20
16.62987871147325
 30
0.0
 70
   192
  0
VERTEX
  5
9DE
  8
0
 10
9.463561502530794
 20
16.67547728183744
 30
0.0
 70
   192
  0
VERTEX
  5
9DF
  8
0
 10
6.446120832257525
 20
16.84790246300014
 30
0.0
 70
   192
  0
VERTEX
  5
9E0
  8
0
 10
6.401279835517149
 20
16.73271598175252
 30
0.0
 70
   192
  0
VERTEX
  5
9E1
  8
0
 10
6.29729779217069
 20
16.66588503748335
 30
0.0
 70
   192
  0
VERTEX
  5
9E2
  8
0
 10
6.173892308555436
 20
16.6729367794029
 30
0.0
 70
   192
  0
VERTEX
  5
9E3
  8
0
 10
6.078200085015657
 20
16.75117768177773
 30
0.0
 70
   192
  0
VERTEX
  5
9E4
  8
0
 10
6.046772298485552
 20
16.87072237921025
 30
0.0
 70
   192
  0
VERTEX
  5
9E5
  8
0
 10
3.063561502530824
 20
17.04119156754995
 30
0.0
 70
   192
  0
VERTEX
  5
9E6
  8
0
 10
2.906439455009868
 20
17.00700639858193
 30
0.0
 70
   192
  0
VERTEX
  5
9E7
  8
0
 10
2.789539838026995
 20
16.8965960587419
 30
0.0
 70
   192
  0
VERTEX
  5
9E8
  8
0
 10
2.746446565369801
 20
16.74168016722
 30
0.0
 70
   192
  0
VERTEX
  5
9E9
  8
0
 10
2.74644656537
 20
10.7593124211
 30
0.0
 70
   192
  0
VERTEX
  5
9EA
  8
0
 10
0.3000000000000007
 20
10.7593124211
 30
0.0
 70
   192
  0
VERTEX
  5
9EB
  8
0
 10
0.1499999999999009
 20
10.7191200422355
 30
0.0
 70
   192
  0
VERTEX
  5
9EC
  8
0
 10
0.0401923788644963
 20
10.6093124211001
 30
0.0
 70
   192
  0
VERTEX
  5
9ED
  8
0
 10
-0.0000000000001987
 20
10.4593124211
 30
0.0
 70
   192
  0
VERTEX
  5
9EE
  8
0
 10
0.0
 20
-13.9406875789
 30
0.0
 70
   192
  0
VERTEX
  5
9EF
  8
0
 10
0.0401923788644964
 20
-14.0906875789001
 30
0.0
 70
   192
  0
VERTEX
  5
9F0
  8
0
 10
0.149999999999901
 20
-14.2004952000355
 30
0.0
 70
   192
  0
VERTEX
  5
9F1
  8
0
 10
0.3000000000000007
 20
-14.2406875789002
 30
0.0
 70
   192
  0
VERTEX
  5
9F2
  8
0
 10
1.100000000000001
 20
-14.2406875789
 30
0.0
 70
   192
  0
VERTEX
  5
9F3
  8
0
 10
1.250000000000101
 20
-14.2004952000355
 30
0.0
 70
   192
  0
VERTEX
  5
9F4
  8
0
 10
1.359807621135506
 20
-14.0906875789001
 30
0.0
 70
   192
  0
VERTEX
  5
9F5
  8
0
 10
1.400000000000201
 20
-13.9406875789
 30
0.0
 70
   192
  0
VERTEX
  5
9F6
  8
0
 10
1.399999999999999
 20
-13.4406875789
 30
0.0
 70
   192
  0
VERTEX
  5
9F7
  8
0
 10
1.440192378864495
 20
-13.2906875788999
 30
0.0
 70
   192
  0
VERTEX
  5
9F8
  8
0
 10
1.549999999999899
 20
-13.1808799577645
 30
0.0
 70
   192
  0
VERTEX
  5
9F9
  8
0
 10
1.699999999999999
 20
-13.1406875788998
 30
0.0
 70
   192
  0
VERTEX
  5
9FA
  8
0
 10
10.2732233047
 20
-13.1406875789
 30
0.0
 70
   192
  0
VERTEX
  5
9FB
  8
0
 10
10.2732233047
 20
-13.9406875789
 30
0.0
 70
   192
  0
VERTEX
  5
9FC
  8
0
 10
10.3134156835645
 20
-14.0906875789001
 30
0.0
 70
   192
  0
VERTEX
  5
9FD
  8
0
 10
10.4232233046999
 20
-14.2004952000355
 30
0.0
 70
   192
  0
VERTEX
  5
9FE
  8
0
 10
10.5732233047
 20
-14.2406875789002
 30
0.0
 70
   192
  0
VERTEX
  5
9FF
  8
0
 10
10.9732233047
 20
-14.2406875789
 30
0.0
 70
   192
  0
VERTEX
  5
A00
  8
0
 10
11.1232233047001
 20
-14.2004952000355
 30
0.0
 70
   192
  0
VERTEX
  5
A01
  8
0
 10
11.2330309258355
 20
-14.0906875789001
 30
0.0
 70
   192
  0
VERTEX
  5
A02
  8
0
 10
11.2732233047002
 20
-13.9406875789
 30
0.0
 70
   192
  0
VERTEX
  5
A03
  8
0
 10
11.2732233047
 20
-13.1406875789
 30
0.0
 70
   192
  0
VERTEX
  5
A04
  8
0
 10
19.8464466094071
 20
-13.1406875789
 30
0.0
 70
   192
  0
VERTEX
  5
A05
  8
0
 10
19.90502525316983
 20
-12.99926622266283
 30
0.0
 70
   192
  0
VERTEX
  5
A06
  8
0
 10
20.046446609407
 20
-12.9406875789002
 30
0.0
 70
   192
  0
VERTEX
  5
A07
  8
0
 10
20.18786796564417
 20
-12.99926622266283
 30
0.0
 70
   192
  0
VERTEX
  5
A08
  8
0
 10
20.2464466094068
 20
-13.1406875789
 30
0.0
 70
   192
  0
VERTEX
  5
A09
  8
0
 10
28.81966991411
 20
-13.1406875789
 30
0.0
 70
   192
  0
VERTEX
  5
A0A
  8
0
 10
28.81966991411
 20
-13.87594996814
 30
0.0
 70
   192
  0
VERTEX
  5
A0B
  8
0
 10
28.85986229297449
 20
-14.0259499681401
 30
0.0
 70
   192
  0
VERTEX
  5
A0C
  8
0
 10
28.9696699141099
 20
-14.1357575892755
 30
0.0
 70
   192
  0
VERTEX
  5
A0D
  8
0
 10
29.11966991411
 20
-14.1759499681402
 30
0.0
 70
   192
  0
VERTEX
  5
A0E
  8
0
 10
29.518263357889
 20
-14.17594996814
 30
0.0
 70
   192
  0
VERTEX
  5
A0F
  8
0
 10
29.66809772166041
 20
-14.13585314902345
 30
0.0
 70
   192
  0
VERTEX
  5
A10
  8
0
 10
29.77787954288775
 20
-14.02628105769508
 30
0.0
 70
   192
  0
VERTEX
  5
A11
  8
0
 10
29.81826280938396
 20
-13.87652364299664
 30
0.0
 70
   192
  0
VERTEX
  5
A12
  8
0
 10
29.81966991410936
 20
-13.1406875789
 30
0.0000000000006821
 70
   192
  0
VERTEX
  5
A13
  8
0
 10
38.34644660941001
 20
-13.1406875789
 30
0.0
 70
   192
  0
VERTEX
  5
A14
  8
0
 10
38.4964466094101
 20
-13.1808799577645
 30
0.0
 70
   192
  0
VERTEX
  5
A15
  8
0
 10
38.6062542305455
 20
-13.2906875788999
 30
0.0
 70
   192
  0
VERTEX
  5
A16
  8
0
 10
38.6464466094102
 20
-13.4406875789
 30
0.0
 70
   192
  0
VERTEX
  5
A17
  8
0
 10
38.64644660941
 20
-13.9406875789
 30
0.0
 70
   192
  0
VERTEX
  5
A18
  8
0
 10
38.6866389882745
 20
-14.0906875789001
 30
0.0
 70
   192
  0
VERTEX
  5
A19
  8
0
 10
38.79644660940991
 20
-14.2004952000355
 30
0.0
 70
   192
  0
VERTEX
  5
A1A
  8
0
 10
38.94644660941
 20
-14.2406875789002
 30
0.0
 70
   192
  0
VERTEX
  5
A1B
  8
0
 10
39.7464466094
 20
-14.2406875789
 30
0.0
 70
   192
  0
VERTEX
  5
A1C
  8
0
 10
39.89644660940009
 20
-14.2004952000355
 30
0.0
 70
   192
  0
VERTEX
  5
A1D
  8
0
 10
40.0062542305355
 20
-14.0906875789001
 30
0.0
 70
   192
  0
VERTEX
  5
A1E
  8
0
 10
40.04644660940019
 20
-13.9406875789
 30
0.0
 70
   192
  0
VERTEX
  5
A1F
  8
0
 10
40.0464466094
 20
10.4593124211
 30
0.0
 70
   192
  0
VERTEX
  5
A20
  8
0
 10
40.0062542305355
 20
10.6093124211001
 30
0.0
 70
   192
  0
VERTEX
  5
A21
  8
0
 10
39.89644660940009
 20
10.7191200422355
 30
0.0
 70
   192
  0
VERTEX
  5
A22
  8
0
 10
39.7464466094
 20
10.7593124211002
 30
0.0
 70
   192
  0
VERTEX
  5
A23
  8
0
 10
32.04644660941
 20
10.7593124211
 30
0.0
 70
   192
  0
VERTEX
  5
A24
  8
0
 10
32.04644660941
 20
12.25930183149
 30
0.0
 70
   192
  0
VERTEX
  5
A25
  8
0
 10
32.08663898827449
 20
12.4093018314901
 30
0.0
 70
   192
  0
VERTEX
  5
A26
  8
0
 10
32.1964466094099
 20
12.51910945262551
 30
0.0
 70
   192
  0
VERTEX
  5
A27
  8
0
 10
32.34644660941
 20
12.5593018314902
 30
0.0
 70
   192
  0
VERTEX
  5
A28
  8
0
 10
33.04644660941
 20
12.55930183149
 30
0.0
 70
   192
  0
VERTEX
  5
A29
  8
0
 10
33.1964466094101
 20
12.5994942103545
 30
0.0
 70
   192
  0
VERTEX
  5
A2A
  8
0
 10
33.30625423054551
 20
12.7093018314899
 30
0.0
 70
   192
  0
VERTEX
  5
A2B
  8
0
 10
33.34644660941019
 20
12.85930183149
 30
0.0
 70
   192
  0
VERTEX
  5
A2C
  8
0
 10
33.34644660941
 20
13.25930183149
 30
0.0
 70
   192
  0
VERTEX
  5
A2D
  8
0
 10
33.3062542305455
 20
13.4093018314901
 30
0.0
 70
   192
  0
VERTEX
  5
A2E
  8
0
 10
33.1964466094101
 20
13.5191094526255
 30
0.0
 70
   192
  0
VERTEX
  5
A2F
  8
0
 10
33.04644660941
 20
13.5593018314902
 30
0.0
 70
   192
  0
VERTEX
  5
A30
  8
0
 10
31.346446609408
 20
13.55930183149
 30
0.0
 70
   192
  0
VERTEX
  5
A31
  8
0
 10
31.1964466094079
 20
13.5191094526255
 30
0.0
 70
   192
  0
VERTEX
  5
A32
  8
0
 10
31.0866389882725
 20
13.4093018314901
 30
0.0
 70
   192
  0
VERTEX
  5
A33
  8
0
 10
31.0464466094078
 20
13.25930183149
 30
0.0
 70
   192
  0
VERTEX
  5
A34
  8
0
 10
31.046446609407
 20
10.7593124211
 30
0.0
 70
   192
  0
VERTEX
  5
A35
  8
0
 10
20.2464466094064
 20
10.7593124211
 30
0.0
 70
   192
  0
VERTEX
  5
A36
  8
0
 10
20.18786796564417
 20
10.61789106486283
 30
0.0
 70
   192
  0
VERTEX
  5
A37
  8
0
 10
20.046446609407
 20
10.5593124211002
 30
0.0
 70
   192
  0
VERTEX
  5
A38
  8
0
 10
19.90502525316983
 20
10.61789106486283
 30
0.0
 70
   192
  0
VERTEX
  5
A39
  8
0
 10
19.8464466094072
 20
10.7593124211
 30
0.0
 70
   192
  0
VERTEX
  5
A3A
  8
0
 10
4.74644656537
 20
9.859312421102
 30
0.0
 70
   192
  0
VERTEX
  5
A3B
  8
0
 10
4.74644656537
 20
10.7593124211
 30
0.0
 70
   192
  0
VERTEX
  5
A3C
  8
0
 10
3.74644656537
 20
10.7593124211
 30
0.0
 70
   192
  0
VERTEX
  5
A3D
  8
0
 10
3.74644656537
 20
15.48257972314
 30
0.0
 70
   192
  0
VERTEX
  5
A3E
  8
0
 10
3.789539838027047
 20
15.63749561466199
 30
0.0
 70
   192
  0
VERTEX
  5
A3F
  8
0
 10
3.906439455010049
 20
15.74790595450203
 30
0.0
 70
   192
  0
VERTEX
  5
A40
  8
0
 10
4.063561502530987
 20
15.78209112346743
 30
0.0
 70
   192
  0
VERTEX
  5
A41
  8
0
 10
8.463561502555574
 20
15.53066255203025
 30
0.0
 70
   192
  0
VERTEX
  5
A42
  8
0
 10
8.606222266862742
 20
15.48506398167141
 30
0.0
 70
   192
  0
VERTEX
  5
A43
  8
0
 10
8.70906102657024
 20
15.37618095822967
 30
0.0
 70
   192
  0
VERTEX
  5
A44
  8
0
 10
8.7464465653902
 20
15.23115115171
 30
0.0
 70
   192
  0
VERTEX
  5
A45
  8
0
 10
8.74644656539
 20
10.7593124211
 30
0.0
 70
   192
  0
VERTEX
  5
A46
  8
0
 10
7.746446565399999
 20
10.7593124211
 30
0.0
 70
   192
  0
VERTEX
  5
A47
  8
0
 10
7.746446565399999
 20
9.859312421102
 30
0.0
 70
   192
  0
VERTEX
  5
A48
  8
0
 10
38.74644660943
 20
9.859312421102
 30
0.0
 70
   192
  0
VERTEX
  5
A49
  8
0
 10
38.89644660943009
 20
9.819120042237504
 30
0.0
 70
   192
  0
VERTEX
  5
A4A
  8
0
 10
39.0062542305655
 20
9.7093124211021
 30
0.0
 70
   192
  0
VERTEX
  5
A4B
  8
0
 10
39.04644660943019
 20
9.559312421102
 30
0.0
 70
   192
  0
VERTEX
  5
A4C
  8
0
 10
39.04644660943
 20
-11.8406875789
 30
0.0
 70
   192
  0
VERTEX
  5
A4D
  8
0
 10
39.0062542305655
 20
-11.9906875789001
 30
0.0
 70
   192
  0
VERTEX
  5
A4E
  8
0
 10
38.89644660943009
 20
-12.10049520003551
 30
0.0
 70
   192
  0
VERTEX
  5
A4F
  8
0
 10
38.74644660943
 20
-12.1406875789002
 30
0.0
 70
   192
  0
VERTEX
  5
A50
  8
0
 10
1.299999999999997
 20
-12.1406875789
 30
0.0
 70
   192
  0
VERTEX
  5
A51
  8
0
 10
1.149999999999899
 20
-12.1004952000355
 30
0.0
 70
   192
  0
VERTEX
  5
A52
  8
0
 10
1.040192378864496
 20
-11.9906875789001
 30
0.0
 70
   192
  0
VERTEX
  5
A53
  8
0
 10
0.9999999999998013
 20
-11.8406875789
 30
0.0
 70
   192
  0
VERTEX
  5
A54
  8
0
 10
1.0
 20
9.559312421102002
 30
0.0
 70
   192
  0
VERTEX
  5
A55
  8
0
 10
1.040192378864496
 20
9.7093124211021
 30
0.0
 70
   192
  0
VERTEX
  5
A56
  8
0
 10
1.149999999999901
 20
9.819120042237504
 30
0.0
 70
   192
  0
VERTEX
  5
A57
  8
0
 10
1.300000000000001
 20
9.8593124211022
 30
0.0
 70
   192
  0
VERTEX
  5
A58
  8
0
 10
0.0
 20
0.0
 30
0.0
 70
   128
 71
    94
 72
    95
 73
   -96
  0
VERTEX
  5
A59
  8
0
 10
0.0
 20
0.0
 30
0.0
 70
   128
 71
    96
 72
   -97
 73
   -94
  0
VERTEX
  5
A5A
  8
0
 10
0.0
 20
0.0
 30
0.0
 70
   128
 71
    58
 72
    59
 73
   -60
  0
VERTEX
  5
A5B
  8
0
 10
0.0
 20
0.0
 30
0.0
 70
   128
 71
    57
 72
   -58
 73
   -60
  0
VERTEX
  5
A5C
  8
0
 10
0.0
 20
0.0
 30
0.0
 70
   128
 71
    56
 72
   -57
 73
   -60
  0
VERTEX
  5
A5D
  8
0
 10
0.0
 20
0.0
 30
0.0
 70
   128
 71
    55
 72
   -56
 73
   -60
  0
VERTEX
  5
A5E
  8
0
 10
0.0
 20
0.0
 30
0.0
 70
   128
 71
    54
 72
   -55
 73
   -60
  0
VERTEX
  5
A5F
  8
0
 10
0.0
 20
0.0
 30
0.0
 70
   128
 71
    53
 72
   -54
 73
   -60
  0
VERTEX
  5
A60
  8
0
 10
0.0
 20
0.0
 30
0.0
 70
   128
 71
    52
 72
   -53
 73
   -60
  0
VERTEX
  5
A61
  8
0
 10
0.0
 20
0.0
 30
0.0
 70
   128
 71
    51
 72
   -52
 73
   -60
  0
VERTEX
  5
A62
  8
0
 10
0.0
 20
0.0
 30
0.0
 70
   128
 71
    45
 72
    46
 73
   -47
  0
VERTEX
  5
A63
  8
0
 10
0.0
 20
0.0
 30
0.0
 70
   128
 71
    47
 72
   -48
 73
   -45
  0
VERTEX
  5
A64
  8
0
 10
0.0
 20
0.0
 30
0.0
 70
   128
 71
    43
 72
    44
 73
   -45
  0
VERTEX
  5
A65
  8
0
 10
0.0
 20
0.0
 30
0.0
 70
   128
 71
    42
 72
   -43
 73
   -45
  0
VERTEX
  5
A66
  8
0
 10
0.0
 20
0.0
 30
0.0
 70
   128
 71
    41
 72
   -42
 73
   -45
  0
VERTEX
  5
A67
  8
0
 10
0.0
 20
0.0
 30
0.0
 70
   128
 71
    40
 72
   -41
 73
   -45
  0
VERTEX
  5
A68
  8
0
 10
0.0
 20
0.0
 30
0.0
 70
   128
 71
    39
 72
   -40
 73
   -45
  0
VERTEX
  5
A69
  8
0
 10
0.0
 20
0.0
 30
0.0
 70
   128
 71
    38
 72
   -39
 73
   -45
  0
VERTEX
  5
A6A
  8
0
 10
0.0
 20
0.0
 30
0.0
 70
   128
 71
    37
 72
   -38
 73
   -45
  0
VERTEX
  5
A6B
  8
0
 10
0.0
 20
0.0
 30
0.0
 70
   128
 71
    36
 72
   -37
 73
   -45
  0
VERTEX
  5
A6C
  8
0
 10
0.0
 20
0.0
 30
0.0
 70
   128
 71
    30
 72
    31
 73
   -32
  0
VERTEX
  5
A6D
  8
0
 10
0.0
 20
0.0
 30
0.0
 70
   128
 71
    29
 72
   -30
 73
   -32
  0
VERTEX
  5
A6E
  8
0
 10
0.0
 20
0.0
 30
0.0
 70
   128
 71
    28
 72
   -29
 73
   -32
  0
VERTEX
  5
A6F
  8
0
 10
0.0
 20
0.0
 30
0.0
 70
   128
 71
    27
 72
   -28
 73
   -32
  0
VERTEX
  5
A70
  8
0
 10
0.0
 20
0.0
 30
0.0
 70
   128
 71
    26
 72
   -27
 73
   -32
  0
VERTEX
  5
A71
  8
0
 10
0.0
 20
0.0
 30
0.0
 70
   128
 71
    25
 72
   -26
 73
   -32
  0
VERTEX
  5
A72
  8
0
 10
0.0
 20
0.0
 30
0.0
 70
   128
 71
    24
 72
   -25
 73
   -32
  0
VERTEX
  5
A73
  8
0
 10
0.0
 20
0.0
 30
0.0
 70
   128
 71
    32
 72
   -33
 73
   -24
  0
VERTEX
  5
A74
  8
0
 10
0.0
 20
0.0
 30
0.0
 70
   128
 71
    33
 72
   -34
 73
   -24
  0
VERTEX
  5
A75
  8
0
 10
0.0
 20
0.0
 30
0.0
 70
   128
 71
   -35
 72
   122
 73
  -123
  0
VERTEX
  5
A76
  8
0
 10
0.0
 20
0.0
 30
0.0
 70
   128
 71
    34
 72
   -35
 73
  -123
  0
VERTEX
  5
A77
  8
0
 10
0.0
 20
0.0
 30
0.0
 70
   128
 71
  -124
 72
   -24
 73
   -34
  0
VERTEX
  5
A78
  8
0
 10
0.0
 20
0.0
 30
0.0
 70
   128
 71
   123
 72
  -124
 73
   -34
  0
VERTEX
  5
A79
  8
0
 10
0.0
 20
0.0
 30
0.0
 70
   128
 71
   124
 72
  -125
 73
   -24
  0
VERTEX
  5
A7A
  8
0
 10
0.0
 20
0.0
 30
0.0
 70
   128
 71
  -126
 72
    23
 73
   -24
  0
VERTEX
  5
A7B
  8
0
 10
0.0
 20
0.0
 30
0.0
 70
   128
 71
   125
 72
  -126
 73
   -24
  0
VERTEX
  5
A7C
  8
0
 10
0.0
 20
0.0
 30
0.0
 70
   128
 71
   126
 72
  -127
 73
   -23
  0
VERTEX
  5
A7D
  8
0
 10
0.0
 20
0.0
 30
0.0
 70
   128
 71
   127
 72
  -128
 73
   -23
  0
VERTEX
  5
A7E
  8
0
 10
0.0
 20
0.0
 30
0.0
 70
   128
 71
   128
 72
  -129
 73
   -23
  0
VERTEX
  5
A7F
  8
0
 10
0.0
 20
0.0
 30
0.0
 70
   128
 71
    35
 72
   -36
 73
  -122
  0
VERTEX
  5
A80
  8
0
 10
0.0
 20
0.0
 30
0.0
 70
   128
 71
  -122
 72
   -36
 73
   -45
  0
VERTEX
  5
A81
  8
0
 10
0.0
 20
0.0
 30
0.0
 70
   128
 71
   -45
 72
   -48
 73
  -122
  0
VERTEX
  5
A82
  8
0
 10
0.0
 20
0.0
 30
0.0
 70
   128
 71
   -48
 72
   121
 73
  -122
  0
VERTEX
  5
A83
  8
0
 10
0.0
 20
0.0
 30
0.0
 70
   128
 71
    48
 72
   -49
 73
  -121
  0
VERTEX
  5
A84
  8
0
 10
0.0
 20
0.0
 30
0.0
 70
   128
 71
    50
 72
   -51
 73
  -121
  0
VERTEX
  5
A85
  8
0
 10
0.0
 20
0.0
 30
0.0
 70
   128
 71
    49
 72
   -50
 73
  -121
  0
VERTEX
  5
A86
  8
0
 10
0.0
 20
0.0
 30
0.0
 70
   128
 71
   -51
 72
   -60
 73
  -121
  0
VERTEX
  5
A87
  8
0
 10
0.0
 20
0.0
 30
0.0
 70
   128
 71
    60
 72
   -61
 73
  -121
  0
VERTEX
  5
A88
  8
0
 10
0.0
 20
0.0
 30
0.0
 70
   128
 71
    61
 72
   -62
 73
  -121
  0
VERTEX
  5
A89
  8
0
 10
0.0
 20
0.0
 30
0.0
 70
   128
 71
    62
 72
   -63
 73
  -121
  0
VERTEX
  5
A8A
  8
0
 10
0.0
 20
0.0
 30
0.0
 70
   128
 71
    63
 72
   -64
 73
  -121
  0
VERTEX
  5
A8B
  8
0
 10
0.0
 20
0.0
 30
0.0
 70
   128
 71
    76
 72
   -77
 73
  -114
  0
VERTEX
  5
A8C
  8
0
 10
0.0
 20
0.0
 30
0.0
 70
   128
 71
   114
 72
  -115
 73
   -76
  0
VERTEX
  5
A8D
  8
0
 10
0.0
 20
0.0
 30
0.0
 70
   128
 71
   115
 72
  -116
 73
   -76
  0
VERTEX
  5
A8E
  8
0
 10
0.0
 20
0.0
 30
0.0
 70
   128
 71
   116
 72
  -117
 73
   -76
  0
VERTEX
  5
A8F
  8
0
 10
0.0
 20
0.0
 30
0.0
 70
   128
 71
    74
 72
    75
 73
   -76
  0
VERTEX
  5
A90
  8
0
 10
0.0
 20
0.0
 30
0.0
 70
   128
 71
    73
 72
   -74
 73
   -76
  0
VERTEX
  5
A91
  8
0
 10
0.0
 20
0.0
 30
0.0
 70
   128
 71
    72
 72
   -73
 73
   -76
  0
VERTEX
  5
A92
  8
0
 10
0.0
 20
0.0
 30
0.0
 70
   128
 71
  -118
 72
   -72
 73
   -76
  0
VERTEX
  5
A93
  8
0
 10
0.0
 20
0.0
 30
0.0
 70
   128
 71
   117
 72
  -118
 73
   -76
  0
VERTEX
  5
A94
  8
0
 10
0.0
 20
0.0
 30
0.0
 70
   128
 71
   118
 72
  -119
 73
   -72
  0
VERTEX
  5
A95
  8
0
 10
0.0
 20
0.0
 30
0.0
 70
   128
 71
   119
 72
  -120
 73
   -72
  0
VERTEX
  5
A96
  8
0
 10
0.0
 20
0.0
 30
0.0
 70
   128
 71
   120
 72
  -121
 73
   -64
  0
VERTEX
  5
A97
  8
0
 10
0.0
 20
0.0
 30
0.0
 70
   128
 71
    71
 72
   -72
 73
  -120
  0
VERTEX
  5
A98
  8
0
 10
0.0
 20
0.0
 30
0.0
 70
   128
 71
    70
 72
   -71
 73
  -120
  0
VERTEX
  5
A99
  8
0
 10
0.0
 20
0.0
 30
0.0
 70
   128
 71
    69
 72
   -70
 73
  -120
  0
VERTEX
  5
A9A
  8
0
 10
0.0
 20
0.0
 30
0.0
 70
   128
 71
    68
 72
   -69
 73
  -120
  0
VERTEX
  5
A9B
  8
0
 10
0.0
 20
0.0
 30
0.0
 70
   128
 71
    67
 72
   -68
 73
  -120
  0
VERTEX
  5
A9C
  8
0
 10
0.0
 20
0.0
 30
0.0
 70
   128
 71
    66
 72
   -67
 73
  -120
  0
VERTEX
  5
A9D
  8
0
 10
0.0
 20
0.0
 30
0.0
 70
   128
 71
    65
 72
   -66
 73
  -120
  0
VERTEX
  5
A9E
  8
0
 10
0.0
 20
0.0
 30
0.0
 70
   128
 71
    64
 72
   -65
 73
  -120
  0
VERTEX
  5
A9F
  8
0
 10
0.0
 20
0.0
 30
0.0
 70
   128
 71
   -77
 72
   -94
 73
  -114
  0
VERTEX
  5
AA0
  8
0
 10
0.0
 20
0.0
 30
0.0
 70
   128
 71
   -78
 72
    93
 73
   -94
  0
VERTEX
  5
AA1
  8
0
 10
0.0
 20
0.0
 30
0.0
 70
   128
 71
    77
 72
   -78
 73
   -94
  0
VERTEX
  5
AA2
  8
0
 10
0.0
 20
0.0
 30
0.0
 70
   128
 71
    78
 72
   -79
 73
   -93
  0
VERTEX
  5
AA3
  8
0
 10
0.0
 20
0.0
 30
0.0
 70
   128
 71
    79
 72
   -80
 73
   -93
  0
VERTEX
  5
AA4
  8
0
 10
0.0
 20
0.0
 30
0.0
 70
   128
 71
    80
 72
   -81
 73
   -93
  0
VERTEX
  5
AA5
  8
0
 10
0.0
 20
0.0
 30
0.0
 70
   128
 71
    91
 72
    92
 73
   -93
  0
VERTEX
  5
AA6
  8
0
 10
0.0
 20
0.0
 30
0.0
 70
   128
 71
    90
 72
   -91
 73
   -93
  0
VERTEX
  5
AA7
  8
0
 10
0.0
 20
0.0
 30
0.0
 70
   128
 71
    89
 72
   -90
 73
   -93
  0
VERTEX
  5
AA8
  8
0
 10
0.0
 20
0.0
 30
0.0
 70
   128
 71
    88
 72
   -89
 73
   -93
  0
VERTEX
  5
AA9
  8
0
 10
0.0
 20
0.0
 30
0.0
 70
   128
 71
    87
 72
   -88
 73
   -93
  0
VERTEX
  5
AAA
  8
0
 10
0.0
 20
0.0
 30
0.0
 70
   128
 71
    86
 72
   -87
 73
   -93
  0
VERTEX
  5
AAB
  8
0
 10
0.0
 20
0.0
 30
0.0
 70
   128
 71
    85
 72
   -86
 73
   -93
  0
VERTEX
  5
AAC
  8
0
 10
0.0
 20
0.0
 30
0.0
 70
   128
 71
    84
 72
   -85
 73
   -93
  0
VERTEX
  5
AAD
  8
0
 10
0.0
 20
0.0
 30
0.0
 70
   128
 71
    83
 72
   -84
 73
   -93
  0
VERTEX
  5
AAE
  8
0
 10
0.0
 20
0.0
 30
0.0
 70
   128
 71
    82
 72
   -83
 73
   -93
  0
VERTEX
  5
AAF
  8
0
 10
0.0
 20
0.0
 30
0.0
 70
   128
 71
    81
 72
   -82
 73
   -93
  0
VERTEX
  5
AB0
  8
0
 10
0.0
 20
0.0
 30
0.0
 70
   128
 71
  -114
 72
   -94
 73
   -97
  0
VERTEX
  5
AB1
  8
0
 10
0.0
 20
0.0
 30
0.0
 70
   128
 71
   -97
 72
   113
 73
  -114
  0
VERTEX
  5
AB2
  8
0
 10
0.0
 20
0.0
 30
0.0
 70
   128
 71
    97
 72
   -98
 73
  -113
  0
VERTEX
  5
AB3
  8
0
 10
0.0
 20
0.0
 30
0.0
 70
   128
 71
    99
 72
    -1
 73
  -113
  0
VERTEX
  5
AB4
  8
0
 10
0.0
 20
0.0
 30
0.0
 70
   128
 71
    98
 72
   -99
 73
  -113
  0
VERTEX
  5
AB5
  8
0
 10
0.0
 20
0.0
 30
0.0
 70
   128
 71
     1
 72
    -2
 73
  -113
  0
VERTEX
  5
AB6
  8
0
 10
0.0
 20
0.0
 30
0.0
 70
   128
 71
     2
 72
    -3
 73
  -113
  0
VERTEX
  5
AB7
  8
0
 10
0.0
 20
0.0
 30
0.0
 70
   128
 71
     3
 72
    -4
 73
  -113
  0
VERTEX
  5
AB8
  8
0
 10
0.0
 20
0.0
 30
0.0
 70
   128
 71
   -10
 72
   107
 73
  -108
  0
VERTEX
  5
AB9
  8
0
 10
0.0
 20
0.0
 30
0.0
 70
   128
 71
     9
 72
   -10
 73
  -108
  0
VERTEX
  5
ABA
  8
0
 10
0.0
 20
0.0
 30
0.0
 70
   128
 71
     8
 72
    -9
 73
  -108
  0
VERTEX
  5
ABB
  8
0
 10
0.0
 20
0.0
 30
0.0
 70
   128
 71
   108
 72
  -109
 73
    -8
  0
VERTEX
  5
ABC
  8
0
 10
0.0
 20
0.0
 30
0.0
 70
   128
 71
   109
 72
  -110
 73
    -8
  0
VERTEX
  5
ABD
  8
0
 10
0.0
 20
0.0
 30
0.0
 70
   128
 71
     6
 72
     7
 73
    -8
  0
VERTEX
  5
ABE
  8
0
 10
0.0
 20
0.0
 30
0.0
 70
   128
 71
     5
 72
    -6
 73
    -8
  0
VERTEX
  5
ABF
  8
0
 10
0.0
 20
0.0
 30
0.0
 70
   128
 71
     4
 72
    -5
 73
    -8
  0
VERTEX
  5
AC0
  8
0
 10
0.0
 20
0.0
 30
0.0
 70
   128
 71
  -111
 72
    -4
 73
    -8
  0
VERTEX
  5
AC1
  8
0
 10
0.0
 20
0.0
 30
0.0
 70
   128
 71
   110
 72
  -111
 73
    -8
  0
VERTEX
  5
AC2
  8
0
 10
0.0
 20
0.0
 30
0.0
 70
   128
 71
  -113
 72
    -4
 73
  -111
  0
VERTEX
  5
AC3
  8
0
 10
0.0
 20
0.0
 30
0.0
 70
   128
 71
   111
 72
   112
 73
  -113
  0
VERTEX
  5
AC4
  8
0
 10
0.0
 20
0.0
 30
0.0
 70
   128
 71
    10
 72
   -11
 73
  -107
  0
VERTEX
  5
AC5
  8
0
 10
0.0
 20
0.0
 30
0.0
 70
   128
 71
   -11
 72
   106
 73
  -107
  0
VERTEX
  5
AC6
  8
0
 10
0.0
 20
0.0
 30
0.0
 70
   128
 71
    11
 72
   -12
 73
  -106
  0
VERTEX
  5
AC7
  8
0
 10
0.0
 20
0.0
 30
0.0
 70
   128
 71
    12
 72
   -13
 73
  -106
  0
VERTEX
  5
AC8
  8
0
 10
0.0
 20
0.0
 30
0.0
 70
   128
 71
   100
 72
   101
 73
  -102
  0
VERTEX
  5
AC9
  8
0
 10
0.0
 20
0.0
 30
0.0
 70
   128
 71
  -102
 72
   -19
 73
  -100
  0
VERTEX
  5
ACA
  8
0
 10
0.0
 20
0.0
 30
0.0
 70
   128
 71
  -103
 72
    18
 73
   -19
  0
VERTEX
  5
ACB
  8
0
 10
0.0
 20
0.0
 30
0.0
 70
   128
 71
   102
 72
  -103
 73
   -19
  0
VERTEX
  5
ACC
  8
0
 10
0.0
 20
0.0
 30
0.0
 70
   128
 71
   103
 72
  -104
 73
   -18
  0
VERTEX
  5
ACD
  8
0
 10
0.0
 20
0.0
 30
0.0
 70
   128
 71
    16
 72
    17
 73
   -18
  0
VERTEX
  5
ACE
  8
0
 10
0.0
 20
0.0
 30
0.0
 70
   128
 71
    15
 72
   -16
 73
   -18
  0
VERTEX
  5
ACF
  8
0
 10
0.0
 20
0.0
 30
0.0
 70
   128
 71
  -105
 72
   -15
 73
   -18
  0
VERTEX
  5
AD0
  8
0
 10
0.0
 20
0.0
 30
0.0
 70
   128
 71
   104
 72
  -105
 73
   -18
  0
VERTEX
  5
AD1
  8
0
 10
0.0
 20
0.0
 30
0.0
 70
   128
 71
    13
 72
    14
 73
   -15
  0
VERTEX
  5
AD2
  8
0
 10
0.0
 20
0.0
 30
0.0
 70
   128
 71
  -106
 72
   -13
 73
   -15
  0
VERTEX
  5
AD3
  8
0
 10
0.0
 20
0.0
 30
0.0
 70
   128
 71
   105
 72
  -106
 73
   -15
  0
VERTEX
  5
AD4
  8
0
 10
0.0
 20
0.0
 30
0.0
 70
   128
 71
   -19
 72
   129
 73
  -100
  0
VERTEX
  5
AD5
  8
0
 10
0.0
 20
0.0
 30
0.0
 70
   128
 71
    22
 72
   -23
 73
  -129
  0
VERTEX
  5
AD6
  8
0
 10
0.0
 20
0.0
 30
0.0
 70
   128
 71
    21
 72
   -22
 73
  -129
  0
VERTEX
  5
AD7
  8
0
 10
0.0
 20
0.0
 30
0.0
 70
   128
 71
    20
 72
   -21
 73
  -129
  0
VERTEX
  5
AD8
  8
0
 10
0.0
 20
0.0
 30
0.0
 70
   128
 71
    19
 72
   -20
 73
  -129
  0
SEQEND
  5
102E
  8
0
  0
POLYLINE
  5
AD9
  8
0
 66
     1
 10
0.0
 20
0.0
 30
0.0
 70
    64
 71
     8
 72
     6
  0
VERTEX
  5
ADA
  8
0
 10
1.149999999999899
 20
-12.1004952000355
 30
-1900.0
 70
   192
  0
VERTEX
  5
ADB
  8
0
 10
1.040192378864496
 20
-11.9906875789001
 30
-1900.0
 70
   192
  0
VERTEX
  5
ADC
  8
0
 10
1.040192378864496
 20
-11.9906875789001
 30
0.0
 70
   192
  0
VERTEX
  5
ADD
  8
0
 10
1.149999999999899
 20
-12.1004952000355
 30
0.0
 70
   192
  0
VERTEX
  5
ADE
  8
0
 10
0.9999999999998013
 20
-11.8406875789
 30
-1900.0
 70
   192
  0
VERTEX
  5
ADF
  8
0
 10
0.9999999999998013
 20
-11.8406875789
 30
0.0
 70
   192
  0
VERTEX
  5
AE0
  8
0
 10
1.299999999999997
 20
-12.1406875789
 30
-1900.0
 70
   192
  0
VERTEX
  5
AE1
  8
0
 10
1.299999999999997
 20
-12.1406875789002
 30
0.0
 70
   192
  0
VERTEX
  5
AE2
  8
0
 10
0.0
 20
0.0
 30
0.0
 70
   128
 71
     1
 72
     2
 73
    -3
  0
VERTEX
  5
AE3
  8
0
 10
0.0
 20
0.0
 30
0.0
 70
   128
 71
     4
 72
    -1
 73
     3
  0
VERTEX
  5
AE4
  8
0
 10
0.0
 20
0.0
 30
0.0
 70
   128
 71
     2
 72
     5
 73
    -6
  0
VERTEX
  5
AE5
  8
0
 10
0.0
 20
0.0
 30
0.0
 70
   128
 71
     3
 72
    -2
 73
     6
  0
VERTEX
  5
AE6
  8
0
 10
0.0
 20
0.0
 30
0.0
 70
   128
 71
     7
 72
     1
 73
    -4
  0
VERTEX
  5
AE7
  8
0
 10
0.0
 20
0.0
 30
0.0
 70
   128
 71
     8
 72
    -7
 73
     4
  0
SEQEND
  5
102F
  8
0
  0
POLYLINE
  5
AE8
  8
0
 66
     1
 10
0.0
 20
0.0
 30
0.0
 70
    64
 71
     4
 72
     2
  0
VERTEX
  5
AE9
  8
0
 10
1.300000000000001
 20
9.859312421102
 30
0.0
 70
   192
  0
VERTEX
  5
AEA
  8
0
 10
1.300000000000001
 20
9.859312421102
 30
-1900.0
 70
   192
  0
VERTEX
  5
AEB
  8
0
 10
4.746446565369997
 20
9.859312421102
 30
-1900.0
 70
   192
  0
VERTEX
  5
AEC
  8
0
 10
4.74644656537
 20
9.859312421102
 30
0.0
 70
   192
  0
VERTEX
  5
AED
  8
0
 10
0.0
 20
0.0
 30
0.0
 70
   128
 71
     3
 72
     4
 73
    -1
  0
VERTEX
  5
AEE
  8
0
 10
0.0
 20
0.0
 30
0.0
 70
   128
 71
     2
 72
    -3
 73
     1
  0
SEQEND
  5
1030
  8
0
  0
POLYLINE
  5
AEF
  8
0
 66
     1
 10
0.0
 20
0.0
 30
0.0
 70
    64
 71
     4
 72
     2
  0
VERTEX
  5
AF0
  8
0
 10
0.999999999999801
 20
-11.8406875789
 30
0.0
 70
   192
  0
VERTEX
  5
AF1
  8
0
 10
0.999999999999801
 20
-11.8406875789
 30
-1900.0
 70
   192
  0
VERTEX
  5
AF2
  8
0
 10
1.0
 20
9.559312421102002
 30
-1900.0
 70
   192
  0
VERTEX
  5
AF3
  8
0
 10
1.0
 20
9.559312421102
 30
0.0
 70
   192
  0
VERTEX
  5
AF4
  8
0
 10
0.0
 20
0.0
 30
0.0
 70
   128
 71
     3
 72
     4
 73
    -1
  0
VERTEX
  5
AF5
  8
0
 10
0.0
 20
0.0
 30
0.0
 70
   128
 71
     2
 72
    -3
 73
     1
  0
SEQEND
  5
1031
  8
0
  0
POLYLINE
  5
AF6
  8
0
 66
     1
 10
0.0
 20
0.0
 30
0.0
 70
    64
 71
     4
 72
     2
  0
VERTEX
  5
AF7
  8
0
 10
39.04644660943
 20
9.559312421102
 30
0.0
 70
   192
  0
VERTEX
  5
AF8
  8
0
 10
39.04644660943
 20
9.559312421102
 30
-1900.0
 70
   192
  0
VERTEX
  5
AF9
  8
0
 10
39.04644660943
 20
-11.8406875789
 30
-1900.0
 70
   192
  0
VERTEX
  5
AFA
  8
0
 10
39.0464466094302
 20
-11.8406875789
 30
0.0
 70
   192
  0
VERTEX
  5
AFB
  8
0
 10
0.0
 20
0.0
 30
0.0
 70
   128
 71
     3
 72
     4
 73
    -1
  0
VERTEX
  5
AFC
  8
0
 10
0.0
 20
0.0
 30
0.0
 70
   128
 71
     2
 72
    -3
 73
     1
  0
SEQEND
  5
1032
  8
0
  0
POLYLINE
  5
AFD
  8
0
 66
     1
 10
0.0
 20
0.0
 30
0.0
 70
    64
 71
     4
 72
     2
  0
VERTEX
  5
AFE
  8
0
 10
7.746446565399999
 20
9.859312421102
 30
0.0
 70
   192
  0
VERTEX
  5
AFF
  8
0
 10
7.746446565399999
 20
9.859312421102
 30
-1900.0
 70
   192
  0
VERTEX
  5
B00
  8
0
 10
38.74644660943
 20
9.859312421102
 30
-1900.0
 70
   192
  0
VERTEX
  5
B01
  8
0
 10
38.74644660943
 20
9.859312421102
 30
0.0
 70
   192
  0
VERTEX
  5
B02
  8
0
 10
0.0
 20
0.0
 30
0.0
 70
   128
 71
     3
 72
     4
 73
    -1
  0
VERTEX
  5
B03
  8
0
 10
0.0
 20
0.0
 30
0.0
 70
   128
 71
     2
 72
    -3
 73
     1
  0
SEQEND
  5
1033
  8
0
  0
POLYLINE
  5
B04
  8
0
 66
     1
 10
0.0
 20
0.0
 30
0.0
 70
    64
 71
     4
 72
     2
  0
VERTEX
  5
B05
  8
0
 10
8.74644656539
 20
15.23115115171
 30
0.0
 70
   192
  0
VERTEX
  5
B06
  8
0
 10
8.74644656539
 20
15.23115115171
 30
-1900.0
 70
   192
  0
VERTEX
  5
B07
  8
0
 10
8.74644656539
 20
10.7593124211
 30
-1900.0
 70
   192
  0
VERTEX
  5
B08
  8
0
 10
8.74644656539
 20
10.7593124211
 30
0.0
 70
   192
  0
VERTEX
  5
B09
  8
0
 10
0.0
 20
0.0
 30
0.0
 70
   128
 71
     3
 72
     4
 73
    -1
  0
VERTEX
  5
B0A
  8
0
 10
0.0
 20
0.0
 30
0.0
 70
   128
 71
     2
 72
    -3
 73
     1
  0
SEQEND
  5
1034
  8
0
  0
POLYLINE
  5
B0B
  8
0
 66
     1
 10
0.0
 20
0.0
 30
0.0
 70
    64
 71
     4
 72
     2
  0
VERTEX
  5
B0C
  8
0
 10
4.06356150253
 20
15.78209112346
 30
-0.0000000000002274
 70
   192
  0
VERTEX
  5
B0D
  8
0
 10
4.06356150253
 20
15.78209112346
 30
-1900.0
 70
   192
  0
VERTEX
  5
B0E
  8
0
 10
8.463561502555574
 20
15.53066255203025
 30
-1900.0
 70
   192
  0
VERTEX
  5
B0F
  8
0
 10
8.463561502560033
 20
15.53066255203057
 30
0.0
 70
   192
  0
VERTEX
  5
B10
  8
0
 10
0.0
 20
0.0
 30
0.0
 70
   128
 71
     3
 72
     4
 73
    -1
  0
VERTEX
  5
B11
  8
0
 10
0.0
 20
0.0
 30
0.0
 70
   128
 71
     2
 72
    -3
 73
     1
  0
SEQEND
  5
1035
  8
0
  0
POLYLINE
  5
B12
  8
0
 66
     1
 10
0.0
 20
0.0
 30
0.0
 70
    64
 71
     4
 72
     2
  0
VERTEX
  5
B13
  8
0
 10
3.74644656537
 20
10.7593124211
 30
0.0
 70
   192
  0
VERTEX
  5
B14
  8
0
 10
3.74644656537
 20
10.7593124211
 30
-1900.0
 70
   192
  0
VERTEX
  5
B15
  8
0
 10
3.74644656537
 20
15.48257972314
 30
-1900.0
 70
   192
  0
VERTEX
  5
B16
  8
0
 10
3.74644656537
 20
15.48257972314
 30
0.0
 70
   192
  0
VERTEX
  5
B17
  8
0
 10
0.0
 20
0.0
 30
0.0
 70
   128
 71
     3
 72
     4
 73
    -1
  0
VERTEX
  5
B18
  8
0
 10
0.0
 20
0.0
 30
0.0
 70
   128
 71
     2
 72
    -3
 73
     1
  0
SEQEND
  5
1036
  8
0
  0
POLYLINE
  5
B19
  8
0
 66
     1
 10
0.0
 20
0.0
 30
0.0
 70
    64
 71
     4
 72
     2
  0
VERTEX
  5
B1A
  8
0
 10
19.846446609407
 20
10.7593124211
 30
0.0
 70
   192
  0
VERTEX
  5
B1B
  8
0
 10
19.846446609407
 20
10.7593124211
 30
-1900.0
 70
   192
  0
VERTEX
  5
B1C
  8
0
 10
10.04644656537
 20
10.7593124211
 30
-1900.0
 70
   192
  0
VERTEX
  5
B1D
  8
0
 10
10.04644656537
 20
10.7593124211
 30
0.0
 70
   192
  0
VERTEX
  5
B1E
  8
0
 10
0.0
 20
0.0
 30
0.0
 70
   128
 71
     3
 72
     4
 73
    -1
  0
VERTEX
  5
B1F
  8
0
 10
0.0
 20
0.0
 30
0.0
 70
   128
 71
     2
 72
    -3
 73
     1
  0
SEQEND
  5
1037
  8
0
  0
POLYLINE
  5
B20
  8
0
 66
     1
 10
0.0
 20
0.0
 30
0.0
 70
    64
 71
     4
 72
     2
  0
VERTEX
  5
B21
  8
0
 10
31.046446609407
 20
10.7593124211
 30
0.0
 70
   192
  0
VERTEX
  5
B22
  8
0
 10
31.046446609407
 20
10.7593124211
 30
-1900.0
 70
   192
  0
VERTEX
  5
B23
  8
0
 10
20.2464466094064
 20
10.7593124211
 30
-1900.0
 70
   192
  0
VERTEX
  5
B24
  8
0
 10
20.246446609406
 20
10.7593124211
 30
0.0
 70
   192
  0
VERTEX
  5
B25
  8
0
 10
0.0
 20
0.0
 30
0.0
 70
   128
 71
     3
 72
     4
 73
    -1
  0
VERTEX
  5
B26
  8
0
 10
0.0
 20
0.0
 30
0.0
 70
   128
 71
     2
 72
    -3
 73
     1
  0
SEQEND
  5
1038
  8
0
  0
POLYLINE
  5
B27
  8
0
 66
     1
 10
0.0
 20
0.0
 30
0.0
 70
    64
 71
     4
 72
     2
  0
VERTEX
  5
B28
  8
0
 10
31.046446609407
 20
13.25930183149
 30
0.0
 70
   192
  0
VERTEX
  5
B29
  8
0
 10
31.046446609407
 20
13.25930183149
 30
-1900.0
 70
   192
  0
VERTEX
  5
B2A
  8
0
 10
31.046446609407
 20
10.7593124211
 30
-1900.0
 70
   192
  0
VERTEX
  5
B2B
  8
0
 10
31.046446609407
 20
10.7593124211
 30
0.0
 70
   192
  0
VERTEX
  5
B2C
  8
0
 10
0.0
 20
0.0
 30
0.0
 70
   128
 71
     3
 72
     4
 73
    -1
  0
VERTEX
  5
B2D
  8
0
 10
0.0
 20
0.0
 30
0.0
 70
   128
 71
     2
 72
    -3
 73
     1
  0
SEQEND
  5
1039
  8
0
  0
POLYLINE
  5
B2E
  8
0
 66
     1
 10
0.0
 20
0.0
 30
0.0
 70
    64
 71
     4
 72
     2
  0
VERTEX
  5
B2F
  8
0
 10
39.7464466094
 20
10.7593124211
 30
0.0
 70
   192
  0
VERTEX
  5
B30
  8
0
 10
39.7464466094
 20
10.7593124211
 30
-1900.0
 70
   192
  0
VERTEX
  5
B31
  8
0
 10
32.04644660941
 20
10.7593124211
 30
-1900.0
 70
   192
  0
VERTEX
  5
B32
  8
0
 10
32.04644660941
 20
10.7593124211
 30
0.0
 70
   192
  0
VERTEX
  5
B33
  8
0
 10
0.0
 20
0.0
 30
0.0
 70
   128
 71
     3
 72
     4
 73
    -1
  0
VERTEX
  5
B34
  8
0
 10
0.0
 20
0.0
 30
0.0
 70
   128
 71
     2
 72
    -3
 73
     1
  0
SEQEND
  5
103A
  8
0
  0
POLYLINE
  5
B35
  8
0
 66
     1
 10
0.0
 20
0.0
 30
0.0
 70
    64
 71
     4
 72
     2
  0
VERTEX
  5
B36
  8
0
 10
40.0464466094
 20
-13.9406875789
 30
0.0
 70
   192
  0
VERTEX
  5
B37
  8
0
 10
40.0464466094
 20
-13.9406875789
 30
-1900.0
 70
   192
  0
VERTEX
  5
B38
  8
0
 10
40.0464466094
 20
10.4593124211
 30
-1900.0
 70
   192
  0
VERTEX
  5
B39
  8
0
 10
40.0464466094
 20
10.4593124211
 30
0.0
 70
   192
  0
VERTEX
  5
B3A
  8
0
 10
0.0
 20
0.0
 30
0.0
 70
   128
 71
     3
 72
     4
 73
    -1
  0
VERTEX
  5
B3B
  8
0
 10
0.0
 20
0.0
 30
0.0
 70
   128
 71
     2
 72
    -3
 73
     1
  0
SEQEND
  5
103B
  8
0
  0
POLYLINE
  5
B3C
  8
0
 66
     1
 10
0.0
 20
0.0
 30
0.0
 70
    64
 71
     4
 72
     2
  0
VERTEX
  5
B3D
  8
0
 10
29.81966991411
 20
-13.1406875789
 30
0.0000000000002274
 70
   192
  0
VERTEX
  5
B3E
  8
0
 10
29.81966991411
 20
-13.1406875789
 30
-1900.0
 70
   192
  0
VERTEX
  5
B3F
  8
0
 10
38.34644660941001
 20
-13.1406875789
 30
-1900.0
 70
   192
  0
VERTEX
  5
B40
  8
0
 10
38.34644660941
 20
-13.1406875789
 30
0.0
 70
   192
  0
VERTEX
  5
B41
  8
0
 10
0.0
 20
0.0
 30
0.0
 70
   128
 71
     3
 72
     4
 73
    -1
  0
VERTEX
  5
B42
  8
0
 10
0.0
 20
0.0
 30
0.0
 70
   128
 71
     2
 72
    -3
 73
     1
  0
SEQEND
  5
103C
  8
0
  0
POLYLINE
  5
B43
  8
0
 66
     1
 10
0.0
 20
0.0
 30
0.0
 70
    64
 71
     4
 72
     2
  0
VERTEX
  5
B44
  8
0
 10
20.246446609406
 20
-13.1406875789
 30
0.0
 70
   192
  0
VERTEX
  5
B45
  8
0
 10
20.246446609406
 20
-13.1406875789
 30
-1900.0
 70
   192
  0
VERTEX
  5
B46
  8
0
 10
28.81966991411
 20
-13.1406875789
 30
-1900.0
 70
   192
  0
VERTEX
  5
B47
  8
0
 10
28.81966991411
 20
-13.1406875789
 30
0.0
 70
   192
  0
VERTEX
  5
B48
  8
0
 10
0.0
 20
0.0
 30
0.0
 70
   128
 71
     3
 72
     4
 73
    -1
  0
VERTEX
  5
B49
  8
0
 10
0.0
 20
0.0
 30
0.0
 70
   128
 71
     2
 72
    -3
 73
     1
  0
SEQEND
  5
103D
  8
0
  0
POLYLINE
  5
B4A
  8
0
 66
     1
 10
0.0
 20
0.0
 30
0.0
 70
    64
 71
     4
 72
     2
  0
VERTEX
  5
B4B
  8
0
 10
11.2732233047
 20
-13.1406875789
 30
0.0
 70
   192
  0
VERTEX
  5
B4C
  8
0
 10
11.2732233047
 20
-13.1406875789
 30
-1900.0
 70
   192
  0
VERTEX
  5
B4D
  8
0
 10
19.8464466094071
 20
-13.1406875789
 30
-1900.0
 70
   192
  0
VERTEX
  5
B4E
  8
0
 10
19.846446609407
 20
-13.1406875789
 30
0.0
 70
   192
  0
VERTEX
  5
B4F
  8
0
 10
0.0
 20
0.0
 30
0.0
 70
   128
 71
     3
 72
     4
 73
    -1
  0
VERTEX
  5
B50
  8
0
 10
0.0
 20
0.0
 30
0.0
 70
   128
 71
     2
 72
    -3
 73
     1
  0
SEQEND
  5
103E
  8
0
  0
POLYLINE
  5
B51
  8
0
 66
     1
 10
0.0
 20
0.0
 30
0.0
 70
    64
 71
     4
 72
     2
  0
VERTEX
  5
B52
  8
0
 10
1.699999999999999
 20
-13.1406875789
 30
0.0
 70
   192
  0
VERTEX
  5
B53
  8
0
 10
1.699999999999999
 20
-13.1406875789
 30
-1900.0
 70
   192
  0
VERTEX
  5
B54
  8
0
 10
10.2732233047
 20
-13.1406875789
 30
-1900.0
 70
   192
  0
VERTEX
  5
B55
  8
0
 10
10.2732233047
 20
-13.1406875789
 30
0.0
 70
   192
  0
VERTEX
  5
B56
  8
0
 10
0.0
 20
0.0
 30
0.0
 70
   128
 71
     3
 72
     4
 73
    -1
  0
VERTEX
  5
B57
  8
0
 10
0.0
 20
0.0
 30
0.0
 70
   128
 71
     2
 72
    -3
 73
     1
  0
SEQEND
  5
103F
  8
0
  0
POLYLINE
  5
B58
  8
0
 66
     1
 10
0.0
 20
0.0
 30
0.0
 70
    64
 71
     4
 72
     2
  0
VERTEX
  5
B59
  8
0
 10
0.0
 20
10.4593124211
 30
0.0
 70
   192
  0
VERTEX
  5
B5A
  8
0
 10
0.0
 20
10.4593124211
 30
-1900.0
 70
   192
  0
VERTEX
  5
B5B
  8
0
 10
0.0
 20
-13.9406875789
 30
-1900.0
 70
   192
  0
VERTEX
  5
B5C
  8
0
 10
0.0
 20
-13.9406875789
 30
0.0
 70
   192
  0
VERTEX
  5
B5D
  8
0
 10
0.0
 20
0.0
 30
0.0
 70
   128
 71
     3
 72
     4
 73
    -1
  0
VERTEX
  5
B5E
  8
0
 10
0.0
 20
0.0
 30
0.0
 70
   128
 71
     2
 72
    -3
 73
     1
  0
SEQEND
  5
1040
  8
0
  0
POLYLINE
  5
B5F
  8
0
 66
     1
 10
0.0
 20
0.0
 30
0.0
 70
    64
 71
     4
 72
     2
  0
VERTEX
  5
B60
  8
0
 10
2.74644656537
 20
10.7593124211
 30
0.0
 70
   192
  0
VERTEX
  5
B61
  8
0
 10
2.74644656537
 20
10.7593124211
 30
-1900.0
 70
   192
  0
VERTEX
  5
B62
  8
0
 10
0.3000000000000007
 20
10.7593124211
 30
-1900.0
 70
   192
  0
VERTEX
  5
B63
  8
0
 10
0.3000000000000007
 20
10.7593124211
 30
0.0
 70
   192
  0
VERTEX
  5
B64
  8
0
 10
0.0
 20
0.0
 30
0.0
 70
   128
 71
     3
 72
     4
 73
    -1
  0
VERTEX
  5
B65
  8
0
 10
0.0
 20
0.0
 30
0.0
 70
   128
 71
     2
 72
    -3
 73
     1
  0
SEQEND
  5
1041
  8
0
  0
POLYLINE
  5
B66
  8
0
 66
     1
 10
0.0
 20
0.0
 30
0.0
 70
    64
 71
     4
 72
     2
  0
VERTEX
  5
B67
  8
0
 10
2.74644656537
 20
16.74168016722
 30
0.0
 70
   192
  0
VERTEX
  5
B68
  8
0
 10
2.74644656537
 20
16.74168016722
 30
-1900.0
 70
   192
  0
VERTEX
  5
B69
  8
0
 10
2.74644656537
 20
10.7593124211
 30
-1900.0
 70
   192
  0
VERTEX
  5
B6A
  8
0
 10
2.74644656537
 20
10.7593124211
 30
0.0
 70
   192
  0
VERTEX
  5
B6B
  8
0
 10
0.0
 20
0.0
 30
0.0
 70
   128
 71
     3
 72
     4
 73
    -1
  0
VERTEX
  5
B6C
  8
0
 10
0.0
 20
0.0
 30
0.0
 70
   128
 71
     2
 72
    -3
 73
     1
  0
SEQEND
  5
1042
  8
0
  0
POLYLINE
  5
B6D
  8
0
 66
     1
 10
0.0
 20
0.0
 30
0.0
 70
    64
 71
     4
 72
     2
  0
VERTEX
  5
B6E
  8
0
 10
6.04677229849
 20
16.87072237921
 30
0.0000000000002274
 70
   192
  0
VERTEX
  5
B6F
  8
0
 10
6.04677229849
 20
16.87072237921
 30
-1900.0
 70
   192
  0
VERTEX
  5
B70
  8
0
 10
3.063561502530825
 20
17.04119156754995
 30
-1900.0
 70
   192
  0
VERTEX
  5
B71
  8
0
 10
3.063561502529996
 20
17.04119156754996
 30
0.0000000000002274
 70
   192
  0
VERTEX
  5
B72
  8
0
 10
0.0
 20
0.0
 30
0.0
 70
   128
 71
     3
 72
     4
 73
    -1
  0
VERTEX
  5
B73
  8
0
 10
0.0
 20
0.0
 30
0.0
 70
   128
 71
     2
 72
    -3
 73
     1
  0
SEQEND
  5
1043
  8
0
  0
POLYLINE
  5
B74
  8
0
 66
     1
 10
0.0
 20
0.0
 30
0.0
 70
    64
 71
     4
 72
     2
  0
VERTEX
  5
B75
  8
0
 10
9.46356150253
 20
16.67547728184
 30
0.0
 70
   192
  0
VERTEX
  5
B76
  8
0
 10
9.46356150253
 20
16.67547728184
 30
-1900.0
 70
   192
  0
VERTEX
  5
B77
  8
0
 10
6.446120832257525
 20
16.84790246300014
 30
-1900.0
 70
   192
  0
VERTEX
  5
B78
  8
0
 10
6.446120832259865
 20
16.84790246299768
 30
0.0
 70
   192
  0
VERTEX
  5
B79
  8
0
 10
0.0
 20
0.0
 30
0.0
 70
   128
 71
     3
 72
     4
 73
    -1
  0
VERTEX
  5
B7A
  8
0
 10
0.0
 20
0.0
 30
0.0
 70
   128
 71
     2
 72
    -3
 73
     1
  0
SEQEND
  5
1044
  8
0
  0
POLYLINE
  5
B7B
  8
0
 66
     1
 10
0.0
 20
0.0
 30
0.0
 70
    64
 71
     4
 72
     2
  0
VERTEX
  5
B7C
  8
0
 10
9.74644656537
 20
11.0593124211
 30
0.0
 70
   192
  0
VERTEX
  5
B7D
  8
0
 10
9.74644656537
 20
11.0593124211
 30
-1900.0
 70
   192
  0
VERTEX
  5
B7E
  8
0
 10
9.74644656537
 20
16.37596588151
 30
-1900.0
 70
   192
  0
VERTEX
  5
B7F
  8
0
 10
9.74644656537
 20
16.37596588151
 30
0.0
 70
   192
  0
VERTEX
  5
B80
  8
0
 10
0.0
 20
0.0
 30
0.0
 70
   128
 71
     3
 72
     4
 73
    -1
  0
VERTEX
  5
B81
  8
0
 10
0.0
 20
0.0
 30
0.0
 70
   128
 71
     2
 72
    -3
 73
     1
  0
SEQEND
  5
1045
  8
0
  0
POLYLINE
  5
B82
  8
0
 66
     1
 10
0.0
 20
0.0
 30
0.0
 70
    64
 71
     8
 72
     6
  0
VERTEX
  5
B83
  8
0
 10
1.040192378864496
 20
9.7093124211021
 30
-1900.0
 70
   192
  0
VERTEX
  5
B84
  8
0
 10
1.149999999999901
 20
9.819120042237504
 30
-1900.0
 70
   192
  0
VERTEX
  5
B85
  8
0
 10
1.149999999999901
 20
9.819120042237504
 30
0.0
 70
   192
  0
VERTEX
  5
B86
  8
0
 10
1.040192378864496
 20
9.7093124211021
 30
0.0
 70
   192
  0
VERTEX
  5
B87
  8
0
 10
1.300000000000001
 20
9.8593124211022
 30
-1900.0
 70
   192
  0
VERTEX
  5
B88
  8
0
 10
1.300000000000001
 20
9.8593124211022
 30
0.0
 70
   192
  0
VERTEX
  5
B89
  8
0
 10
1.0
 20
9.559312421102
 30
-1900.0
 70
   192
  0
VERTEX
  5
B8A
  8
0
 10
0.9999999999998013
 20
9.559312421102
 30
0.0
 70
   192
  0
VERTEX
  5
B8B
  8
0
 10
0.0
 20
0.0
 30
0.0
 70
   128
 71
     1
 72
     2
 73
    -3
  0
VERTEX
  5
B8C
  8
0
 10
0.0
 20
0.0
 30
0.0
 70
   128
 71
     4
 72
    -1
 73
     3
  0
VERTEX
  5
B8D
  8
0
 10
0.0
 20
0.0
 30
0.0
 70
   128
 71
     2
 72
     5
 73
    -6
  0
VERTEX
  5
B8E
  8
0
 10
0.0
 20
0.0
 30
0.0
 70
   128
 71
     3
 72
    -2
 73
     6
  0
VERTEX
  5
B8F
  8
0
 10
0.0
 20
0.0
 30
0.0
 70
   128
 71
     7
 72
     1
 73
    -4
  0
VERTEX
  5
B90
  8
0
 10
0.0
 20
0.0
 30
0.0
 70
   128
 71
     8
 72
    -7
 73
     4
  0
SEQEND
  5
1046
  8
0
  0
POLYLINE
  5
B91
  8
0
 66
     1
 10
0.0
 20
0.0
 30
0.0
 70
    64
 71
     4
 72
     2
  0
VERTEX
  5
B92
  8
0
 10
4.74644656537
 20
9.859312421102
 30
0.0
 70
   192
  0
VERTEX
  5
B93
  8
0
 10
4.74644656537
 20
9.859312421102
 30
-1900.0
 70
   192
  0
VERTEX
  5
B94
  8
0
 10
4.74644656537
 20
10.7593124211
 30
-1900.0
 70
   192
  0
VERTEX
  5
B95
  8
0
 10
4.74644656537
 20
10.7593124211
 30
0.0
 70
   192
  0
VERTEX
  5
B96
  8
0
 10
0.0
 20
0.0
 30
0.0
 70
   128
 71
     3
 72
     4
 73
    -1
  0
VERTEX
  5
B97
  8
0
 10
0.0
 20
0.0
 30
0.0
 70
   128
 71
     2
 72
    -3
 73
     1
  0
SEQEND
  5
1047
  8
0
  0
POLYLINE
  5
B98
  8
0
 66
     1
 10
0.0
 20
0.0
 30
0.0
 70
    64
 71
     8
 72
     6
  0
VERTEX
  5
B99
  8
0
 10
38.89644660943009
 20
9.819120042237504
 30
-1900.0
 70
   192
  0
VERTEX
  5
B9A
  8
0
 10
39.0062542305655
 20
9.7093124211021
 30
-1900.0
 70
   192
  0
VERTEX
  5
B9B
  8
0
 10
39.0062542305655
 20
9.7093124211021
 30
0.0
 70
   192
  0
VERTEX
  5
B9C
  8
0
 10
38.89644660943009
 20
9.819120042237504
 30
0.0
 70
   192
  0
VERTEX
  5
B9D
  8
0
 10
39.04644660943019
 20
9.559312421102
 30
-1900.0
 70
   192
  0
VERTEX
  5
B9E
  8
0
 10
39.04644660943019
 20
9.559312421102
 30
0.0
 70
   192
  0
VERTEX
  5
B9F
  8
0
 10
38.74644660943
 20
9.859312421102
 30
-1900.0
 70
   192
  0
VERTEX
  5
BA0
  8
0
 10
38.74644660943
 20
9.8593124211022
 30
0.0
 70
   192
  0
VERTEX
  5
BA1
  8
0
 10
0.0
 20
0.0
 30
0.0
 70
   128
 71
     1
 72
     2
 73
    -3
  0
VERTEX
  5
BA2
  8
0
 10
0.0
 20
0.0
 30
0.0
 70
   128
 71
     4
 72
    -1
 73
     3
  0
VERTEX
  5
BA3
  8
0
 10
0.0
 20
0.0
 30
0.0
 70
   128
 71
     2
 72
     5
 73
    -6
  0
VERTEX
  5
BA4
  8
0
 10
0.0
 20
0.0
 30
0.0
 70
   128
 71
     3
 72
    -2
 73
     6
  0
VERTEX
  5
BA5
  8
0
 10
0.0
 20
0.0
 30
0.0
 70
   128
 71
     7
 72
     1
 73
    -4
  0
VERTEX
  5
BA6
  8
0
 10
0.0
 20
0.0
 30
0.0
 70
   128
 71
     8
 72
    -7
 73
     4
  0
SEQEND
  5
1048
  8
0
  0
POLYLINE
  5
BA7
  8
0
 66
     1
 10
0.0
 20
0.0
 30
0.0
 70
    64
 71
     4
 72
     2
  0
VERTEX
  5
BA8
  8
0
 10
7.746446565399999
 20
10.7593124211
 30
0.0
 70
   192
  0
VERTEX
  5
BA9
  8
0
 10
7.746446565399999
 20
10.7593124211
 30
-1900.0
 70
   192
  0
VERTEX
  5
BAA
  8
0
 10
7.746446565399999
 20
9.859312421102
 30
-1900.0
 70
   192
  0
VERTEX
  5
BAB
  8
0
 10
7.746446565399999
 20
9.859312421102
 30
0.0
 70
   192
  0
VERTEX
  5
BAC
  8
0
 10
0.0
 20
0.0
 30
0.0
 70
   128
 71
     3
 72
     4
 73
    -1
  0
VERTEX
  5
BAD
  8
0
 10
0.0
 20
0.0
 30
0.0
 70
   128
 71
     2
 72
    -3
 73
     1
  0
SEQEND
  5
1049
  8
0
  0
POLYLINE
  5
BAE
  8
0
 66
     1
 10
0.0
 20
0.0
 30
0.0
 70
    64
 71
     8
 72
     6
  0
VERTEX
  5
BAF
  8
0
 10
8.606222266862742
 20
15.48506398167141
 30
-1900.0
 70
   192
  0
VERTEX
  5
BB0
  8
0
 10
8.70906102657024
 20
15.37618095822967
 30
-1900.0
 70
   192
  0
VERTEX
  5
BB1
  8
0
 10
8.70906102657024
 20
15.37618095822967
 30
0.0
 70
   192
  0
VERTEX
  5
BB2
  8
0
 10
8.606222266862742
 20
15.48506398167141
 30
0.0
 70
   192
  0
VERTEX
  5
BB3
  8
0
 10
8.7464465653902
 20
15.23115115171
 30
-1900.0
 70
   192
  0
VERTEX
  5
BB4
  8
0
 10
8.7464465653902
 20
15.23115115171
 30
0.0
 70
   192
  0
VERTEX
  5
BB5
  8
0
 10
8.463561502560033
 20
15.53066255203057
 30
-1900.0
 70
   192
  0
VERTEX
  5
BB6
  8
0
 10
8.463561502555969
 20
15.53066255203714
 30
0.0
 70
   192
  0
VERTEX
  5
BB7
  8
0
 10
0.0
 20
0.0
 30
0.0
 70
   128
 71
     1
 72
     2
 73
    -3
  0
VERTEX
  5
BB8
  8
0
 10
0.0
 20
0.0
 30
0.0
 70
   128
 71
     4
 72
    -1
 73
     3
  0
VERTEX
  5
BB9
  8
0
 10
0.0
 20
0.0
 30
0.0
 70
   128
 71
     2
 72
     5
 73
    -6
  0
VERTEX
  5
BBA
  8
0
 10
0.0
 20
0.0
 30
0.0
 70
   128
 71
     3
 72
    -2
 73
     6
  0
VERTEX
  5
BBB
  8
0
 10
0.0
 20
0.0
 30
0.0
 70
   128
 71
     7
 72
     1
 73
    -4
  0
VERTEX
  5
BBC
  8
0
 10
0.0
 20
0.0
 30
0.0
 70
   128
 71
     8
 72
    -7
 73
     4
  0
SEQEND
  5
104A
  8
0
  0
POLYLINE
  5
BBD
  8
0
 66
     1
 10
0.0
 20
0.0
 30
0.0
 70
    64
 71
     4
 72
     2
  0
VERTEX
  5
BBE
  8
0
 10
8.74644656539
 20
10.7593124211
 30
0.0
 70
   192
  0
VERTEX
  5
BBF
  8
0
 10
8.74644656539
 20
10.7593124211
 30
-1900.0
 70
   192
  0
VERTEX
  5
BC0
  8
0
 10
7.746446565399999
 20
10.7593124211
 30
-1900.0
 70
   192
  0
VERTEX
  5
BC1
  8
0
 10
7.746446565399999
 20
10.7593124211
 30
0.0
 70
   192
  0
VERTEX
  5
BC2
  8
0
 10
0.0
 20
0.0
 30
0.0
 70
   128
 71
     3
 72
     4
 73
    -1
  0
VERTEX
  5
BC3
  8
0
 10
0.0
 20
0.0
 30
0.0
 70
   128
 71
     2
 72
    -3
 73
     1
  0
SEQEND
  5
104B
  8
0
  0
POLYLINE
  5
BC4
  8
0
 66
     1
 10
0.0
 20
0.0
 30
0.0
 70
    64
 71
     8
 72
     6
  0
VERTEX
  5
BC5
  8
0
 10
3.789539838027048
 20
15.63749561466199
 30
-1900.0
 70
   192
  0
VERTEX
  5
BC6
  8
0
 10
3.906439455010049
 20
15.74790595450203
 30
-1900.0
 70
   192
  0
VERTEX
  5
BC7
  8
0
 10
3.906439455010049
 20
15.74790595450203
 30
0.0
 70
   192
  0
VERTEX
  5
BC8
  8
0
 10
3.789539838027047
 20
15.63749561466199
 30
0.0
 70
   192
  0
VERTEX
  5
BC9
  8
0
 10
4.063561502530987
 20
15.78209112346743
 30
-1900.0
 70
   192
  0
VERTEX
  5
BCA
  8
0
 10
4.063561502530987
 20
15.78209112346743
 30
0.0
 70
   192
  0
VERTEX
  5
BCB
  8
0
 10
3.74644656537
 20
15.48257972314
 30
-1900.0
 70
   192
  0
VERTEX
  5
BCC
  8
0
 10
3.746446565369801
 20
15.48257972314
 30
0.0
 70
   192
  0
VERTEX
  5
BCD
  8
0
 10
0.0
 20
0.0
 30
0.0
 70
   128
 71
     1
 72
     2
 73
    -3
  0
VERTEX
  5
BCE
  8
0
 10
0.0
 20
0.0
 30
0.0
 70
   128
 71
     4
 72
    -1
 73
     3
  0
VERTEX
  5
BCF
  8
0
 10
0.0
 20
0.0
 30
0.0
 70
   128
 71
     2
 72
     5
 73
    -6
  0
VERTEX
  5
BD0
  8
0
 10
0.0
 20
0.0
 30
0.0
 70
   128
 71
     3
 72
    -2
 73
     6
  0
VERTEX
  5
BD1
  8
0
 10
0.0
 20
0.0
 30
0.0
 70
   128
 71
     7
 72
     1
 73
    -4
  0
VERTEX
  5
BD2
  8
0
 10
0.0
 20
0.0
 30
0.0
 70
   128
 71
     8
 72
    -7
 73
     4
  0
SEQEND
  5
104C
  8
0
  0
POLYLINE
  5
BD3
  8
0
 66
     1
 10
0.0
 20
0.0
 30
0.0
 70
    64
 71
     4
 72
     2
  0
VERTEX
  5
BD4
  8
0
 10
4.74644656537
 20
10.7593124211
 30
0.0
 70
   192
  0
VERTEX
  5
BD5
  8
0
 10
4.74644656537
 20
10.7593124211
 30
-1900.0
 70
   192
  0
VERTEX
  5
BD6
  8
0
 10
3.74644656537
 20
10.7593124211
 30
-1900.0
 70
   192
  0
VERTEX
  5
BD7
  8
0
 10
3.74644656537
 20
10.7593124211
 30
0.0
 70
   192
  0
VERTEX
  5
BD8
  8
0
 10
0.0
 20
0.0
 30
0.0
 70
   128
 71
     3
 72
     4
 73
    -1
  0
VERTEX
  5
BD9
  8
0
 10
0.0
 20
0.0
 30
0.0
 70
   128
 71
     2
 72
    -3
 73
     1
  0
SEQEND
  5
104D
  8
0
  0
POLYLINE
  5
BDA
  8
0
 66
     1
 10
0.0
 20
0.0
 30
0.0
 70
    64
 71
    10
 72
     8
  0
VERTEX
  5
BDB
  8
0
 10
19.8464466094072
 20
10.7593124211
 30
-1900.0
 70
   192
  0
VERTEX
  5
BDC
  8
0
 10
20.246446609406
 20
10.7593124211
 30
-1900.0
 70
   192
  0
VERTEX
  5
BDD
  8
0
 10
20.2464466094068
 20
10.7593124211
 30
0.0
 70
   192
  0
VERTEX
  5
BDE
  8
0
 10
19.8464466094072
 20
10.7593124211
 30
0.0
 70
   192
  0
VERTEX
  5
BDF
  8
0
 10
20.046446609407
 20
10.5593124211002
 30
0.0
 70
   192
  0
VERTEX
  5
BE0
  8
0
 10
20.046446609407
 20
10.5593124211002
 30
-1900.0
 70
   192
  0
VERTEX
  5
BE1
  8
0
 10
19.90502525316983
 20
10.61789106486283
 30
0.0
 70
   192
  0
VERTEX
  5
BE2
  8
0
 10
19.90502525316983
 20
10.61789106486283
 30
-1900.0
 70
   192
  0
VERTEX
  5
BE3
  8
0
 10
20.18786796564417
 20
10.61789106486283
 30
0.0
 70
   192
  0
VERTEX
  5
BE4
  8
0
 10
20.18786796564417
 20
10.61789106486283
 30
-1900.0
 70
   192
  0
VERTEX
  5
BE5
  8
0
 10
0.0
 20
0.0
 30
0.0
 70
   128
 71
     4
 72
     7
 73
    -8
  0
VERTEX
  5
BE6
  8
0
 10
0.0
 20
0.0
 30
0.0
 70
   128
 71
     1
 72
    -4
 73
     8
  0
VERTEX
  5
BE7
  8
0
 10
0.0
 20
0.0
 30
0.0
 70
   128
 71
     7
 72
     5
 73
    -6
  0
VERTEX
  5
BE8
  8
0
 10
0.0
 20
0.0
 30
0.0
 70
   128
 71
     8
 72
    -7
 73
     6
  0
VERTEX
  5
BE9
  8
0
 10
0.0
 20
0.0
 30
0.0
 70
   128
 71
     5
 72
     9
 73
   -10
  0
VERTEX
  5
BEA
  8
0
 10
0.0
 20
0.0
 30
0.0
 70
   128
 71
     6
 72
    -5
 73
    10
  0
VERTEX
  5
BEB
  8
0
 10
0.0
 20
0.0
 30
0.0
 70
   128
 71
     9
 72
     3
 73
    -2
  0
VERTEX
  5
BEC
  8
0
 10
0.0
 20
0.0
 30
0.0
 70
   128
 71
    10
 72
    -9
 73
     2
  0
SEQEND
  5
104E
  8
0
  0
POLYLINE
  5
BED
  8
0
 66
     1
 10
0.0
 20
0.0
 30
0.0
 70
    64
 71
     8
 72
     6
  0
VERTEX
  5
BEE
  8
0
 10
9.8964465653699
 20
10.7995047999645
 30
-1900.0
 70
   192
  0
VERTEX
  5
BEF
  8
0
 10
9.786638944234495
 20
10.9093124210999
 30
-1900.0
 70
   192
  0
VERTEX
  5
BF0
  8
0
 10
9.786638944234495
 20
10.9093124210999
 30
0.0
 70
   192
  0
VERTEX
  5
BF1
  8
0
 10
9.8964465653699
 20
10.7995047999645
 30
0.0
 70
   192
  0
VERTEX
  5
BF2
  8
0
 10
9.7464465653698
 20
11.0593124211
 30
-1900.0
 70
   192
  0
VERTEX
  5
BF3
  8
0
 10
9.7464465653698
 20
11.0593124211
 30
0.0
 70
   192
  0
VERTEX
  5
BF4
  8
0
 10
10.04644656537
 20
10.7593124211
 30
-1900.0
 70
   192
  0
VERTEX
  5
BF5
  8
0
 10
10.04644656537
 20
10.7593124210998
 30
0.0
 70
   192
  0
VERTEX
  5
BF6
  8
0
 10
0.0
 20
0.0
 30
0.0
 70
   128
 71
     1
 72
     2
 73
    -3
  0
VERTEX
  5
BF7
  8
0
 10
0.0
 20
0.0
 30
0.0
 70
   128
 71
     4
 72
    -1
 73
     3
  0
VERTEX
  5
BF8
  8
0
 10
0.0
 20
0.0
 30
0.0
 70
   128
 71
     2
 72
     5
 73
    -6
  0
VERTEX
  5
BF9
  8
0
 10
0.0
 20
0.0
 30
0.0
 70
   128
 71
     3
 72
    -2
 73
     6
  0
VERTEX
  5
BFA
  8
0
 10
0.0
 20
0.0
 30
0.0
 70
   128
 71
     7
 72
     1
 73
    -4
  0
VERTEX
  5
BFB
  8
0
 10
0.0
 20
0.0
 30
0.0
 70
   128
 71
     8
 72
    -7
 73
     4
  0
SEQEND
  5
104F
  8
0
  0
POLYLINE
  5
BFC
  8
0
 66
     1
 10
0.0
 20
0.0
 30
0.0
 70
    64
 71
     8
 72
     6
  0
VERTEX
  5
BFD
  8
0
 10
31.1964466094079
 20
13.5191094526255
 30
0.0
 70
   192
  0
VERTEX
  5
BFE
  8
0
 10
31.1964466094079
 20
13.5191094526255
 30
-1900.0
 70
   192
  0
VERTEX
  5
BFF
  8
0
 10
31.0866389882725
 20
13.4093018314901
 30
-1900.0
 70
   192
  0
VERTEX
  5
C00
  8
0
 10
31.0866389882725
 20
13.4093018314901
 30
0.0
 70
   192
  0
VERTEX
  5
C01
  8
0
 10
31.346446609408
 20
13.5593018314902
 30
0.0
 70
   192
  0
VERTEX
  5
C02
  8
0
 10
31.346446609408
 20
13.5593018314902
 30
-1900.0
 70
   192
  0
VERTEX
  5
C03
  8
0
 10
31.0464466094078
 20
13.25930183149
 30
-1900.0
 70
   192
  0
VERTEX
  5
C04
  8
0
 10
31.046446609407
 20
13.25930183149
 30
0.0
 70
   192
  0
VERTEX
  5
C05
  8
0
 10
0.0
 20
0.0
 30
0.0
 70
   128
 71
     1
 72
     2
 73
    -3
  0
VERTEX
  5
C06
  8
0
 10
0.0
 20
0.0
 30
0.0
 70
   128
 71
    -1
 72
     3
 73
     4
  0
VERTEX
  5
C07
  8
0
 10
0.0
 20
0.0
 30
0.0
 70
   128
 71
     5
 72
     6
 73
    -2
  0
VERTEX
  5
C08
  8
0
 10
0.0
 20
0.0
 30
0.0
 70
   128
 71
    -5
 72
     2
 73
     1
  0
VERTEX
  5
C09
  8
0
 10
0.0
 20
0.0
 30
0.0
 70
   128
 71
     4
 72
     3
 73
    -7
  0
VERTEX
  5
C0A
  8
0
 10
0.0
 20
0.0
 30
0.0
 70
   128
 71
    -4
 72
     7
 73
     8
  0
SEQEND
  5
1050
  8
0
  0
POLYLINE
  5
C0B
  8
0
 66
     1
 10
0.0
 20
0.0
 30
0.0
 70
    64
 71
     8
 72
     6
  0
VERTEX
  5
C0C
  8
0
 10
40.0062542305355
 20
10.6093124211001
 30
0.0
 70
   192
  0
VERTEX
  5
C0D
  8
0
 10
40.0062542305355
 20
10.6093124211001
 30
-1900.0
 70
   192
  0
VERTEX
  5
C0E
  8
0
 10
39.89644660940009
 20
10.7191200422355
 30
-1900.0
 70
   192
  0
VERTEX
  5
C0F
  8
0
 10
39.89644660940009
 20
10.7191200422355
 30
0.0
 70
   192
  0
VERTEX
  5
C10
  8
0
 10
40.04644660940019
 20
10.4593124211
 30
0.0
 70
   192
  0
VERTEX
  5
C11
  8
0
 10
40.0464466094
 20
10.4593124211
 30
-1900.0
 70
   192
  0
VERTEX
  5
C12
  8
0
 10
39.7464466094
 20
10.7593124211002
 30
-1900.0
 70
   192
  0
VERTEX
  5
C13
  8
0
 10
39.7464466094
 20
10.7593124211
 30
0.0
 70
   192
  0
VERTEX
  5
C14
  8
0
 10
0.0
 20
0.0
 30
0.0
 70
   128
 71
     1
 72
     2
 73
    -3
  0
VERTEX
  5
C15
  8
0
 10
0.0
 20
0.0
 30
0.0
 70
   128
 71
    -1
 72
     3
 73
     4
  0
VERTEX
  5
C16
  8
0
 10
0.0
 20
0.0
 30
0.0
 70
   128
 71
     5
 72
     6
 73
    -2
  0
VERTEX
  5
C17
  8
0
 10
0.0
 20
0.0
 30
0.0
 70
   128
 71
    -5
 72
     2
 73
     1
  0
VERTEX
  5
C18
  8
0
 10
0.0
 20
0.0
 30
0.0
 70
   128
 71
     4
 72
     3
 73
    -7
  0
VERTEX
  5
C19
  8
0
 10
0.0
 20
0.0
 30
0.0
 70
   128
 71
    -4
 72
     7
 73
     8
  0
SEQEND
  5
1051
  8
0
  0
POLYLINE
  5
C1A
  8
0
 66
     1
 10
0.0
 20
0.0
 30
0.0
 70
    64
 71
     4
 72
     2
  0
VERTEX
  5
C1B
  8
0
 10
32.04644660941
 20
10.7593124211
 30
0.0
 70
   192
  0
VERTEX
  5
C1C
  8
0
 10
32.04644660941
 20
10.7593124211
 30
-1900.0
 70
   192
  0
VERTEX
  5
C1D
  8
0
 10
32.04644660941
 20
12.25930183149
 30
-1900.0
 70
   192
  0
VERTEX
  5
C1E
  8
0
 10
32.04644660941
 20
12.25930183149
 30
0.0
 70
   192
  0
VERTEX
  5
C1F
  8
0
 10
0.0
 20
0.0
 30
0.0
 70
   128
 71
     3
 72
     4
 73
    -1
  0
VERTEX
  5
C20
  8
0
 10
0.0
 20
0.0
 30
0.0
 70
   128
 71
     2
 72
    -3
 73
     1
  0
SEQEND
  5
1052
  8
0
  0
POLYLINE
  5
C21
  8
0
 66
     1
 10
0.0
 20
0.0
 30
0.0
 70
    64
 71
     8
 72
     6
  0
VERTEX
  5
C22
  8
0
 10
39.89644660940009
 20
-14.2004952000355
 30
0.0
 70
   192
  0
VERTEX
  5
C23
  8
0
 10
39.89644660940009
 20
-14.2004952000355
 30
-1900.0
 70
   192
  0
VERTEX
  5
C24
  8
0
 10
40.0062542305355
 20
-14.0906875789001
 30
-1900.0
 70
   192
  0
VERTEX
  5
C25
  8
0
 10
40.0062542305355
 20
-14.0906875789001
 30
0.0
 70
   192
  0
VERTEX
  5
C26
  8
0
 10
39.7464466094
 20
-14.2406875789002
 30
0.0
 70
   192
  0
VERTEX
  5
C27
  8
0
 10
39.7464466094
 20
-14.2406875789002
 30
-1900.0
 70
   192
  0
VERTEX
  5
C28
  8
0
 10
40.04644660940019
 20
-13.9406875789
 30
-1900.0
 70
   192
  0
VERTEX
  5
C29
  8
0
 10
40.0464466094
 20
-13.9406875789
 30
0.0
 70
   192
  0
VERTEX
  5
C2A
  8
0
 10
0.0
 20
0.0
 30
0.0
 70
   128
 71
     1
 72
     2
 73
    -3
  0
VERTEX
  5
C2B
  8
0
 10
0.0
 20
0.0
 30
0.0
 70
   128
 71
    -1
 72
     3
 73
     4
  0
VERTEX
  5
C2C
  8
0
 10
0.0
 20
0.0
 30
0.0
 70
   128
 71
     5
 72
     6
 73
    -2
  0
VERTEX
  5
C2D
  8
0
 10
0.0
 20
0.0
 30
0.0
 70
   128
 71
    -5
 72
     2
 73
     1
  0
VERTEX
  5
C2E
  8
0
 10
0.0
 20
0.0
 30
0.0
 70
   128
 71
     4
 72
     3
 73
    -7
  0
VERTEX
  5
C2F
  8
0
 10
0.0
 20
0.0
 30
0.0
 70
   128
 71
    -4
 72
     7
 73
     8
  0
SEQEND
  5
1053
  8
0
  0
POLYLINE
  5
C30
  8
0
 66
     1
 10
0.0
 20
0.0
 30
0.0
 70
    64
 71
     4
 72
     2
  0
VERTEX
  5
C31
  8
0
 10
29.818262809383
 20
-13.876523643
 30
0.0000000000002274
 70
   192
  0
VERTEX
  5
C32
  8
0
 10
29.818262809383
 20
-13.876523643
 30
-1900.0
 70
   192
  0
VERTEX
  5
C33
  8
0
 10
29.81966991410936
 20
-13.1406875789
 30
-1900.0
 70
   192
  0
VERTEX
  5
C34
  8
0
 10
29.81966991411
 20
-13.1406875789
 30
0.0000000000002274
 70
   192
  0
VERTEX
  5
C35
  8
0
 10
0.0
 20
0.0
 30
0.0
 70
   128
 71
     3
 72
     4
 73
    -1
  0
VERTEX
  5
C36
  8
0
 10
0.0
 20
0.0
 30
0.0
 70
   128
 71
     2
 72
    -3
 73
     1
  0
SEQEND
  5
1054
  8
0
  0
POLYLINE
  5
C37
  8
0
 66
     1
 10
0.0
 20
0.0
 30
0.0
 70
    64
 71
     8
 72
     6
  0
VERTEX
  5
C38
  8
0
 10
38.4964466094101
 20
-13.1808799577645
 30
-1900.0
 70
   192
  0
VERTEX
  5
C39
  8
0
 10
38.60625423054551
 20
-13.2906875788999
 30
-1900.0
 70
   192
  0
VERTEX
  5
C3A
  8
0
 10
38.6062542305455
 20
-13.2906875788999
 30
0.0
 70
   192
  0
VERTEX
  5
C3B
  8
0
 10
38.4964466094101
 20
-13.1808799577645
 30
0.0
 70
   192
  0
VERTEX
  5
C3C
  8
0
 10
38.6464466094102
 20
-13.4406875789
 30
-1900.0
 70
   192
  0
VERTEX
  5
C3D
  8
0
 10
38.6464466094102
 20
-13.4406875789
 30
0.0
 70
   192
  0
VERTEX
  5
C3E
  8
0
 10
38.34644660941
 20
-13.1406875789
 30
-1900.0
 70
   192
  0
VERTEX
  5
C3F
  8
0
 10
38.34644660941
 20
-13.1406875788998
 30
0.0
 70
   192
  0
VERTEX
  5
C40
  8
0
 10
0.0
 20
0.0
 30
0.0
 70
   128
 71
     1
 72
     2
 73
    -3
  0
VERTEX
  5
C41
  8
0
 10
0.0
 20
0.0
 30
0.0
 70
   128
 71
     4
 72
    -1
 73
     3
  0
VERTEX
  5
C42
  8
0
 10
0.0
 20
0.0
 30
0.0
 70
   128
 71
     2
 72
     5
 73
    -6
  0
VERTEX
  5
C43
  8
0
 10
0.0
 20
0.0
 30
0.0
 70
   128
 71
     3
 72
    -2
 73
     6
  0
VERTEX
  5
C44
  8
0
 10
0.0
 20
0.0
 30
0.0
 70
   128
 71
     7
 72
     1
 73
    -4
  0
VERTEX
  5
C45
  8
0
 10
0.0
 20
0.0
 30
0.0
 70
   128
 71
     8
 72
    -7
 73
     4
  0
SEQEND
  5
1055
  8
0
  0
POLYLINE
  5
C46
  8
0
 66
     1
 10
0.0
 20
0.0
 30
0.0
 70
    64
 71
    10
 72
     8
  0
VERTEX
  5
C47
  8
0
 10
20.2464466094068
 20
-13.1406875789
 30
-1900.0
 70
   192
  0
VERTEX
  5
C48
  8
0
 10
19.846446609407
 20
-13.1406875789
 30
-1900.0
 70
   192
  0
VERTEX
  5
C49
  8
0
 10
19.8464466094072
 20
-13.1406875789
 30
0.0
 70
   192
  0
VERTEX
  5
C4A
  8
0
 10
20.2464466094068
 20
-13.1406875789
 30
0.0
 70
   192
  0
VERTEX
  5
C4B
  8
0
 10
20.046446609407
 20
-12.9406875789002
 30
0.0
 70
   192
  0
VERTEX
  5
C4C
  8
0
 10
20.046446609407
 20
-12.9406875789002
 30
-1900.0
 70
   192
  0
VERTEX
  5
C4D
  8
0
 10
20.18786796564417
 20
-12.99926622266283
 30
0.0
 70
   192
  0
VERTEX
  5
C4E
  8
0
 10
20.18786796564417
 20
-12.99926622266283
 30
-1900.0
 70
   192
  0
VERTEX
  5
C4F
  8
0
 10
19.90502525316983
 20
-12.99926622266283
 30
0.0
 70
   192
  0
VERTEX
  5
C50
  8
0
 10
19.90502525316983
 20
-12.99926622266283
 30
-1900.0
 70
   192
  0
VERTEX
  5
C51
  8
0
 10
0.0
 20
0.0
 30
0.0
 70
   128
 71
     4
 72
     7
 73
    -8
  0
VERTEX
  5
C52
  8
0
 10
0.0
 20
0.0
 30
0.0
 70
   128
 71
     1
 72
    -4
 73
     8
  0
VERTEX
  5
C53
  8
0
 10
0.0
 20
0.0
 30
0.0
 70
   128
 71
     7
 72
     5
 73
    -6
  0
VERTEX
  5
C54
  8
0
 10
0.0
 20
0.0
 30
0.0
 70
   128
 71
     8
 72
    -7
 73
     6
  0
VERTEX
  5
C55
  8
0
 10
0.0
 20
0.0
 30
0.0
 70
   128
 71
     5
 72
     9
 73
   -10
  0
VERTEX
  5
C56
  8
0
 10
0.0
 20
0.0
 30
0.0
 70
   128
 71
     6
 72
    -5
 73
    10
  0
VERTEX
  5
C57
  8
0
 10
0.0
 20
0.0
 30
0.0
 70
   128
 71
     9
 72
     3
 73
    -2
  0
VERTEX
  5
C58
  8
0
 10
0.0
 20
0.0
 30
0.0
 70
   128
 71
    10
 72
    -9
 73
     2
  0
SEQEND
  5
1056
  8
0
  0
POLYLINE
  5
C59
  8
0
 66
     1
 10
0.0
 20
0.0
 30
0.0
 70
    64
 71
     4
 72
     2
  0
VERTEX
  5
C5A
  8
0
 10
28.81966991411
 20
-13.1406875789
 30
0.0
 70
   192
  0
VERTEX
  5
C5B
  8
0
 10
28.81966991411
 20
-13.1406875789
 30
-1900.0
 70
   192
  0
VERTEX
  5
C5C
  8
0
 10
28.81966991411
 20
-13.87594996814
 30
-1900.0
 70
   192
  0
VERTEX
  5
C5D
  8
0
 10
28.81966991411
 20
-13.87594996814
 30
0.0
 70
   192
  0
VERTEX
  5
C5E
  8
0
 10
0.0
 20
0.0
 30
0.0
 70
   128
 71
     3
 72
     4
 73
    -1
  0
VERTEX
  5
C5F
  8
0
 10
0.0
 20
0.0
 30
0.0
 70
   128
 71
     2
 72
    -3
 73
     1
  0
SEQEND
  5
1057
  8
0
  0
POLYLINE
  5
C60
  8
0
 66
     1
 10
0.0
 20
0.0
 30
0.0
 70
    64
 71
     4
 72
     2
  0
VERTEX
  5
C61
  8
0
 10
11.2732233047
 20
-13.9406875789
 30
0.0
 70
   192
  0
VERTEX
  5
C62
  8
0
 10
11.2732233047
 20
-13.9406875789
 30
-1900.0
 70
   192
  0
VERTEX
  5
C63
  8
0
 10
11.2732233047
 20
-13.1406875789
 30
-1900.0
 70
   192
  0
VERTEX
  5
C64
  8
0
 10
11.2732233047
 20
-13.1406875789
 30
0.0
 70
   192
  0
VERTEX
  5
C65
  8
0
 10
0.0
 20
0.0
 30
0.0
 70
   128
 71
     3
 72
     4
 73
    -1
  0
VERTEX
  5
C66
  8
0
 10
0.0
 20
0.0
 30
0.0
 70
   128
 71
     2
 72
    -3
 73
     1
  0
SEQEND
  5
1058
  8
0
  0
POLYLINE
  5
C67
  8
0
 66
     1
 10
0.0
 20
0.0
 30
0.0
 70
    64
 71
     8
 72
     6
  0
VERTEX
  5
C68
  8
0
 10
1.440192378864495
 20
-13.2906875788999
 30
-1900.0
 70
   192
  0
VERTEX
  5
C69
  8
0
 10
1.5499999999999
 20
-13.1808799577645
 30
-1900.0
 70
   192
  0
VERTEX
  5
C6A
  8
0
 10
1.549999999999899
 20
-13.1808799577645
 30
0.0
 70
   192
  0
VERTEX
  5
C6B
  8
0
 10
1.440192378864495
 20
-13.2906875788999
 30
0.0
 70
   192
  0
VERTEX
  5
C6C
  8
0
 10
1.699999999999999
 20
-13.1406875788998
 30
-1900.0
 70
   192
  0
VERTEX
  5
C6D
  8
0
 10
1.699999999999999
 20
-13.1406875788998
 30
0.0
 70
   192
  0
VERTEX
  5
C6E
  8
0
 10
1.3999999999998
 20
-13.4406875789
 30
-1900.0
 70
   192
  0
VERTEX
  5
C6F
  8
0
 10
1.3999999999998
 20
-13.4406875789
 30
0.0
 70
   192
  0
VERTEX
  5
C70
  8
0
 10
0.0
 20
0.0
 30
0.0
 70
   128
 71
     1
 72
     2
 73
    -3
  0
VERTEX
  5
C71
  8
0
 10
0.0
 20
0.0
 30
0.0
 70
   128
 71
     4
 72
    -1
 73
     3
  0
VERTEX
  5
C72
  8
0
 10
0.0
 20
0.0
 30
0.0
 70
   128
 71
     2
 72
     5
 73
    -6
  0
VERTEX
  5
C73
  8
0
 10
0.0
 20
0.0
 30
0.0
 70
   128
 71
     3
 72
    -2
 73
     6
  0
VERTEX
  5
C74
  8
0
 10
0.0
 20
0.0
 30
0.0
 70
   128
 71
     7
 72
     1
 73
    -4
  0
VERTEX
  5
C75
  8
0
 10
0.0
 20
0.0
 30
0.0
 70
   128
 71
     8
 72
    -7
 73
     4
  0
SEQEND
  5
1059
  8
0
  0
POLYLINE
  5
C76
  8
0
 66
     1
 10
0.0
 20
0.0
 30
0.0
 70
    64
 71
     4
 72
     2
  0
VERTEX
  5
C77
  8
0
 10
10.2732233047
 20
-13.1406875789
 30
0.0
 70
   192
  0
VERTEX
  5
C78
  8
0
 10
10.2732233047
 20
-13.1406875789
 30
-1900.0
 70
   192
  0
VERTEX
  5
C79
  8
0
 10
10.2732233047
 20
-13.9406875789
 30
-1900.0
 70
   192
  0
VERTEX
  5
C7A
  8
0
 10
10.2732233047
 20
-13.9406875789
 30
0.0
 70
   192
  0
VERTEX
  5
C7B
  8
0
 10
0.0
 20
0.0
 30
0.0
 70
   128
 71
     3
 72
     4
 73
    -1
  0
VERTEX
  5
C7C
  8
0
 10
0.0
 20
0.0
 30
0.0
 70
   128
 71
     2
 72
    -3
 73
     1
  0
SEQEND
  5
105A
  8
0
  0
POLYLINE
  5
C7D
  8
0
 66
     1
 10
0.0
 20
0.0
 30
0.0
 70
    64
 71
     8
 72
     6
  0
VERTEX
  5
C7E
  8
0
 10
0.1499999999999009
 20
10.7191200422355
 30
0.0
 70
   192
  0
VERTEX
  5
C7F
  8
0
 10
0.149999999999901
 20
10.7191200422355
 30
-1900.0
 70
   192
  0
VERTEX
  5
C80
  8
0
 10
0.0401923788644964
 20
10.6093124211001
 30
-1900.0
 70
   192
  0
VERTEX
  5
C81
  8
0
 10
0.0401923788644963
 20
10.6093124211001
 30
0.0
 70
   192
  0
VERTEX
  5
C82
  8
0
 10
0.3000000000000007
 20
10.7593124211002
 30
0.0
 70
   192
  0
VERTEX
  5
C83
  8
0
 10
0.3000000000000007
 20
10.7593124211
 30
-1900.0
 70
   192
  0
VERTEX
  5
C84
  8
0
 10
-0.0000000000001987
 20
10.4593124211
 30
-1900.0
 70
   192
  0
VERTEX
  5
C85
  8
0
 10
0.0
 20
10.4593124211
 30
0.0
 70
   192
  0
VERTEX
  5
C86
  8
0
 10
0.0
 20
0.0
 30
0.0
 70
   128
 71
     1
 72
     2
 73
    -3
  0
VERTEX
  5
C87
  8
0
 10
0.0
 20
0.0
 30
0.0
 70
   128
 71
    -1
 72
     3
 73
     4
  0
VERTEX
  5
C88
  8
0
 10
0.0
 20
0.0
 30
0.0
 70
   128
 71
     5
 72
     6
 73
    -2
  0
VERTEX
  5
C89
  8
0
 10
0.0
 20
0.0
 30
0.0
 70
   128
 71
    -5
 72
     2
 73
     1
  0
VERTEX
  5
C8A
  8
0
 10
0.0
 20
0.0
 30
0.0
 70
   128
 71
     4
 72
     3
 73
    -7
  0
VERTEX
  5
C8B
  8
0
 10
0.0
 20
0.0
 30
0.0
 70
   128
 71
    -4
 72
     7
 73
     8
  0
SEQEND
  5
105B
  8
0
  0
POLYLINE
  5
C8C
  8
0
 66
     1
 10
0.0
 20
0.0
 30
0.0
 70
    64
 71
     8
 72
     6
  0
VERTEX
  5
C8D
  8
0
 10
0.0401923788644964
 20
-14.0906875789001
 30
0.0
 70
   192
  0
VERTEX
  5
C8E
  8
0
 10
0.0401923788644963
 20
-14.0906875789001
 30
-1900.0
 70
   192
  0
VERTEX
  5
C8F
  8
0
 10
0.1499999999999009
 20
-14.2004952000355
 30
-1900.0
 70
   192
  0
VERTEX
  5
C90
  8
0
 10
0.149999999999901
 20
-14.2004952000355
 30
0.0
 70
   192
  0
VERTEX
  5
C91
  8
0
 10
-0.0000000000001987
 20
-13.9406875789
 30
0.0
 70
   192
  0
VERTEX
  5
C92
  8
0
 10
0.0
 20
-13.9406875789
 30
-1900.0
 70
   192
  0
VERTEX
  5
C93
  8
0
 10
0.3000000000000007
 20
-14.2406875789002
 30
-1900.0
 70
   192
  0
VERTEX
  5
C94
  8
0
 10
0.3000000000000007
 20
-14.2406875789002
 30
0.0
 70
   192
  0
VERTEX
  5
C95
  8
0
 10
0.0
 20
0.0
 30
0.0
 70
   128
 71
     1
 72
     2
 73
    -3
  0
VERTEX
  5
C96
  8
0
 10
0.0
 20
0.0
 30
0.0
 70
   128
 71
    -1
 72
     3
 73
     4
  0
VERTEX
  5
C97
  8
0
 10
0.0
 20
0.0
 30
0.0
 70
   128
 71
     5
 72
     6
 73
    -2
  0
VERTEX
  5
C98
  8
0
 10
0.0
 20
0.0
 30
0.0
 70
   128
 71
    -5
 72
     2
 73
     1
  0
VERTEX
  5
C99
  8
0
 10
0.0
 20
0.0
 30
0.0
 70
   128
 71
     4
 72
     3
 73
    -7
  0
VERTEX
  5
C9A
  8
0
 10
0.0
 20
0.0
 30
0.0
 70
   128
 71
    -4
 72
     7
 73
     8
  0
SEQEND
  5
105C
  8
0
  0
POLYLINE
  5
C9B
  8
0
 66
     1
 10
0.0
 20
0.0
 30
0.0
 70
    64
 71
     8
 72
     6
  0
VERTEX
  5
C9C
  8
0
 10
2.906439455009868
 20
17.00700639858193
 30
0.0
 70
   192
  0
VERTEX
  5
C9D
  8
0
 10
2.906439455009869
 20
17.00700639858193
 30
-1900.0
 70
   192
  0
VERTEX
  5
C9E
  8
0
 10
2.789539838026995
 20
16.8965960587419
 30
-1900.0
 70
   192
  0
VERTEX
  5
C9F
  8
0
 10
2.789539838026995
 20
16.8965960587419
 30
0.0
 70
   192
  0
VERTEX
  5
CA0
  8
0
 10
3.063561502530681
 20
17.04119156754744
 30
0.0
 70
   192
  0
VERTEX
  5
CA1
  8
0
 10
3.063561502529996
 20
17.04119156754996
 30
-1900.0
 70
   192
  0
VERTEX
  5
CA2
  8
0
 10
2.746446565369801
 20
16.74168016722
 30
-1900.0
 70
   192
  0
VERTEX
  5
CA3
  8
0
 10
2.74644656537
 20
16.74168016722
 30
0.0
 70
   192
  0
VERTEX
  5
CA4
  8
0
 10
0.0
 20
0.0
 30
0.0
 70
   128
 71
     1
 72
     2
 73
    -3
  0
VERTEX
  5
CA5
  8
0
 10
0.0
 20
0.0
 30
0.0
 70
   128
 71
    -1
 72
     3
 73
     4
  0
VERTEX
  5
CA6
  8
0
 10
0.0
 20
0.0
 30
0.0
 70
   128
 71
     5
 72
     6
 73
    -2
  0
VERTEX
  5
CA7
  8
0
 10
0.0
 20
0.0
 30
0.0
 70
   128
 71
    -5
 72
     2
 73
     1
  0
VERTEX
  5
CA8
  8
0
 10
0.0
 20
0.0
 30
0.0
 70
   128
 71
     4
 72
     3
 73
    -7
  0
VERTEX
  5
CA9
  8
0
 10
0.0
 20
0.0
 30
0.0
 70
   128
 71
    -4
 72
     7
 73
     8
  0
SEQEND
  5
105D
  8
0
  0
POLYLINE
  5
CAA
  8
0
 66
     1
 10
0.0
 20
0.0
 30
0.0
 70
    64
 71
    12
 72
    10
  0
VERTEX
  5
CAB
  8
0
 10
6.046772298485552
 20
16.87072237921025
 30
-1900.0
 70
   192
  0
VERTEX
  5
CAC
  8
0
 10
6.046772298485552
 20
16.87072237921025
 30
0.0
 70
   192
  0
VERTEX
  5
CAD
  8
0
 10
6.078200085015657
 20
16.75117768177773
 30
0.0
 70
   192
  0
VERTEX
  5
CAE
  8
0
 10
6.078200085015657
 20
16.75117768177773
 30
-1900.0
 70
   192
  0
VERTEX
  5
CAF
  8
0
 10
6.446120832254985
 20
16.84790246299912
 30
0.0
 70
   192
  0
VERTEX
  5
CB0
  8
0
 10
6.446120832259865
 20
16.84790246299768
 30
-1900.0
 70
   192
  0
VERTEX
  5
CB1
  8
0
 10
6.401279835517149
 20
16.73271598175252
 30
-1900.0
 70
   192
  0
VERTEX
  5
CB2
  8
0
 10
6.401279835517149
 20
16.73271598175252
 30
0.0
 70
   192
  0
VERTEX
  5
CB3
  8
0
 10
6.29729779217069
 20
16.66588503748335
 30
-1900.0
 70
   192
  0
VERTEX
  5
CB4
  8
0
 10
6.173892308555436
 20
16.6729367794029
 30
-1900.0
 70
   192
  0
VERTEX
  5
CB5
  8
0
 10
6.173892308555436
 20
16.6729367794029
 30
0.0
 70
   192
  0
VERTEX
  5
CB6
  8
0
 10
6.29729779217069
 20
16.66588503748335
 30
0.0
 70
   192
  0
VERTEX
  5
CB7
  8
0
 10
0.0
 20
0.0
 30
0.0
 70
   128
 71
     1
 72
     2
 73
    -3
  0
VERTEX
  5
CB8
  8
0
 10
0.0
 20
0.0
 30
0.0
 70
   128
 71
     4
 72
    -1
 73
     3
  0
VERTEX
  5
CB9
  8
0
 10
0.0
 20
0.0
 30
0.0
 70
   128
 71
     5
 72
     6
 73
    -7
  0
VERTEX
  5
CBA
  8
0
 10
0.0
 20
0.0
 30
0.0
 70
   128
 71
     8
 72
    -5
 73
     7
  0
VERTEX
  5
CBB
  8
0
 10
0.0
 20
0.0
 30
0.0
 70
   128
 71
     9
 72
    10
 73
   -11
  0
VERTEX
  5
CBC
  8
0
 10
0.0
 20
0.0
 30
0.0
 70
   128
 71
    12
 72
    -9
 73
    11
  0
VERTEX
  5
CBD
  8
0
 10
0.0
 20
0.0
 30
0.0
 70
   128
 71
    10
 72
     4
 73
    -3
  0
VERTEX
  5
CBE
  8
0
 10
0.0
 20
0.0
 30
0.0
 70
   128
 71
    11
 72
   -10
 73
     3
  0
VERTEX
  5
CBF
  8
0
 10
0.0
 20
0.0
 30
0.0
 70
   128
 71
     7
 72
     9
 73
   -12
  0
VERTEX
  5
CC0
  8
0
 10
0.0
 20
0.0
 30
0.0
 70
   128
 71
     8
 72
    -7
 73
    12
  0
SEQEND
  5
105E
  8
0
  0
POLYLINE
  5
CC1
  8
0
 66
     1
 10
0.0
 20
0.0
 30
0.0
 70
    64
 71
     8
 72
     6
  0
VERTEX
  5
CC2
  8
0
 10
9.709061026549403
 20
16.52099568803118
 30
0.0
 70
   192
  0
VERTEX
  5
CC3
  8
0
 10
9.709061026549403
 20
16.52099568803118
 30
-1900.0
 70
   192
  0
VERTEX
  5
CC4
  8
0
 10
9.606222266839819
 20
16.62987871147325
 30
-1900.0
 70
   192
  0
VERTEX
  5
CC5
  8
0
 10
9.606222266839819
 20
16.62987871147325
 30
0.0
 70
   192
  0
VERTEX
  5
CC6
  8
0
 10
9.7464465653702
 20
16.37596588151
 30
0.0
 70
   192
  0
VERTEX
  5
CC7
  8
0
 10
9.74644656537
 20
16.37596588151
 30
-1900.0
 70
   192
  0
VERTEX
  5
CC8
  8
0
 10
9.463561502530794
 20
16.67547728183744
 30
-1900.0
 70
   192
  0
VERTEX
  5
CC9
  8
0
 10
9.46356150253
 20
16.67547728184
 30
0.0
 70
   192
  0
VERTEX
  5
CCA
  8
0
 10
0.0
 20
0.0
 30
0.0
 70
   128
 71
     1
 72
     2
 73
    -3
  0
VERTEX
  5
CCB
  8
0
 10
0.0
 20
0.0
 30
0.0
 70
   128
 71
    -1
 72
     3
 73
     4
  0
VERTEX
  5
CCC
  8
0
 10
0.0
 20
0.0
 30
0.0
 70
   128
 71
     5
 72
     6
 73
    -2
  0
VERTEX
  5
CCD
  8
0
 10
0.0
 20
0.0
 30
0.0
 70
   128
 71
    -5
 72
     2
 73
     1
  0
VERTEX
  5
CCE
  8
0
 10
0.0
 20
0.0
 30
0.0
 70
   128
 71
     4
 72
     3
 73
    -7
  0
VERTEX
  5
CCF
  8
0
 10
0.0
 20
0.0
 30
0.0
 70
   128
 71
    -4
 72
     7
 73
     8
  0
SEQEND
  5
105F
  8
0
  0
POLYLINE
  5
CD0
  8
0
 66
     1
 10
0.0
 20
0.0
 30
0.0
 70
    64
 71
     4
 72
     2
  0
VERTEX
  5
CD1
  8
0
 10
33.04644660941
 20
13.55930183149
 30
0.0
 70
   192
  0
VERTEX
  5
CD2
  8
0
 10
33.04644660941
 20
13.55930183149
 30
-1900.0
 70
   192
  0
VERTEX
  5
CD3
  8
0
 10
31.346446609408
 20
13.55930183149
 30
-1900.0
 70
   192
  0
VERTEX
  5
CD4
  8
0
 10
31.346446609408
 20
13.5593018314902
 30
0.0
 70
   192
  0
VERTEX
  5
CD5
  8
0
 10
0.0
 20
0.0
 30
0.0
 70
   128
 71
     3
 72
     4
 73
    -1
  0
VERTEX
  5
CD6
  8
0
 10
0.0
 20
0.0
 30
0.0
 70
   128
 71
     2
 72
    -3
 73
     1
  0
SEQEND
  5
1060
  8
0
  0
POLYLINE
  5
CD7
  8
0
 66
     1
 10
0.0
 20
0.0
 30
0.0
 70
    64
 71
     8
 72
     6
  0
VERTEX
  5
CD8
  8
0
 10
32.0866389882745
 20
12.4093018314901
 30
-1900.0
 70
   192
  0
VERTEX
  5
CD9
  8
0
 10
32.1964466094099
 20
12.51910945262551
 30
-1900.0
 70
   192
  0
VERTEX
  5
CDA
  8
0
 10
32.1964466094099
 20
12.51910945262551
 30
0.0
 70
   192
  0
VERTEX
  5
CDB
  8
0
 10
32.08663898827449
 20
12.4093018314901
 30
0.0
 70
   192
  0
VERTEX
  5
CDC
  8
0
 10
32.34644660941
 20
12.5593018314902
 30
-1900.0
 70
   192
  0
VERTEX
  5
CDD
  8
0
 10
32.34644660941
 20
12.5593018314902
 30
0.0
 70
   192
  0
VERTEX
  5
CDE
  8
0
 10
32.04644660941
 20
12.25930183149
 30
-1900.0
 70
   192
  0
VERTEX
  5
CDF
  8
0
 10
32.04644660940981
 20
12.25930183149
 30
0.0
 70
   192
  0
VERTEX
  5
CE0
  8
0
 10
0.0
 20
0.0
 30
0.0
 70
   128
 71
     1
 72
     2
 73
    -3
  0
VERTEX
  5
CE1
  8
0
 10
0.0
 20
0.0
 30
0.0
 70
   128
 71
     4
 72
    -1
 73
     3
  0
VERTEX
  5
CE2
  8
0
 10
0.0
 20
0.0
 30
0.0
 70
   128
 71
     2
 72
     5
 73
    -6
  0
VERTEX
  5
CE3
  8
0
 10
0.0
 20
0.0
 30
0.0
 70
   128
 71
     3
 72
    -2
 73
     6
  0
VERTEX
  5
CE4
  8
0
 10
0.0
 20
0.0
 30
0.0
 70
   128
 71
     7
 72
     1
 73
    -4
  0
VERTEX
  5
CE5
  8
0
 10
0.0
 20
0.0
 30
0.0
 70
   128
 71
     8
 72
    -7
 73
     4
  0
SEQEND
  5
1061
  8
0
  0
POLYLINE
  5
CE6
  8
0
 66
     1
 10
0.0
 20
0.0
 30
0.0
 70
    64
 71
     4
 72
     2
  0
VERTEX
  5
CE7
  8
0
 10
38.94644660941
 20
-14.2406875789
 30
0.0
 70
   192
  0
VERTEX
  5
CE8
  8
0
 10
38.94644660941
 20
-14.2406875789
 30
-1900.0
 70
   192
  0
VERTEX
  5
CE9
  8
0
 10
39.7464466094
 20
-14.2406875789
 30
-1900.0
 70
   192
  0
VERTEX
  5
CEA
  8
0
 10
39.7464466094
 20
-14.2406875789002
 30
0.0
 70
   192
  0
VERTEX
  5
CEB
  8
0
 10
0.0
 20
0.0
 30
0.0
 70
   128
 71
     3
 72
     4
 73
    -1
  0
VERTEX
  5
CEC
  8
0
 10
0.0
 20
0.0
 30
0.0
 70
   128
 71
     2
 72
    -3
 73
     1
  0
SEQEND
  5
1062
  8
0
  0
POLYLINE
  5
CED
  8
0
 66
     1
 10
0.0
 20
0.0
 30
0.0
 70
    64
 71
     8
 72
     6
  0
VERTEX
  5
CEE
  8
0
 10
29.66809772166041
 20
-14.13585314902345
 30
0.0
 70
   192
  0
VERTEX
  5
CEF
  8
0
 10
29.66809772166041
 20
-14.13585314902345
 30
-1900.0
 70
   192
  0
VERTEX
  5
CF0
  8
0
 10
29.77787954288775
 20
-14.02628105769508
 30
-1900.0
 70
   192
  0
VERTEX
  5
CF1
  8
0
 10
29.77787954288775
 20
-14.02628105769508
 30
0.0
 70
   192
  0
VERTEX
  5
CF2
  8
0
 10
29.518263357889
 20
-14.1759499681402
 30
0.0
 70
   192
  0
VERTEX
  5
CF3
  8
0
 10
29.518263357889
 20
-14.1759499681402
 30
-1900.0
 70
   192
  0
VERTEX
  5
CF4
  8
0
 10
29.81826280938396
 20
-13.87652364299664
 30
-1900.0
 70
   192
  0
VERTEX
  5
CF5
  8
0
 10
29.818262809383
 20
-13.876523643
 30
0.0000000000002274
 70
   192
  0
VERTEX
  5
CF6
  8
0
 10
0.0
 20
0.0
 30
0.0
 70
   128
 71
     1
 72
     2
 73
    -3
  0
VERTEX
  5
CF7
  8
0
 10
0.0
 20
0.0
 30
0.0
 70
   128
 71
    -1
 72
     3
 73
     4
  0
VERTEX
  5
CF8
  8
0
 10
0.0
 20
0.0
 30
0.0
 70
   128
 71
     5
 72
     6
 73
    -2
  0
VERTEX
  5
CF9
  8
0
 10
0.0
 20
0.0
 30
0.0
 70
   128
 71
    -5
 72
     2
 73
     1
  0
VERTEX
  5
CFA
  8
0
 10
0.0
 20
0.0
 30
0.0
 70
   128
 71
     4
 72
     3
 73
    -7
  0
VERTEX
  5
CFB
  8
0
 10
0.0
 20
0.0
 30
0.0
 70
   128
 71
    -4
 72
     7
 73
     8
  0
SEQEND
  5
1063
  8
0
  0
POLYLINE
  5
CFC
  8
0
 66
     1
 10
0.0
 20
0.0
 30
0.0
 70
    64
 71
     4
 72
     2
  0
VERTEX
  5
CFD
  8
0
 10
38.64644660941021
 20
-13.4406875789
 30
0.0
 70
   192
  0
VERTEX
  5
CFE
  8
0
 10
38.64644660941021
 20
-13.4406875789
 30
-1900.0
 70
   192
  0
VERTEX
  5
CFF
  8
0
 10
38.64644660941
 20
-13.9406875789
 30
-1900.0
 70
   192
  0
VERTEX
  5
D00
  8
0
 10
38.64644660941
 20
-13.9406875789
 30
0.0
 70
   192
  0
VERTEX
  5
D01
  8
0
 10
0.0
 20
0.0
 30
0.0
 70
   128
 71
     3
 72
     4
 73
    -1
  0
VERTEX
  5
D02
  8
0
 10
0.0
 20
0.0
 30
0.0
 70
   128
 71
     2
 72
    -3
 73
     1
  0
SEQEND
  5
1064
  8
0
  0
POLYLINE
  5
D03
  8
0
 66
     1
 10
0.0
 20
0.0
 30
0.0
 70
    64
 71
     8
 72
     6
  0
VERTEX
  5
D04
  8
0
 10
28.85986229297449
 20
-14.0259499681401
 30
0.0
 70
   192
  0
VERTEX
  5
D05
  8
0
 10
28.85986229297449
 20
-14.0259499681401
 30
-1900.0
 70
   192
  0
VERTEX
  5
D06
  8
0
 10
28.9696699141099
 20
-14.1357575892755
 30
-1900.0
 70
   192
  0
VERTEX
  5
D07
  8
0
 10
28.9696699141099
 20
-14.1357575892755
 30
0.0
 70
   192
  0
VERTEX
  5
D08
  8
0
 10
28.8196699141098
 20
-13.87594996814
 30
0.0
 70
   192
  0
VERTEX
  5
D09
  8
0
 10
28.81966991411
 20
-13.87594996814
 30
-1900.0
 70
   192
  0
VERTEX
  5
D0A
  8
0
 10
29.11966991411
 20
-14.1759499681402
 30
-1900.0
 70
   192
  0
VERTEX
  5
D0B
  8
0
 10
29.11966991411
 20
-14.1759499681402
 30
0.0
 70
   192
  0
VERTEX
  5
D0C
  8
0
 10
0.0
 20
0.0
 30
0.0
 70
   128
 71
     1
 72
     2
 73
    -3
  0
VERTEX
  5
D0D
  8
0
 10
0.0
 20
0.0
 30
0.0
 70
   128
 71
    -1
 72
     3
 73
     4
  0
VERTEX
  5
D0E
  8
0
 10
0.0
 20
0.0
 30
0.0
 70
   128
 71
     5
 72
     6
 73
    -2
  0
VERTEX
  5
D0F
  8
0
 10
0.0
 20
0.0
 30
0.0
 70
   128
 71
    -5
 72
     2
 73
     1
  0
VERTEX
  5
D10
  8
0
 10
0.0
 20
0.0
 30
0.0
 70
   128
 71
     4
 72
     3
 73
    -7
  0
VERTEX
  5
D11
  8
0
 10
0.0
 20
0.0
 30
0.0
 70
   128
 71
    -4
 72
     7
 73
     8
  0
SEQEND
  5
1065
  8
0
  0
POLYLINE
  5
D12
  8
0
 66
     1
 10
0.0
 20
0.0
 30
0.0
 70
    64
 71
     8
 72
     6
  0
VERTEX
  5
D13
  8
0
 10
11.1232233047001
 20
-14.2004952000355
 30
0.0
 70
   192
  0
VERTEX
  5
D14
  8
0
 10
11.1232233047001
 20
-14.2004952000355
 30
-1900.0
 70
   192
  0
VERTEX
  5
D15
  8
0
 10
11.2330309258355
 20
-14.0906875789001
 30
-1900.0
 70
   192
  0
VERTEX
  5
D16
  8
0
 10
11.2330309258355
 20
-14.0906875789001
 30
0.0
 70
   192
  0
VERTEX
  5
D17
  8
0
 10
10.9732233047
 20
-14.2406875789002
 30
0.0
 70
   192
  0
VERTEX
  5
D18
  8
0
 10
10.9732233047
 20
-14.2406875789002
 30
-1900.0
 70
   192
  0
VERTEX
  5
D19
  8
0
 10
11.2732233047002
 20
-13.9406875789
 30
-1900.0
 70
   192
  0
VERTEX
  5
D1A
  8
0
 10
11.2732233047
 20
-13.9406875789
 30
0.0
 70
   192
  0
VERTEX
  5
D1B
  8
0
 10
0.0
 20
0.0
 30
0.0
 70
   128
 71
     1
 72
     2
 73
    -3
  0
VERTEX
  5
D1C
  8
0
 10
0.0
 20
0.0
 30
0.0
 70
   128
 71
    -1
 72
     3
 73
     4
  0
VERTEX
  5
D1D
  8
0
 10
0.0
 20
0.0
 30
0.0
 70
   128
 71
     5
 72
     6
 73
    -2
  0
VERTEX
  5
D1E
  8
0
 10
0.0
 20
0.0
 30
0.0
 70
   128
 71
    -5
 72
     2
 73
     1
  0
VERTEX
  5
D1F
  8
0
 10
0.0
 20
0.0
 30
0.0
 70
   128
 71
     4
 72
     3
 73
    -7
  0
VERTEX
  5
D20
  8
0
 10
0.0
 20
0.0
 30
0.0
 70
   128
 71
    -4
 72
     7
 73
     8
  0
SEQEND
  5
1066
  8
0
  0
POLYLINE
  5
D21
  8
0
 66
     1
 10
0.0
 20
0.0
 30
0.0
 70
    64
 71
     4
 72
     2
  0
VERTEX
  5
D22
  8
0
 10
1.399999999999999
 20
-13.9406875789
 30
0.0
 70
   192
  0
VERTEX
  5
D23
  8
0
 10
1.399999999999999
 20
-13.9406875789
 30
-1900.0
 70
   192
  0
VERTEX
  5
D24
  8
0
 10
1.399999999999999
 20
-13.4406875789
 30
-1900.0
 70
   192
  0
VERTEX
  5
D25
  8
0
 10
1.3999999999998
 20
-13.4406875789
 30
0.0
 70
   192
  0
VERTEX
  5
D26
  8
0
 10
0.0
 20
0.0
 30
0.0
 70
   128
 71
     3
 72
     4
 73
    -1
  0
VERTEX
  5
D27
  8
0
 10
0.0
 20
0.0
 30
0.0
 70
   128
 71
     2
 72
    -3
 73
     1
  0
SEQEND
  5
1067
  8
0
  0
POLYLINE
  5
D28
  8
0
 66
     1
 10
0.0
 20
0.0
 30
0.0
 70
    64
 71
     8
 72
     6
  0
VERTEX
  5
D29
  8
0
 10
10.3134156835645
 20
-14.0906875789001
 30
0.0
 70
   192
  0
VERTEX
  5
D2A
  8
0
 10
10.3134156835645
 20
-14.0906875789001
 30
-1900.0
 70
   192
  0
VERTEX
  5
D2B
  8
0
 10
10.4232233046999
 20
-14.2004952000355
 30
-1900.0
 70
   192
  0
VERTEX
  5
D2C
  8
0
 10
10.4232233046999
 20
-14.2004952000355
 30
0.0
 70
   192
  0
VERTEX
  5
D2D
  8
0
 10
10.2732233046998
 20
-13.9406875789
 30
0.0
 70
   192
  0
VERTEX
  5
D2E
  8
0
 10
10.2732233047
 20
-13.9406875789
 30
-1900.0
 70
   192
  0
VERTEX
  5
D2F
  8
0
 10
10.5732233047
 20
-14.2406875789002
 30
-1900.0
 70
   192
  0
VERTEX
  5
D30
  8
0
 10
10.5732233047
 20
-14.2406875789002
 30
0.0
 70
   192
  0
VERTEX
  5
D31
  8
0
 10
0.0
 20
0.0
 30
0.0
 70
   128
 71
     1
 72
     2
 73
    -3
  0
VERTEX
  5
D32
  8
0
 10
0.0
 20
0.0
 30
0.0
 70
   128
 71
    -1
 72
     3
 73
     4
  0
VERTEX
  5
D33
  8
0
 10
0.0
 20
0.0
 30
0.0
 70
   128
 71
     5
 72
     6
 73
    -2
  0
VERTEX
  5
D34
  8
0
 10
0.0
 20
0.0
 30
0.0
 70
   128
 71
    -5
 72
     2
 73
     1
  0
VERTEX
  5
D35
  8
0
 10
0.0
 20
0.0
 30
0.0
 70
   128
 71
     4
 72
     3
 73
    -7
  0
VERTEX
  5
D36
  8
0
 10
0.0
 20
0.0
 30
0.0
 70
   128
 71
    -4
 72
     7
 73
     8
  0
SEQEND
  5
1068
  8
0
  0
POLYLINE
  5
D37
  8
0
 66
     1
 10
0.0
 20
0.0
 30
0.0
 70
    64
 71
     4
 72
     2
  0
VERTEX
  5
D38
  8
0
 10
0.3000000000000007
 20
-14.2406875789002
 30
0.0
 70
   192
  0
VERTEX
  5
D39
  8
0
 10
0.3000000000000007
 20
-14.2406875789002
 30
-1900.0
 70
   192
  0
VERTEX
  5
D3A
  8
0
 10
1.100000000000001
 20
-14.2406875789
 30
-1900.0
 70
   192
  0
VERTEX
  5
D3B
  8
0
 10
1.100000000000001
 20
-14.2406875789
 30
0.0
 70
   192
  0
VERTEX
  5
D3C
  8
0
 10
0.0
 20
0.0
 30
0.0
 70
   128
 71
     3
 72
     4
 73
    -1
  0
VERTEX
  5
D3D
  8
0
 10
0.0
 20
0.0
 30
0.0
 70
   128
 71
     2
 72
    -3
 73
     1
  0
SEQEND
  5
1069
  8
0
  0
POLYLINE
  5
D3E
  8
0
 66
     1
 10
0.0
 20
0.0
 30
0.0
 70
    64
 71
     8
 72
     6
  0
VERTEX
  5
D3F
  8
0
 10
33.3062542305455
 20
13.4093018314901
 30
0.0
 70
   192
  0
VERTEX
  5
D40
  8
0
 10
33.30625423054551
 20
13.4093018314901
 30
-1900.0
 70
   192
  0
VERTEX
  5
D41
  8
0
 10
33.1964466094101
 20
13.5191094526255
 30
-1900.0
 70
   192
  0
VERTEX
  5
D42
  8
0
 10
33.1964466094101
 20
13.5191094526255
 30
0.0
 70
   192
  0
VERTEX
  5
D43
  8
0
 10
33.34644660941019
 20
13.25930183149
 30
0.0
 70
   192
  0
VERTEX
  5
D44
  8
0
 10
33.3464466094102
 20
13.25930183149
 30
-1900.0
 70
   192
  0
VERTEX
  5
D45
  8
0
 10
33.04644660941
 20
13.5593018314902
 30
-1900.0
 70
   192
  0
VERTEX
  5
D46
  8
0
 10
33.04644660941
 20
13.55930183149
 30
0.0
 70
   192
  0
VERTEX
  5
D47
  8
0
 10
0.0
 20
0.0
 30
0.0
 70
   128
 71
     1
 72
     2
 73
    -3
  0
VERTEX
  5
D48
  8
0
 10
0.0
 20
0.0
 30
0.0
 70
   128
 71
    -1
 72
     3
 73
     4
  0
VERTEX
  5
D49
  8
0
 10
0.0
 20
0.0
 30
0.0
 70
   128
 71
     5
 72
     6
 73
    -2
  0
VERTEX
  5
D4A
  8
0
 10
0.0
 20
0.0
 30
0.0
 70
   128
 71
    -5
 72
     2
 73
     1
  0
VERTEX
  5
D4B
  8
0
 10
0.0
 20
0.0
 30
0.0
 70
   128
 71
     4
 72
     3
 73
    -7
  0
VERTEX
  5
D4C
  8
0
 10
0.0
 20
0.0
 30
0.0
 70
   128
 71
    -4
 72
     7
 73
     8
  0
SEQEND
  5
106A
  8
0
  0
POLYLINE
  5
D4D
  8
0
 66
     1
 10
0.0
 20
0.0
 30
0.0
 70
    64
 71
     4
 72
     2
  0
VERTEX
  5
D4E
  8
0
 10
32.34644660941
 20
12.5593018314902
 30
0.0
 70
   192
  0
VERTEX
  5
D4F
  8
0
 10
32.34644660941
 20
12.5593018314902
 30
-1900.0
 70
   192
  0
VERTEX
  5
D50
  8
0
 10
33.04644660941
 20
12.55930183149
 30
-1900.0
 70
   192
  0
VERTEX
  5
D51
  8
0
 10
33.04644660941
 20
12.55930183149
 30
0.0
 70
   192
  0
VERTEX
  5
D52
  8
0
 10
0.0
 20
0.0
 30
0.0
 70
   128
 71
     3
 72
     4
 73
    -1
  0
VERTEX
  5
D53
  8
0
 10
0.0
 20
0.0
 30
0.0
 70
   128
 71
     2
 72
    -3
 73
     1
  0
SEQEND
  5
106B
  8
0
  0
POLYLINE
  5
D54
  8
0
 66
     1
 10
0.0
 20
0.0
 30
0.0
 70
    64
 71
     8
 72
     6
  0
VERTEX
  5
D55
  8
0
 10
38.6866389882745
 20
-14.0906875789001
 30
0.0
 70
   192
  0
VERTEX
  5
D56
  8
0
 10
38.6866389882745
 20
-14.0906875789001
 30
-1900.0
 70
   192
  0
VERTEX
  5
D57
  8
0
 10
38.79644660940991
 20
-14.2004952000355
 30
-1900.0
 70
   192
  0
VERTEX
  5
D58
  8
0
 10
38.79644660940991
 20
-14.2004952000355
 30
0.0
 70
   192
  0
VERTEX
  5
D59
  8
0
 10
38.64644660940981
 20
-13.9406875789
 30
0.0
 70
   192
  0
VERTEX
  5
D5A
  8
0
 10
38.64644660941
 20
-13.9406875789
 30
-1900.0
 70
   192
  0
VERTEX
  5
D5B
  8
0
 10
38.94644660941
 20
-14.2406875789002
 30
-1900.0
 70
   192
  0
VERTEX
  5
D5C
  8
0
 10
38.94644660941
 20
-14.2406875789
 30
0.0
 70
   192
  0
VERTEX
  5
D5D
  8
0
 10
0.0
 20
0.0
 30
0.0
 70
   128
 71
     1
 72
     2
 73
    -3
  0
VERTEX
  5
D5E
  8
0
 10
0.0
 20
0.0
 30
0.0
 70
   128
 71
    -1
 72
     3
 73
     4
  0
VERTEX
  5
D5F
  8
0
 10
0.0
 20
0.0
 30
0.0
 70
   128
 71
     5
 72
     6
 73
    -2
  0
VERTEX
  5
D60
  8
0
 10
0.0
 20
0.0
 30
0.0
 70
   128
 71
    -5
 72
     2
 73
     1
  0
VERTEX
  5
D61
  8
0
 10
0.0
 20
0.0
 30
0.0
 70
   128
 71
     4
 72
     3
 73
    -7
  0
VERTEX
  5
D62
  8
0
 10
0.0
 20
0.0
 30
0.0
 70
   128
 71
    -4
 72
     7
 73
     8
  0
SEQEND
  5
106C
  8
0
  0
POLYLINE
  5
D63
  8
0
 66
     1
 10
0.0
 20
0.0
 30
0.0
 70
    64
 71
     4
 72
     2
  0
VERTEX
  5
D64
  8
0
 10
29.11966991411
 20
-14.1759499681402
 30
0.0
 70
   192
  0
VERTEX
  5
D65
  8
0
 10
29.11966991411
 20
-14.1759499681402
 30
-1900.0
 70
   192
  0
VERTEX
  5
D66
  8
0
 10
29.518263357889
 20
-14.17594996814
 30
-1900.0
 70
   192
  0
VERTEX
  5
D67
  8
0
 10
29.518263357889
 20
-14.1759499681402
 30
0.0
 70
   192
  0
VERTEX
  5
D68
  8
0
 10
0.0
 20
0.0
 30
0.0
 70
   128
 71
     3
 72
     4
 73
    -1
  0
VERTEX
  5
D69
  8
0
 10
0.0
 20
0.0
 30
0.0
 70
   128
 71
     2
 72
    -3
 73
     1
  0
SEQEND
  5
106D
  8
0
  0
POLYLINE
  5
D6A
  8
0
 66
     1
 10
0.0
 20
0.0
 30
0.0
 70
    64
 71
     4
 72
     2
  0
VERTEX
  5
D6B
  8
0
 10
10.5732233047
 20
-14.2406875789002
 30
0.0
 70
   192
  0
VERTEX
  5
D6C
  8
0
 10
10.5732233047
 20
-14.2406875789002
 30
-1900.0
 70
   192
  0
VERTEX
  5
D6D
  8
0
 10
10.9732233047
 20
-14.2406875789
 30
-1900.0
 70
   192
  0
VERTEX
  5
D6E
  8
0
 10
10.9732233047
 20
-14.2406875789002
 30
0.0
 70
   192
  0
VERTEX
  5
D6F
  8
0
 10
0.0
 20
0.0
 30
0.0
 70
   128
 71
     3
 72
     4
 73
    -1
  0
VERTEX
  5
D70
  8
0
 10
0.0
 20
0.0
 30
0.0
 70
   128
 71
     2
 72
    -3
 73
     1
  0
SEQEND
  5
106E
  8
0
  0
POLYLINE
  5
D71
  8
0
 66
     1
 10
0.0
 20
0.0
 30
0.0
 70
    64
 71
     8
 72
     6
  0
VERTEX
  5
D72
  8
0
 10
1.250000000000101
 20
-14.2004952000355
 30
0.0
 70
   192
  0
VERTEX
  5
D73
  8
0
 10
1.250000000000101
 20
-14.2004952000355
 30
-1900.0
 70
   192
  0
VERTEX
  5
D74
  8
0
 10
1.359807621135506
 20
-14.0906875789001
 30
-1900.0
 70
   192
  0
VERTEX
  5
D75
  8
0
 10
1.359807621135506
 20
-14.0906875789001
 30
0.0
 70
   192
  0
VERTEX
  5
D76
  8
0
 10
1.100000000000001
 20
-14.2406875789002
 30
0.0
 70
   192
  0
VERTEX
  5
D77
  8
0
 10
1.100000000000001
 20
-14.2406875789
 30
-1900.0
 70
   192
  0
VERTEX
  5
D78
  8
0
 10
1.400000000000201
 20
-13.9406875789
 30
-1900.0
 70
   192
  0
VERTEX
  5
D79
  8
0
 10
1.399999999999999
 20
-13.9406875789
 30
0.0
 70
   192
  0
VERTEX
  5
D7A
  8
0
 10
0.0
 20
0.0
 30
0.0
 70
   128
 71
     1
 72
     2
 73
    -3
  0
VERTEX
  5
D7B
  8
0
 10
0.0
 20
0.0
 30
0.0
 70
   128
 71
    -1
 72
     3
 73
     4
  0
VERTEX
  5
D7C
  8
0
 10
0.0
 20
0.0
 30
0.0
 70
   128
 71
     5
 72
     6
 73
    -2
  0
VERTEX
  5
D7D
  8
0
 10
0.0
 20
0.0
 30
0.0
 70
   128
 71
    -5
 72
     2
 73
     1
  0
VERTEX
  5
D7E
  8
0
 10
0.0
 20
0.0
 30
0.0
 70
   128
 71
     4
 72
     3
 73
    -7
  0
VERTEX
  5
D7F
  8
0
 10
0.0
 20
0.0
 30
0.0
 70
   128
 71
    -4
 72
     7
 73
     8
  0
SEQEND
  5
106F
  8
0
  0
POLYLINE
  5
D80
  8
0
 66
     1
 10
0.0
 20
0.0
 30
0.0
 70
    64
 71
     4
 72
     2
  0
VERTEX
  5
D81
  8
0
 10
33.34644660941
 20
12.85930183149
 30
0.0
 70
   192
  0
VERTEX
  5
D82
  8
0
 10
33.34644660941
 20
12.85930183149
 30
-1900.0
 70
   192
  0
VERTEX
  5
D83
  8
0
 10
33.34644660941
 20
13.25930183149
 30
-1900.0
 70
   192
  0
VERTEX
  5
D84
  8
0
 10
33.3464466094102
 20
13.25930183149
 30
0.0
 70
   192
  0
VERTEX
  5
D85
  8
0
 10
0.0
 20
0.0
 30
0.0
 70
   128
 71
     3
 72
     4
 73
    -1
  0
VERTEX
  5
D86
  8
0
 10
0.0
 20
0.0
 30
0.0
 70
   128
 71
     2
 72
    -3
 73
     1
  0
SEQEND
  5
1070
  8
0
  0
POLYLINE
  5
D87
  8
0
 66
     1
 10
0.0
 20
0.0
 30
0.0
 70
    64
 71
     8
 72
     6
  0
VERTEX
  5
D88
  8
0
 10
33.1964466094101
 20
12.5994942103545
 30
0.0
 70
   192
  0
VERTEX
  5
D89
  8
0
 10
33.1964466094101
 20
12.5994942103545
 30
-1900.0
 70
   192
  0
VERTEX
  5
D8A
  8
0
 10
33.3062542305455
 20
12.7093018314899
 30
-1900.0
 70
   192
  0
VERTEX
  5
D8B
  8
0
 10
33.30625423054551
 20
12.7093018314899
 30
0.0
 70
   192
  0
VERTEX
  5
D8C
  8
0
 10
33.04644660941
 20
12.5593018314898
 30
0.0
 70
   192
  0
VERTEX
  5
D8D
  8
0
 10
33.04644660941
 20
12.55930183149
 30
-1900.0
 70
   192
  0
VERTEX
  5
D8E
  8
0
 10
33.34644660941019
 20
12.85930183149
 30
-1900.0
 70
   192
  0
VERTEX
  5
D8F
  8
0
 10
33.34644660941
 20
12.85930183149
 30
0.0
 70
   192
  0
VERTEX
  5
D90
  8
0
 10
0.0
 20
0.0
 30
0.0
 70
   128
 71
     1
 72
     2
 73
    -3
  0
VERTEX
  5
D91
  8
0
 10
0.0
 20
0.0
 30
0.0
 70
   128
 71
    -1
 72
     3
 73
     4
  0
VERTEX
  5
D92
  8
0
 10
0.0
 20
0.0
 30
0.0
 70
   128
 71
     5
 72
     6
 73
    -2
  0
VERTEX
  5
D93
  8
0
 10
0.0
 20
0.0
 30
0.0
 70
   128
 71
    -5
 72
     2
 73
     1
  0
VERTEX
  5
D94
  8
0
 10
0.0
 20
0.0
 30
0.0
 70
   128
 71
     4
 72
     3
 73
    -7
  0
VERTEX
  5
D95
  8
0
 10
0.0
 20
0.0
 30
0.0
 70
   128
 71
    -4
 72
     7
 73
     8
  0
SEQEND
  5
1071
  8
0
  0
ENDBLK
  5
102A
  8
0
  0
BLOCK
  8
0
  2
*X2
 70
     1
 10
0.0
 20
0.0
 30
0.0
  3
*X2
  1

  0
POLYLINE
  5
D97
  8
0
 66
     1
 10
0.0
 20
0.0
 30
0.0
 70
    64
 71
     9
 72
     7
  0
VERTEX
  5
D98
  8
0
 10
41.499999999998
 20
-13.9406875789
 30
-1900.9
 70
   192
  0
VERTEX
  5
D99
  8
0
 10
41.48977774788472
 20
-14.01833329243076
 30
-1900.9
 70
   192
  0
VERTEX
  5
D9A
  8
0
 10
41.45980762113333
 20
-14.09068757890001
 30
-1900.9
 70
   192
  0
VERTEX
  5
D9B
  8
0
 10
41.41213203435396
 20
-14.15281961325598
 30
-1900.9
 70
   192
  0
VERTEX
  5
D9C
  8
0
 10
41.38371173070674
 20
-14.12439930960875
 30
-1901.05
 70
   192
  0
VERTEX
  5
D9D
  8
0
 10
41.30606601717598
 20
-14.04675359607799
 30
-1901.159807621135
 70
   192
  0
VERTEX
  5
D9E
  8
0
 10
41.19999999999801
 20
-13.9406875789
 30
-1901.2
 70
   192
  0
VERTEX
  5
D9F
  8
0
 10
41.349999999998
 20
-13.9406875789
 30
-1901.159807621135
 70
   192
  0
VERTEX
  5
DA0
  8
0
 10
41.45980762113334
 20
-13.9406875789
 30
-1901.05
 70
   192
  0
VERTEX
  5
DA1
  8
0
 10
0.0
 20
0.0
 30
0.0
 70
   128
 71
     6
 72
     7
 73
     8
  0
VERTEX
  5
DA2
  8
0
 10
0.0
 20
0.0
 30
0.0
 70
   128
 71
     9
 72
     5
 73
    -6
  0
VERTEX
  5
DA3
  8
0
 10
0.0
 20
0.0
 30
0.0
 70
   128
 71
     8
 72
    -9
 73
     6
  0
VERTEX
  5
DA4
  8
0
 10
0.0
 20
0.0
 30
0.0
 70
   128
 71
     9
 72
     1
 73
     2
  0
VERTEX
  5
DA5
  8
0
 10
0.0
 20
0.0
 30
0.0
 70
   128
 71
     5
 72
     9
 73
    -2
  0
VERTEX
  5
DA6
  8
0
 10
0.0
 20
0.0
 30
0.0
 70
   128
 71
     2
 72
     3
 73
    -5
  0
VERTEX
  5
DA7
  8
0
 10
0.0
 20
0.0
 30
0.0
 70
   128
 71
     3
 72
     4
 73
     5
  0
SEQEND
  5
1074
  8
0
  0
POLYLINE
  5
DA8
  8
0
 66
     1
 10
0.0
 20
0.0
 30
0.0
 70
    64
 71
     9
 72
     7
  0
VERTEX
  5
DA9
  8
0
 10
41.19999999999801
 20
10.7593124211
 30
-1900.9
 70
   192
  0
VERTEX
  5
DAA
  8
0
 10
41.27764571352876
 20
10.74909016898672
 30
-1900.9
 70
   192
  0
VERTEX
  5
DAB
  8
0
 10
41.349999999998
 20
10.71912004223534
 30
-1900.9
 70
   192
  0
VERTEX
  5
DAC
  8
0
 10
41.41213203435396
 20
10.67144445545598
 30
-1900.9
 70
   192
  0
VERTEX
  5
DAD
  8
0
 10
41.38371173070674
 20
10.64302415180875
 30
-1901.05
 70
   192
  0
VERTEX
  5
DAE
  8
0
 10
41.30606601717598
 20
10.56537843827799
 30
-1901.159807621135
 70
   192
  0
VERTEX
  5
DAF
  8
0
 10
41.19999999999801
 20
10.4593124211
 30
-1901.2
 70
   192
  0
VERTEX
  5
DB0
  8
0
 10
41.19999999999801
 20
10.6093124211
 30
-1901.159807621135
 70
   192
  0
VERTEX
  5
DB1
  8
0
 10
41.19999999999801
 20
10.71912004223533
 30
-1901.05
 70
   192
  0
VERTEX
  5
DB2
  8
0
 10
0.0
 20
0.0
 30
0.0
 70
   128
 71
     6
 72
     7
 73
     8
  0
VERTEX
  5
DB3
  8
0
 10
0.0
 20
0.0
 30
0.0
 70
   128
 71
     9
 72
     5
 73
    -6
  0
VERTEX
  5
DB4
  8
0
 10
0.0
 20
0.0
 30
0.0
 70
   128
 71
     8
 72
    -9
 73
     6
  0
VERTEX
  5
DB5
  8
0
 10
0.0
 20
0.0
 30
0.0
 70
   128
 71
     9
 72
     1
 73
     2
  0
VERTEX
  5
DB6
  8
0
 10
0.0
 20
0.0
 30
0.0
 70
   128
 71
     5
 72
     9
 73
    -2
  0
VERTEX
  5
DB7
  8
0
 10
0.0
 20
0.0
 30
0.0
 70
   128
 71
     2
 72
     3
 73
    -5
  0
VERTEX
  5
DB8
  8
0
 10
0.0
 20
0.0
 30
0.0
 70
   128
 71
     3
 72
     4
 73
     5
  0
SEQEND
  5
1075
  8
0
  0
POLYLINE
  5
DB9
  8
0
 66
     1
 10
0.0
 20
0.0
 30
0.0
 70
    64
 71
     9
 72
     7
  0
VERTEX
  5
DBA
  8
0
 10
-1.500000000002
 20
-13.9406875789
 30
-1900.9
 70
   192
  0
VERTEX
  5
DBB
  8
0
 10
-1.489777747888729
 20
-13.9406875789
 30
-1900.977645713531
 70
   192
  0
VERTEX
  5
DBC
  8
0
 10
-1.459807621137366
 20
-13.9406875789
 30
-1901.05
 70
   192
  0
VERTEX
  5
DBD
  8
0
 10
-1.412132034357964
 20
-13.9406875789
 30
-1901.112132034356
 70
   192
  0
VERTEX
  5
DBE
  8
0
 10
-1.383711730710739
 20
-14.0906875789
 30
-1901.083711730709
 70
   192
  0
VERTEX
  5
DBF
  8
0
 10
-1.306066017179983
 20
-14.20049520003533
 30
-1901.006066017178
 70
   192
  0
VERTEX
  5
DC0
  8
0
 10
-1.200000000002001
 20
-14.2406875789
 30
-1900.9
 70
   192
  0
VERTEX
  5
DC1
  8
0
 10
-1.350000000002001
 20
-14.20049520003533
 30
-1900.9
 70
   192
  0
VERTEX
  5
DC2
  8
0
 10
-1.459807621137332
 20
-14.0906875789
 30
-1900.9
 70
   192
  0
VERTEX
  5
DC3
  8
0
 10
0.0
 20
0.0
 30
0.0
 70
   128
 71
     6
 72
     7
 73
     8
  0
VERTEX
  5
DC4
  8
0
 10
0.0
 20
0.0
 30
0.0
 70
   128
 71
     9
 72
     5
 73
    -6
  0
VERTEX
  5
DC5
  8
0
 10
0.0
 20
0.0
 30
0.0
 70
   128
 71
     8
 72
    -9
 73
     6
  0
VERTEX
  5
DC6
  8
0
 10
0.0
 20
0.0
 30
0.0
 70
   128
 71
     9
 72
     1
 73
     2
  0
VERTEX
  5
DC7
  8
0
 10
0.0
 20
0.0
 30
0.0
 70
   128
 71
     5
 72
     9
 73
    -2
  0
VERTEX
  5
DC8
  8
0
 10
0.0
 20
0.0
 30
0.0
 70
   128
 71
     2
 72
     3
 73
    -5
  0
VERTEX
  5
DC9
  8
0
 10
0.0
 20
0.0
 30
0.0
 70
   128
 71
     3
 72
     4
 73
     5
  0
SEQEND
  5
1076
  8
0
  0
POLYLINE
  5
DCA
  8
0
 66
     1
 10
0.0
 20
0.0
 30
0.0
 70
    64
 71
     9
 72
     7
  0
VERTEX
  5
DCB
  8
0
 10
-1.500000000002002
 20
10.4593124211
 30
-1900.9
 70
   192
  0
VERTEX
  5
DCC
  8
0
 10
-1.489777747888724
 20
10.53695813463075
 30
-1900.9
 70
   192
  0
VERTEX
  5
DCD
  8
0
 10
-1.45980762113734
 20
10.60931242109999
 30
-1900.9
 70
   192
  0
VERTEX
  5
DCE
  8
0
 10
-1.412132034357979
 20
10.67144445545595
 30
-1900.9
 70
   192
  0
VERTEX
  5
DCF
  8
0
 10
-1.383711730710751
 20
10.64302415180872
 30
-1901.05
 70
   192
  0
VERTEX
  5
DD0
  8
0
 10
-1.306066017179989
 20
10.56537843827797
 30
-1901.159807621135
 70
   192
  0
VERTEX
  5
DD1
  8
0
 10
-1.200000000001999
 20
10.4593124211
 30
-1901.2
 70
   192
  0
VERTEX
  5
DD2
  8
0
 10
-1.350000000002
 20
10.4593124211
 30
-1901.159807621135
 70
   192
  0
VERTEX
  5
DD3
  8
0
 10
-1.459807621137331
 20
10.4593124211
 30
-1901.05
 70
   192
  0
VERTEX
  5
DD4
  8
0
 10
0.0
 20
0.0
 30
0.0
 70
   128
 71
     6
 72
     7
 73
     8
  0
VERTEX
  5
DD5
  8
0
 10
0.0
 20
0.0
 30
0.0
 70
   128
 71
     9
 72
     5
 73
    -6
  0
VERTEX
  5
DD6
  8
0
 10
0.0
 20
0.0
 30
0.0
 70
   128
 71
     8
 72
    -9
 73
     6
  0
VERTEX
  5
DD7
  8
0
 10
0.0
 20
0.0
 30
0.0
 70
   128
 71
     9
 72
     1
 73
     2
  0
VERTEX
  5
DD8
  8
0
 10
0.0
 20
0.0
 30
0.0
 70
   128
 71
     5
 72
     9
 73
    -2
  0
VERTEX
  5
DD9
  8
0
 10
0.0
 20
0.0
 30
0.0
 70
   128
 71
     2
 72
     3
 73
    -5
  0
VERTEX
  5
DDA
  8
0
 10
0.0
 20
0.0
 30
0.0
 70
   128
 71
     3
 72
     4
 73
     5
  0
SEQEND
  5
1077
  8
0
  0
POLYLINE
  5
DDB
  8
0
 66
     1
 10
0.0
 20
0.0
 30
0.0
 70
    64
 71
     4
 72
     2
  0
VERTEX
  5
DDC
  8
0
 10
41.19999999999801
 20
-13.9406875789
 30
-1901.2
 70
   192
  0
VERTEX
  5
DDD
  8
0
 10
41.19999999999801
 20
10.4593124211
 30
-1901.2
 70
   192
  0
VERTEX
  5
DDE
  8
0
 10
-1.200000000002
 20
10.4593124211
 30
-1901.2
 70
   192
  0
VERTEX
  5
DDF
  8
0
 10
-1.200000000002003
 20
-13.9406875789
 30
-1901.2
 70
   192
  0
VERTEX
  5
DE0
  8
0
 10
0.0
 20
0.0
 30
0.0
 70
   128
 71
     1
 72
     4
 73
    -3
  0
VERTEX
  5
DE1
  8
0
 10
0.0
 20
0.0
 30
0.0
 70
   128
 71
    -1
 72
     3
 73
     2
  0
SEQEND
  5
1078
  8
0
  0
POLYLINE
  5
DE2
  8
0
 66
     1
 10
0.0
 20
0.0
 30
0.0
 70
    64
 71
     8
 72
     6
  0
VERTEX
  5
DE3
  8
0
 10
41.349999999998
 20
-13.9406875789
 30
-1901.159807621135
 70
   192
  0
VERTEX
  5
DE4
  8
0
 10
41.34999999999794
 20
10.4593124211
 30
-1901.159807621136
 70
   192
  0
VERTEX
  5
DE5
  8
0
 10
41.45980762113327
 20
10.4593124211
 30
-1901.05
 70
   192
  0
VERTEX
  5
DE6
  8
0
 10
41.45980762113334
 20
-13.9406875789
 30
-1901.05
 70
   192
  0
VERTEX
  5
DE7
  8
0
 10
41.19999999999801
 20
-13.9406875789
 30
-1901.2
 70
   192
  0
VERTEX
  5
DE8
  8
0
 10
41.19999999999801
 20
10.4593124211
 30
-1901.2
 70
   192
  0
VERTEX
  5
DE9
  8
0
 10
41.49999999999801
 20
10.4593124211
 30
-1900.9
 70
   192
  0
VERTEX
  5
DEA
  8
0
 10
41.499999999998
 20
-13.9406875789
 30
-1900.9
 70
   192
  0
VERTEX
  5
DEB
  8
0
 10
0.0
 20
0.0
 30
0.0
 70
   128
 71
     1
 72
     2
 73
    -3
  0
VERTEX
  5
DEC
  8
0
 10
0.0
 20
0.0
 30
0.0
 70
   128
 71
    -1
 72
     3
 73
     4
  0
VERTEX
  5
DED
  8
0
 10
0.0
 20
0.0
 30
0.0
 70
   128
 71
     5
 72
     6
 73
    -2
  0
VERTEX
  5
DEE
  8
0
 10
0.0
 20
0.0
 30
0.0
 70
   128
 71
    -5
 72
     2
 73
     1
  0
VERTEX
  5
DEF
  8
0
 10
0.0
 20
0.0
 30
0.0
 70
   128
 71
     4
 72
     3
 73
    -7
  0
VERTEX
  5
DF0
  8
0
 10
0.0
 20
0.0
 30
0.0
 70
   128
 71
    -4
 72
     7
 73
     8
  0
SEQEND
  5
1079
  8
0
  0
POLYLINE
  5
DF1
  8
0
 66
     1
 10
0.0
 20
0.0
 30
0.0
 70
    64
 71
     8
 72
     6
  0
VERTEX
  5
DF2
  8
0
 10
-1.200000000002005
 20
-14.0906875789
 30
-1901.159807621135
 70
   192
  0
VERTEX
  5
DF3
  8
0
 10
41.19999999999801
 20
-14.0906875789
 30
-1901.159807621135
 70
   192
  0
VERTEX
  5
DF4
  8
0
 10
41.19999999999801
 20
-14.20049520003533
 30
-1901.05
 70
   192
  0
VERTEX
  5
DF5
  8
0
 10
-1.200000000002005
 20
-14.20049520003533
 30
-1901.05
 70
   192
  0
VERTEX
  5
DF6
  8
0
 10
-1.200000000002005
 20
-13.9406875789
 30
-1901.2
 70
   192
  0
VERTEX
  5
DF7
  8
0
 10
41.19999999999801
 20
-13.9406875789
 30
-1901.2
 70
   192
  0
VERTEX
  5
DF8
  8
0
 10
41.19999999999801
 20
-14.2406875789
 30
-1900.9
 70
   192
  0
VERTEX
  5
DF9
  8
0
 10
-1.200000000002007
 20
-14.2406875789
 30
-1900.9
 70
   192
  0
VERTEX
  5
DFA
  8
0
 10
0.0
 20
0.0
 30
0.0
 70
   128
 71
     1
 72
     2
 73
    -3
  0
VERTEX
  5
DFB
  8
0
 10
0.0
 20
0.0
 30
0.0
 70
   128
 71
    -1
 72
     3
 73
     4
  0
VERTEX
  5
DFC
  8
0
 10
0.0
 20
0.0
 30
0.0
 70
   128
 71
     5
 72
     6
 73
    -2
  0
VERTEX
  5
DFD
  8
0
 10
0.0
 20
0.0
 30
0.0
 70
   128
 71
    -5
 72
     2
 73
     1
  0
VERTEX
  5
DFE
  8
0
 10
0.0
 20
0.0
 30
0.0
 70
   128
 71
     4
 72
     3
 73
    -7
  0
VERTEX
  5
DFF
  8
0
 10
0.0
 20
0.0
 30
0.0
 70
   128
 71
    -4
 72
     7
 73
     8
  0
SEQEND
  5
107A
  8
0
  0
POLYLINE
  5
E00
  8
0
 66
     1
 10
0.0
 20
0.0
 30
0.0
 70
    64
 71
    11
 72
     9
  0
VERTEX
  5
E01
  8
0
 10
-1.459807621137331
 20
10.4593124211
 30
-1901.05
 70
   192
  0
VERTEX
  5
E02
  8
0
 10
-1.412132034358037
 20
-13.9406875789
 30
-1901.112132034356
 70
   192
  0
VERTEX
  5
E03
  8
0
 10
-1.459807621137366
 20
-13.9406875789
 30
-1901.05
 70
   192
  0
VERTEX
  5
E04
  8
0
 10
-1.489777747888729
 20
-13.9406875789
 30
-1900.977645713531
 70
   192
  0
VERTEX
  5
E05
  8
0
 10
-1.500000000002
 20
-13.9406875789
 30
-1900.9
 70
   192
  0
VERTEX
  5
E06
  8
0
 10
-1.500000000002
 20
10.4593124211
 30
-1900.9
 70
   192
  0
VERTEX
  5
E07
  8
0
 10
-1.350000000002
 20
10.4593124211
 30
-1901.159807621135
 70
   192
  0
VERTEX
  5
E08
  8
0
 10
-1.35000000000206
 20
-13.9406875789
 30
-1901.159807621135
 70
   192
  0
VERTEX
  5
E09
  8
0
 10
-1.277645713532791
 20
-13.9406875789
 30
-1901.189777747887
 70
   192
  0
VERTEX
  5
E0A
  8
0
 10
-1.200000000001999
 20
10.4593124211
 30
-1901.2
 70
   192
  0
VERTEX
  5
E0B
  8
0
 10
-1.200000000002
 20
-13.9406875789
 30
-1901.2
 70
   192
  0
VERTEX
  5
E0C
  8
0
 10
0.0
 20
0.0
 30
0.0
 70
   128
 71
     1
 72
     2
 73
     3
  0
VERTEX
  5
E0D
  8
0
 10
0.0
 20
0.0
 30
0.0
 70
   128
 71
     4
 72
     5
 73
     6
  0
VERTEX
  5
E0E
  8
0
 10
0.0
 20
0.0
 30
0.0
 70
   128
 71
     7
 72
     8
 73
     2
  0
VERTEX
  5
E0F
  8
0
 10
0.0
 20
0.0
 30
0.0
 70
   128
 71
     7
 72
     2
 73
     1
  0
VERTEX
  5
E10
  8
0
 10
0.0
 20
0.0
 30
0.0
 70
   128
 71
     9
 72
     7
 73
    10
  0
VERTEX
  5
E11
  8
0
 10
0.0
 20
0.0
 30
0.0
 70
   128
 71
    10
 72
    11
 73
     9
  0
VERTEX
  5
E12
  8
0
 10
0.0
 20
0.0
 30
0.0
 70
   128
 71
     9
 72
     8
 73
     7
  0
VERTEX
  5
E13
  8
0
 10
0.0
 20
0.0
 30
0.0
 70
   128
 71
     1
 72
     3
 73
     4
  0
VERTEX
  5
E14
  8
0
 10
0.0
 20
0.0
 30
0.0
 70
   128
 71
     1
 72
     4
 73
     6
  0
SEQEND
  5
107B
  8
0
  0
POLYLINE
  5
E15
  8
0
 66
     1
 10
0.0
 20
0.0
 30
0.0
 70
    64
 71
     8
 72
     6
  0
VERTEX
  5
E16
  8
0
 10
41.19999999999801
 20
10.6093124211
 30
-1901.159807621135
 70
   192
  0
VERTEX
  5
E17
  8
0
 10
-1.200000000001998
 20
10.6093124211
 30
-1901.159807621135
 70
   192
  0
VERTEX
  5
E18
  8
0
 10
-1.200000000001998
 20
10.71912004223533
 30
-1901.05
 70
   192
  0
VERTEX
  5
E19
  8
0
 10
41.19999999999801
 20
10.71912004223533
 30
-1901.05
 70
   192
  0
VERTEX
  5
E1A
  8
0
 10
41.19999999999801
 20
10.4593124211
 30
-1901.2
 70
   192
  0
VERTEX
  5
E1B
  8
0
 10
-1.200000000001999
 20
10.4593124211
 30
-1901.2
 70
   192
  0
VERTEX
  5
E1C
  8
0
 10
-1.200000000001998
 20
10.7593124211
 30
-1900.9
 70
   192
  0
VERTEX
  5
E1D
  8
0
 10
41.19999999999801
 20
10.7593124211
 30
-1900.9
 70
   192
  0
VERTEX
  5
E1E
  8
0
 10
0.0
 20
0.0
 30
0.0
 70
   128
 71
     1
 72
     2
 73
    -3
  0
VERTEX
  5
E1F
  8
0
 10
0.0
 20
0.0
 30
0.0
 70
   128
 71
    -1
 72
     3
 73
     4
  0
VERTEX
  5
E20
  8
0
 10
0.0
 20
0.0
 30
0.0
 70
   128
 71
     5
 72
     6
 73
    -2
  0
VERTEX
  5
E21
  8
0
 10
0.0
 20
0.0
 30
0.0
 70
   128
 71
    -5
 72
     2
 73
     1
  0
VERTEX
  5
E22
  8
0
 10
0.0
 20
0.0
 30
0.0
 70
   128
 71
     4
 72
     3
 73
    -7
  0
VERTEX
  5
E23
  8
0
 10
0.0
 20
0.0
 30
0.0
 70
   128
 71
    -4
 72
     7
 73
     8
  0
SEQEND
  5
107C
  8
0
  0
POLYLINE
  5
E24
  8
0
 66
     1
 10
0.0
 20
0.0
 30
0.0
 70
    64
 71
     9
 72
     7
  0
VERTEX
  5
E25
  8
0
 10
41.19999999999801
 20
-13.9406875789
 30
-1901.2
 70
   192
  0
VERTEX
  5
E26
  8
0
 10
41.30606601717598
 20
-14.04675359607799
 30
-1901.159807621135
 70
   192
  0
VERTEX
  5
E27
  8
0
 10
41.38371173070674
 20
-14.12439930960875
 30
-1901.05
 70
   192
  0
VERTEX
  5
E28
  8
0
 10
41.41213203435396
 20
-14.15281961325597
 30
-1900.9
 70
   192
  0
VERTEX
  5
E29
  8
0
 10
41.349999999998
 20
-14.20049520003534
 30
-1900.9
 70
   192
  0
VERTEX
  5
E2A
  8
0
 10
41.27764571352876
 20
-14.23046532678672
 30
-1900.9
 70
   192
  0
VERTEX
  5
E2B
  8
0
 10
41.19999999999801
 20
-14.2406875789
 30
-1900.9
 70
   192
  0
VERTEX
  5
E2C
  8
0
 10
41.19999999999801
 20
-14.20049520003533
 30
-1901.05
 70
   192
  0
VERTEX
  5
E2D
  8
0
 10
41.19999999999801
 20
-14.0906875789
 30
-1901.159807621135
 70
   192
  0
VERTEX
  5
E2E
  8
0
 10
0.0
 20
0.0
 30
0.0
 70
   128
 71
     3
 72
     4
 73
     5
  0
VERTEX
  5
E2F
  8
0
 10
0.0
 20
0.0
 30
0.0
 70
   128
 71
     6
 72
     8
 73
    -3
  0
VERTEX
  5
E30
  8
0
 10
0.0
 20
0.0
 30
0.0
 70
   128
 71
     5
 72
    -6
 73
     3
  0
VERTEX
  5
E31
  8
0
 10
0.0
 20
0.0
 30
0.0
 70
   128
 71
     6
 72
     7
 73
     8
  0
VERTEX
  5
E32
  8
0
 10
0.0
 20
0.0
 30
0.0
 70
   128
 71
     9
 72
     2
 73
    -3
  0
VERTEX
  5
E33
  8
0
 10
0.0
 20
0.0
 30
0.0
 70
   128
 71
     8
 72
    -9
 73
     3
  0
VERTEX
  5
E34
  8
0
 10
0.0
 20
0.0
 30
0.0
 70
   128
 71
     9
 72
     1
 73
     2
  0
SEQEND
  5
107D
  8
0
  0
POLYLINE
  5
E35
  8
0
 66
     1
 10
0.0
 20
0.0
 30
0.0
 70
    64
 71
     4
 72
     2
  0
VERTEX
  5
E36
  8
0
 10
41.499999999998
 20
10.4593124211
 30
-1897.5
 70
   192
  0
VERTEX
  5
E37
  8
0
 10
41.499999999998
 20
-13.9406875789
 30
-1897.5
 70
   192
  0
VERTEX
  5
E38
  8
0
 10
41.499999999998
 20
-13.9406875789
 30
-1900.9
 70
   192
  0
VERTEX
  5
E39
  8
0
 10
41.499999999998
 20
10.4593124211
 30
-1900.9
 70
   192
  0
VERTEX
  5
E3A
  8
0
 10
0.0
 20
0.0
 30
0.0
 70
   128
 71
     3
 72
     4
 73
    -1
  0
VERTEX
  5
E3B
  8
0
 10
0.0
 20
0.0
 30
0.0
 70
   128
 71
     2
 72
    -3
 73
     1
  0
SEQEND
  5
107E
  8
0
  0
POLYLINE
  5
E3C
  8
0
 66
     1
 10
0.0
 20
0.0
 30
0.0
 70
    64
 71
     9
 72
     7
  0
VERTEX
  5
E3D
  8
0
 10
41.19999999999801
 20
10.4593124211
 30
-1901.2
 70
   192
  0
VERTEX
  5
E3E
  8
0
 10
41.30606601717598
 20
10.56537843827799
 30
-1901.159807621135
 70
   192
  0
VERTEX
  5
E3F
  8
0
 10
41.38371173070674
 20
10.64302415180875
 30
-1901.05
 70
   192
  0
VERTEX
  5
E40
  8
0
 10
41.41213203435396
 20
10.67144445545598
 30
-1900.9
 70
   192
  0
VERTEX
  5
E41
  8
0
 10
41.45980762113334
 20
10.60931242110001
 30
-1900.9
 70
   192
  0
VERTEX
  5
E42
  8
0
 10
41.48977774788473
 20
10.53695813463076
 30
-1900.900000000001
 70
   192
  0
VERTEX
  5
E43
  8
0
 10
41.49999999999801
 20
10.4593124211
 30
-1900.900000000001
 70
   192
  0
VERTEX
  5
E44
  8
0
 10
41.45980762113327
 20
10.4593124211
 30
-1901.05
 70
   192
  0
VERTEX
  5
E45
  8
0
 10
41.34999999999794
 20
10.4593124211
 30
-1901.159807621136
 70
   192
  0
VERTEX
  5
E46
  8
0
 10
0.0
 20
0.0
 30
0.0
 70
   128
 71
     3
 72
     4
 73
     5
  0
VERTEX
  5
E47
  8
0
 10
0.0
 20
0.0
 30
0.0
 70
   128
 71
     6
 72
     8
 73
    -3
  0
VERTEX
  5
E48
  8
0
 10
0.0
 20
0.0
 30
0.0
 70
   128
 71
     5
 72
    -6
 73
     3
  0
VERTEX
  5
E49
  8
0
 10
0.0
 20
0.0
 30
0.0
 70
   128
 71
     6
 72
     7
 73
     8
  0
VERTEX
  5
E4A
  8
0
 10
0.0
 20
0.0
 30
0.0
 70
   128
 71
     9
 72
     2
 73
    -3
  0
VERTEX
  5
E4B
  8
0
 10
0.0
 20
0.0
 30
0.0
 70
   128
 71
     8
 72
    -9
 73
     3
  0
VERTEX
  5
E4C
  8
0
 10
0.0
 20
0.0
 30
0.0
 70
   128
 71
     9
 72
     1
 73
     2
  0
SEQEND
  5
107F
  8
0
  0
POLYLINE
  5
E4D
  8
0
 66
     1
 10
0.0
 20
0.0
 30
0.0
 70
    64
 71
     8
 72
     6
  0
VERTEX
  5
E4E
  8
0
 10
-1.200000000002007
 20
-14.2406875789
 30
-1900.9
 70
   192
  0
VERTEX
  5
E4F
  8
0
 10
41.19999999999801
 20
-14.2406875789
 30
-1900.9
 70
   192
  0
VERTEX
  5
E50
  8
0
 10
41.19999999999801
 20
-14.2406875789
 30
-1897.5
 70
   192
  0
VERTEX
  5
E51
  8
0
 10
40.299999999998
 20
-14.2406875789
 30
-1897.5
 70
   192
  0
VERTEX
  5
E52
  8
0
 10
40.299999999998
 20
-14.2406875789
 30
-1900.0
 70
   192
  0
VERTEX
  5
E53
  8
0
 10
-0.300000000002
 20
-14.2406875789
 30
-1900.0
 70
   192
  0
VERTEX
  5
E54
  8
0
 10
-0.300000000002
 20
-14.2406875789
 30
-1897.5
 70
   192
  0
VERTEX
  5
E55
  8
0
 10
-1.200000000002
 20
-14.2406875789
 30
-1897.5
 70
   192
  0
VERTEX
  5
E56
  8
0
 10
0.0
 20
0.0
 30
0.0
 70
   128
 71
     3
 72
     4
 73
    -5
  0
VERTEX
  5
E57
  8
0
 10
0.0
 20
0.0
 30
0.0
 70
   128
 71
     2
 72
    -3
 73
    -5
  0
VERTEX
  5
E58
  8
0
 10
0.0
 20
0.0
 30
0.0
 70
   128
 71
    -6
 72
     1
 73
    -2
  0
VERTEX
  5
E59
  8
0
 10
0.0
 20
0.0
 30
0.0
 70
   128
 71
     5
 72
    -6
 73
    -2
  0
VERTEX
  5
E5A
  8
0
 10
0.0
 20
0.0
 30
0.0
 70
   128
 71
     7
 72
     8
 73
    -1
  0
VERTEX
  5
E5B
  8
0
 10
0.0
 20
0.0
 30
0.0
 70
   128
 71
     6
 72
    -7
 73
    -1
  0
SEQEND
  5
1080
  8
0
  0
POLYLINE
  5
E5C
  8
0
 66
     1
 10
0.0
 20
0.0
 30
0.0
 70
    64
 71
     9
 72
     7
  0
VERTEX
  5
E5D
  8
0
 10
-1.200000000002001
 20
-14.2406875789
 30
-1900.9
 70
   192
  0
VERTEX
  5
E5E
  8
0
 10
-1.306066017179983
 20
-14.20049520003533
 30
-1901.006066017178
 70
   192
  0
VERTEX
  5
E5F
  8
0
 10
-1.383711730710739
 20
-14.0906875789
 30
-1901.083711730709
 70
   192
  0
VERTEX
  5
E60
  8
0
 10
-1.412132034358037
 20
-13.9406875789
 30
-1901.112132034356
 70
   192
  0
VERTEX
  5
E61
  8
0
 10
-1.35000000000206
 20
-13.9406875789
 30
-1901.159807621135
 70
   192
  0
VERTEX
  5
E62
  8
0
 10
-1.277645713532791
 20
-13.9406875789
 30
-1901.189777747887
 70
   192
  0
VERTEX
  5
E63
  8
0
 10
-1.200000000002003
 20
-13.9406875789
 30
-1901.2
 70
   192
  0
VERTEX
  5
E64
  8
0
 10
-1.200000000002005
 20
-14.0906875789
 30
-1901.159807621135
 70
   192
  0
VERTEX
  5
E65
  8
0
 10
-1.200000000002005
 20
-14.20049520003533
 30
-1901.05
 70
   192
  0
VERTEX
  5
E66
  8
0
 10
0.0
 20
0.0
 30
0.0
 70
   128
 71
     3
 72
     4
 73
     5
  0
VERTEX
  5
E67
  8
0
 10
0.0
 20
0.0
 30
0.0
 70
   128
 71
     6
 72
     8
 73
    -3
  0
VERTEX
  5
E68
  8
0
 10
0.0
 20
0.0
 30
0.0
 70
   128
 71
     5
 72
    -6
 73
     3
  0
VERTEX
  5
E69
  8
0
 10
0.0
 20
0.0
 30
0.0
 70
   128
 71
     6
 72
     7
 73
     8
  0
VERTEX
  5
E6A
  8
0
 10
0.0
 20
0.0
 30
0.0
 70
   128
 71
     9
 72
     2
 73
    -3
  0
VERTEX
  5
E6B
  8
0
 10
0.0
 20
0.0
 30
0.0
 70
   128
 71
     8
 72
    -9
 73
     3
  0
VERTEX
  5
E6C
  8
0
 10
0.0
 20
0.0
 30
0.0
 70
   128
 71
     9
 72
     1
 73
     2
  0
SEQEND
  5
1081
  8
0
  0
POLYLINE
  5
E6D
  8
0
 66
     1
 10
0.0
 20
0.0
 30
0.0
 70
    64
 71
     4
 72
     2
  0
VERTEX
  5
E6E
  8
0
 10
-1.500000000002
 20
10.4593124211
 30
-1900.9
 70
   192
  0
VERTEX
  5
E6F
  8
0
 10
-1.500000000002
 20
-13.9406875789
 30
-1900.9
 70
   192
  0
VERTEX
  5
E70
  8
0
 10
-1.500000000002
 20
-13.9406875789
 30
-1897.5
 70
   192
  0
VERTEX
  5
E71
  8
0
 10
-1.500000000002
 20
10.4593124211
 30
-1897.5
 70
   192
  0
VERTEX
  5
E72
  8
0
 10
0.0
 20
0.0
 30
0.0
 70
   128
 71
     3
 72
     4
 73
    -1
  0
VERTEX
  5
E73
  8
0
 10
0.0
 20
0.0
 30
0.0
 70
   128
 71
     2
 72
    -3
 73
     1
  0
SEQEND
  5
1082
  8
0
  0
POLYLINE
  5
E74
  8
0
 66
     1
 10
0.0
 20
0.0
 30
0.0
 70
    64
 71
     9
 72
     7
  0
VERTEX
  5
E75
  8
0
 10
-1.200000000001999
 20
10.4593124211
 30
-1901.2
 70
   192
  0
VERTEX
  5
E76
  8
0
 10
-1.306066017179989
 20
10.56537843827797
 30
-1901.159807621135
 70
   192
  0
VERTEX
  5
E77
  8
0
 10
-1.383711730710751
 20
10.64302415180872
 30
-1901.05
 70
   192
  0
VERTEX
  5
E78
  8
0
 10
-1.41213203435798
 20
10.67144445545595
 30
-1900.9
 70
   192
  0
VERTEX
  5
E79
  8
0
 10
-1.350000000002012
 20
10.71912004223532
 30
-1900.9
 70
   192
  0
VERTEX
  5
E7A
  8
0
 10
-1.277645713532763
 20
10.74909016898672
 30
-1900.9
 70
   192
  0
VERTEX
  5
E7B
  8
0
 10
-1.200000000002
 20
10.7593124211
 30
-1900.9
 70
   192
  0
VERTEX
  5
E7C
  8
0
 10
-1.200000000001998
 20
10.71912004223533
 30
-1901.05
 70
   192
  0
VERTEX
  5
E7D
  8
0
 10
-1.200000000001998
 20
10.6093124211
 30
-1901.159807621135
 70
   192
  0
VERTEX
  5
E7E
  8
0
 10
0.0
 20
0.0
 30
0.0
 70
   128
 71
     3
 72
     4
 73
     5
  0
VERTEX
  5
E7F
  8
0
 10
0.0
 20
0.0
 30
0.0
 70
   128
 71
     6
 72
     8
 73
    -3
  0
VERTEX
  5
E80
  8
0
 10
0.0
 20
0.0
 30
0.0
 70
   128
 71
     5
 72
    -6
 73
     3
  0
VERTEX
  5
E81
  8
0
 10
0.0
 20
0.0
 30
0.0
 70
   128
 71
     6
 72
     7
 73
     8
  0
VERTEX
  5
E82
  8
0
 10
0.0
 20
0.0
 30
0.0
 70
   128
 71
     9
 72
     2
 73
    -3
  0
VERTEX
  5
E83
  8
0
 10
0.0
 20
0.0
 30
0.0
 70
   128
 71
     8
 72
    -9
 73
     3
  0
VERTEX
  5
E84
  8
0
 10
0.0
 20
0.0
 30
0.0
 70
   128
 71
     9
 72
     1
 73
     2
  0
SEQEND
  5
1083
  8
0
  0
POLYLINE
  5
E85
  8
0
 66
     1
 10
0.0
 20
0.0
 30
0.0
 70
    64
 71
     8
 72
     6
  0
VERTEX
  5
E86
  8
0
 10
40.299999999998
 20
10.7593124211
 30
-1897.5
 70
   192
  0
VERTEX
  5
E87
  8
0
 10
41.19999999999801
 20
10.7593124211
 30
-1897.5
 70
   192
  0
VERTEX
  5
E88
  8
0
 10
41.19999999999801
 20
10.7593124211
 30
-1900.9
 70
   192
  0
VERTEX
  5
E89
  8
0
 10
-1.200000000001999
 20
10.7593124211
 30
-1900.9
 70
   192
  0
VERTEX
  5
E8A
  8
0
 10
-1.200000000001998
 20
10.7593124211
 30
-1897.5
 70
   192
  0
VERTEX
  5
E8B
  8
0
 10
-0.3000000000020009
 20
10.7593124211
 30
-1897.5
 70
   192
  0
VERTEX
  5
E8C
  8
0
 10
-0.3000000000020002
 20
10.7593124211
 30
-1900.0
 70
   192
  0
VERTEX
  5
E8D
  8
0
 10
40.299999999998
 20
10.7593124211
 30
-1900.0
 70
   192
  0
VERTEX
  5
E8E
  8
0
 10
0.0
 20
0.0
 30
0.0
 70
   128
 71
     5
 72
     6
 73
    -7
  0
VERTEX
  5
E8F
  8
0
 10
0.0
 20
0.0
 30
0.0
 70
   128
 71
     4
 72
    -5
 73
    -7
  0
VERTEX
  5
E90
  8
0
 10
0.0
 20
0.0
 30
0.0
 70
   128
 71
    -8
 72
     3
 73
    -4
  0
VERTEX
  5
E91
  8
0
 10
0.0
 20
0.0
 30
0.0
 70
   128
 71
     7
 72
    -8
 73
    -4
  0
VERTEX
  5
E92
  8
0
 10
0.0
 20
0.0
 30
0.0
 70
   128
 71
     1
 72
     2
 73
    -3
  0
VERTEX
  5
E93
  8
0
 10
0.0
 20
0.0
 30
0.0
 70
   128
 71
     8
 72
    -1
 73
    -3
  0
SEQEND
  5
1084
  8
0
  0
POLYLINE
  5
E94
  8
0
 66
     1
 10
0.0
 20
0.0
 30
0.0
 70
    64
 71
    11
 72
     9
  0
VERTEX
  5
E95
  8
0
 10
41.48977774788472
 20
-14.01833329243076
 30
-1900.9
 70
   192
  0
VERTEX
  5
E96
  8
0
 10
41.499999999998
 20
-13.9406875789
 30
-1900.9
 70
   192
  0
VERTEX
  5
E97
  8
0
 10
41.499999999998
 20
-13.9406875789
 30
-1897.5
 70
   192
  0
VERTEX
  5
E98
  8
0
 10
41.45980762113334
 20
-14.0906875789
 30
-1897.5
 70
   192
  0
VERTEX
  5
E99
  8
0
 10
41.41213203435396
 20
-14.15281961325597
 30
-1900.9
 70
   192
  0
VERTEX
  5
E9A
  8
0
 10
41.45980762113333
 20
-14.09068757890001
 30
-1900.9
 70
   192
  0
VERTEX
  5
E9B
  8
0
 10
41.349999999998
 20
-14.20049520003533
 30
-1897.5
 70
   192
  0
VERTEX
  5
E9C
  8
0
 10
41.349999999998
 20
-14.20049520003534
 30
-1900.9
 70
   192
  0
VERTEX
  5
E9D
  8
0
 10
41.27764571352876
 20
-14.23046532678672
 30
-1900.9
 70
   192
  0
VERTEX
  5
E9E
  8
0
 10
41.19999999999801
 20
-14.2406875789
 30
-1897.5
 70
   192
  0
VERTEX
  5
E9F
  8
0
 10
41.19999999999801
 20
-14.2406875789
 30
-1900.9
 70
   192
  0
VERTEX
  5
EA0
  8
0
 10
0.0
 20
0.0
 30
0.0
 70
   128
 71
     1
 72
     2
 73
     3
  0
VERTEX
  5
EA1
  8
0
 10
0.0
 20
0.0
 30
0.0
 70
   128
 71
     4
 72
     5
 73
     6
  0
VERTEX
  5
EA2
  8
0
 10
0.0
 20
0.0
 30
0.0
 70
   128
 71
     4
 72
     7
 73
     8
  0
VERTEX
  5
EA3
  8
0
 10
0.0
 20
0.0
 30
0.0
 70
   128
 71
     4
 72
     8
 73
     5
  0
VERTEX
  5
EA4
  8
0
 10
0.0
 20
0.0
 30
0.0
 70
   128
 71
     1
 72
     3
 73
     4
  0
VERTEX
  5
EA5
  8
0
 10
0.0
 20
0.0
 30
0.0
 70
   128
 71
     1
 72
     4
 73
     6
  0
VERTEX
  5
EA6
  8
0
 10
0.0
 20
0.0
 30
0.0
 70
   128
 71
     9
 72
     8
 73
     7
  0
VERTEX
  5
EA7
  8
0
 10
0.0
 20
0.0
 30
0.0
 70
   128
 71
     9
 72
     7
 73
    10
  0
VERTEX
  5
EA8
  8
0
 10
0.0
 20
0.0
 30
0.0
 70
   128
 71
    10
 72
    11
 73
     9
  0
SEQEND
  5
1085
  8
0
  0
POLYLINE
  5
EA9
  8
0
 66
     1
 10
0.0
 20
0.0
 30
0.0
 70
    64
 71
    10
 72
     8
  0
VERTEX
  5
EAA
  8
0
 10
40.299999999998
 20
-14.2406875789
 30
-1897.5
 70
   192
  0
VERTEX
  5
EAB
  8
0
 10
41.19999999999801
 20
-14.2406875789
 30
-1897.5
 70
   192
  0
VERTEX
  5
EAC
  8
0
 10
41.349999999998
 20
-14.20049520003533
 30
-1897.5
 70
   192
  0
VERTEX
  5
EAD
  8
0
 10
41.45980762113334
 20
-14.0906875789
 30
-1897.5
 70
   192
  0
VERTEX
  5
EAE
  8
0
 10
41.499999999998
 20
-13.9406875789
 30
-1897.5
 70
   192
  0
VERTEX
  5
EAF
  8
0
 10
41.499999999998
 20
10.4593124211
 30
-1897.5
 70
   192
  0
VERTEX
  5
EB0
  8
0
 10
41.45980762113334
 20
10.6093124211
 30
-1897.5
 70
   192
  0
VERTEX
  5
EB1
  8
0
 10
41.349999999998
 20
10.71912004223533
 30
-1897.5
 70
   192
  0
VERTEX
  5
EB2
  8
0
 10
41.19999999999801
 20
10.7593124211
 30
-1897.5
 70
   192
  0
VERTEX
  5
EB3
  8
0
 10
40.299999999998
 20
10.7593124211
 30
-1897.5
 70
   192
  0
VERTEX
  5
EB4
  8
0
 10
0.0
 20
0.0
 30
0.0
 70
   128
 71
     9
 72
    10
 73
    -1
  0
VERTEX
  5
EB5
  8
0
 10
0.0
 20
0.0
 30
0.0
 70
   128
 71
     8
 72
    -9
 73
    -1
  0
VERTEX
  5
EB6
  8
0
 10
0.0
 20
0.0
 30
0.0
 70
   128
 71
     7
 72
    -8
 73
    -1
  0
VERTEX
  5
EB7
  8
0
 10
0.0
 20
0.0
 30
0.0
 70
   128
 71
     6
 72
    -7
 73
    -1
  0
VERTEX
  5
EB8
  8
0
 10
0.0
 20
0.0
 30
0.0
 70
   128
 71
     5
 72
    -6
 73
    -1
  0
VERTEX
  5
EB9
  8
0
 10
0.0
 20
0.0
 30
0.0
 70
   128
 71
     4
 72
    -5
 73
    -1
  0
VERTEX
  5
EBA
  8
0
 10
0.0
 20
0.0
 30
0.0
 70
   128
 71
     3
 72
    -4
 73
    -1
  0
VERTEX
  5
EBB
  8
0
 10
0.0
 20
0.0
 30
0.0
 70
   128
 71
     2
 72
    -3
 73
     1
  0
SEQEND
  5
1086
  8
0
  0
POLYLINE
  5
EBC
  8
0
 66
     1
 10
0.0
 20
0.0
 30
0.0
 70
    64
 71
    11
 72
     9
  0
VERTEX
  5
EBD
  8
0
 10
41.349999999998
 20
10.71912004223533
 30
-1897.5
 70
   192
  0
VERTEX
  5
EBE
  8
0
 10
41.41213203435396
 20
10.67144445545598
 30
-1900.9
 70
   192
  0
VERTEX
  5
EBF
  8
0
 10
41.349999999998
 20
10.71912004223534
 30
-1900.9
 70
   192
  0
VERTEX
  5
EC0
  8
0
 10
41.27764571352876
 20
10.74909016898672
 30
-1900.9
 70
   192
  0
VERTEX
  5
EC1
  8
0
 10
41.19999999999801
 20
10.7593124211
 30
-1900.9
 70
   192
  0
VERTEX
  5
EC2
  8
0
 10
41.19999999999801
 20
10.7593124211
 30
-1897.5
 70
   192
  0
VERTEX
  5
EC3
  8
0
 10
41.45980762113334
 20
10.6093124211
 30
-1897.5
 70
   192
  0
VERTEX
  5
EC4
  8
0
 10
41.45980762113334
 20
10.60931242110001
 30
-1900.9
 70
   192
  0
VERTEX
  5
EC5
  8
0
 10
41.48977774788473
 20
10.53695813463076
 30
-1900.900000000001
 70
   192
  0
VERTEX
  5
EC6
  8
0
 10
41.49999999999801
 20
10.4593124211
 30
-1897.5
 70
   192
  0
VERTEX
  5
EC7
  8
0
 10
41.499999999998
 20
10.4593124211
 30
-1900.9
 70
   192
  0
VERTEX
  5
EC8
  8
0
 10
0.0
 20
0.0
 30
0.0
 70
   128
 71
     1
 72
     2
 73
     3
  0
VERTEX
  5
EC9
  8
0
 10
0.0
 20
0.0
 30
0.0
 70
   128
 71
     4
 72
     5
 73
     6
  0
VERTEX
  5
ECA
  8
0
 10
0.0
 20
0.0
 30
0.0
 70
   128
 71
     7
 72
     8
 73
     2
  0
VERTEX
  5
ECB
  8
0
 10
0.0
 20
0.0
 30
0.0
 70
   128
 71
     7
 72
     2
 73
     1
  0
VERTEX
  5
ECC
  8
0
 10
0.0
 20
0.0
 30
0.0
 70
   128
 71
     9
 72
     7
 73
    10
  0
VERTEX
  5
ECD
  8
0
 10
0.0
 20
0.0
 30
0.0
 70
   128
 71
    10
 72
    11
 73
     9
  0
VERTEX
  5
ECE
  8
0
 10
0.0
 20
0.0
 30
0.0
 70
   128
 71
     9
 72
     8
 73
     7
  0
VERTEX
  5
ECF
  8
0
 10
0.0
 20
0.0
 30
0.0
 70
   128
 71
     1
 72
     3
 73
     4
  0
VERTEX
  5
ED0
  8
0
 10
0.0
 20
0.0
 30
0.0
 70
   128
 71
     1
 72
     4
 73
     6
  0
SEQEND
  5
1087
  8
0
  0
POLYLINE
  5
ED1
  8
0
 66
     1
 10
0.0
 20
0.0
 30
0.0
 70
    64
 71
     8
 72
     6
  0
VERTEX
  5
ED2
  8
0
 10
-1.350000000002001
 20
-14.20049520003533
 30
-1900.9
 70
   192
  0
VERTEX
  5
ED3
  8
0
 10
-1.350000000002
 20
-14.20049520003533
 30
-1897.5
 70
   192
  0
VERTEX
  5
ED4
  8
0
 10
-1.459807621137331
 20
-14.0906875789
 30
-1897.5
 70
   192
  0
VERTEX
  5
ED5
  8
0
 10
-1.459807621137332
 20
-14.0906875789
 30
-1900.9
 70
   192
  0
VERTEX
  5
ED6
  8
0
 10
-1.200000000002003
 20
-14.2406875789
 30
-1900.9
 70
   192
  0
VERTEX
  5
ED7
  8
0
 10
-1.200000000002
 20
-14.2406875789
 30
-1897.5
 70
   192
  0
VERTEX
  5
ED8
  8
0
 10
-1.500000000002
 20
-13.9406875789
 30
-1897.5
 70
   192
  0
VERTEX
  5
ED9
  8
0
 10
-1.500000000002
 20
-13.9406875789
 30
-1900.9
 70
   192
  0
VERTEX
  5
EDA
  8
0
 10
0.0
 20
0.0
 30
0.0
 70
   128
 71
     1
 72
     2
 73
    -3
  0
VERTEX
  5
EDB
  8
0
 10
0.0
 20
0.0
 30
0.0
 70
   128
 71
    -1
 72
     3
 73
     4
  0
VERTEX
  5
EDC
  8
0
 10
0.0
 20
0.0
 30
0.0
 70
   128
 71
     5
 72
     6
 73
    -2
  0
VERTEX
  5
EDD
  8
0
 10
0.0
 20
0.0
 30
0.0
 70
   128
 71
    -5
 72
     2
 73
     1
  0
VERTEX
  5
EDE
  8
0
 10
0.0
 20
0.0
 30
0.0
 70
   128
 71
     4
 72
     3
 73
    -7
  0
VERTEX
  5
EDF
  8
0
 10
0.0
 20
0.0
 30
0.0
 70
   128
 71
    -4
 72
     7
 73
     8
  0
SEQEND
  5
1088
  8
0
  0
POLYLINE
  5
EE0
  8
0
 66
     1
 10
0.0
 20
0.0
 30
0.0
 70
    64
 71
     4
 72
     2
  0
VERTEX
  5
EE1
  8
0
 10
-0.300000000002
 20
-14.2406875789
 30
-1897.5
 70
   192
  0
VERTEX
  5
EE2
  8
0
 10
-0.300000000002
 20
-14.2406875789
 30
-1900.0
 70
   192
  0
VERTEX
  5
EE3
  8
0
 10
-0.300000000002
 20
10.7593124211
 30
-1900.0
 70
   192
  0
VERTEX
  5
EE4
  8
0
 10
-0.3000000000020002
 20
10.7593124211
 30
-1897.5
 70
   192
  0
VERTEX
  5
EE5
  8
0
 10
0.0
 20
0.0
 30
0.0
 70
   128
 71
     3
 72
     4
 73
    -1
  0
VERTEX
  5
EE6
  8
0
 10
0.0
 20
0.0
 30
0.0
 70
   128
 71
     2
 72
    -3
 73
     1
  0
SEQEND
  5
1089
  8
0
  0
POLYLINE
  5
EE7
  8
0
 66
     1
 10
0.0
 20
0.0
 30
0.0
 70
    64
 71
    28
 72
    34
  0
VERTEX
  5
EE8
  8
0
 10
40.299999999998
 20
10.7593124211
 30
-1900.0
 70
   192
  0
VERTEX
  5
EE9
  8
0
 10
-0.3000000000020009
 20
10.7593124211
 30
-1900.0
 70
   192
  0
VERTEX
  5
EEA
  8
0
 10
-0.300000000002
 20
-14.2406875789
 30
-1900.0
 70
   192
  0
VERTEX
  5
EEB
  8
0
 10
40.299999999998
 20
-14.2406875789
 30
-1900.0
 70
   192
  0
VERTEX
  5
EEC
  8
0
 10
2.199999999998
 20
8.6593124211
 30
-1900.0
 70
   192
  0
VERTEX
  5
EED
  8
0
 10
2.199999999998
 20
4.859312421099999
 30
-1900.0
 70
   192
  0
VERTEX
  5
EEE
  8
0
 10
0.999999999998
 20
4.859312421100002
 30
-1900.0
 70
   192
  0
VERTEX
  5
EEF
  8
0
 10
0.999999999998
 20
9.859312421100006
 30
-1900.0
 70
   192
  0
VERTEX
  5
EF0
  8
0
 10
5.999999999998
 20
9.859312421100006
 30
-1900.0
 70
   192
  0
VERTEX
  5
EF1
  8
0
 10
5.999999999998
 20
8.6593124211
 30
-1900.0
 70
   192
  0
VERTEX
  5
EF2
  8
0
 10
37.799999999998
 20
-10.9406875789
 30
-1900.0
 70
   192
  0
VERTEX
  5
EF3
  8
0
 10
37.799999999998
 20
-7.140687578899999
 30
-1900.0
 70
   192
  0
VERTEX
  5
EF4
  8
0
 10
38.999999999998
 20
-7.1406875789
 30
-1900.0
 70
   192
  0
VERTEX
  5
EF5
  8
0
 10
38.999999999998
 20
-12.1406875789
 30
-1900.0
 70
   192
  0
VERTEX
  5
EF6
  8
0
 10
33.99999999999802
 20
-12.1406875789
 30
-1900.0
 70
   192
  0
VERTEX
  5
EF7
  8
0
 10
33.99999999999801
 20
-10.9406875789
 30
-1900.0
 70
   192
  0
VERTEX
  5
EF8
  8
0
 10
5.999999999998
 20
-12.1406875789
 30
-1900.0
 70
   192
  0
VERTEX
  5
EF9
  8
0
 10
0.999999999998
 20
-12.1406875789
 30
-1900.0
 70
   192
  0
VERTEX
  5
EFA
  8
0
 10
0.999999999998
 20
-7.140687578899999
 30
-1900.0
 70
   192
  0
VERTEX
  5
EFB
  8
0
 10
2.199999999998
 20
-7.1406875789
 30
-1900.0
 70
   192
  0
VERTEX
  5
EFC
  8
0
 10
2.199999999998
 20
-10.9406875789
 30
-1900.0
 70
   192
  0
VERTEX
  5
EFD
  8
0
 10
5.999999999998
 20
-10.9406875789
 30
-1900.0
 70
   192
  0
VERTEX
  5
EFE
  8
0
 10
37.79999999999801
 20
8.6593124211
 30
-1900.0
 70
   192
  0
VERTEX
  5
EFF
  8
0
 10
33.99999999999802
 20
8.6593124211
 30
-1900.0
 70
   192
  0
VERTEX
  5
F00
  8
0
 10
33.99999999999801
 20
9.859312421100006
 30
-1900.0
 70
   192
  0
VERTEX
  5
F01
  8
0
 10
38.999999999998
 20
9.859312421100006
 30
-1900.0
 70
   192
  0
VERTEX
  5
F02
  8
0
 10
38.999999999998
 20
4.859312421099999
 30
-1900.0
 70
   192
  0
VERTEX
  5
F03
  8
0
 10
37.799999999998
 20
4.859312421100002
 30
-1900.0
 70
   192
  0
VERTEX
  5
F04
  8
0
 10
0.0
 20
0.0
 30
0.0
 70
   128
 71
    -3
 72
    17
 73
   -18
  0
VERTEX
  5
F05
  8
0
 10
0.0
 20
0.0
 30
0.0
 70
   128
 71
    18
 72
   -19
 73
    -3
  0
VERTEX
  5
F06
  8
0
 10
0.0
 20
0.0
 30
0.0
 70
   128
 71
    10
 72
     5
 73
    -6
  0
VERTEX
  5
F07
  8
0
 10
0.0
 20
0.0
 30
0.0
 70
   128
 71
   -20
 72
   -10
 73
    -6
  0
VERTEX
  5
F08
  8
0
 10
0.0
 20
0.0
 30
0.0
 70
   128
 71
    19
 72
   -20
 73
    -6
  0
VERTEX
  5
F09
  8
0
 10
0.0
 20
0.0
 30
0.0
 70
   128
 71
     6
 72
    -7
 73
   -19
  0
VERTEX
  5
F0A
  8
0
 10
0.0
 20
0.0
 30
0.0
 70
   128
 71
     2
 72
    -3
 73
   -19
  0
VERTEX
  5
F0B
  8
0
 10
0.0
 20
0.0
 30
0.0
 70
   128
 71
    -7
 72
    -2
 73
   -19
  0
VERTEX
  5
F0C
  8
0
 10
0.0
 20
0.0
 30
0.0
 70
   128
 71
     7
 72
    -8
 73
    -2
  0
VERTEX
  5
F0D
  8
0
 10
0.0
 20
0.0
 30
0.0
 70
   128
 71
     8
 72
    -9
 73
    -2
  0
VERTEX
  5
F0E
  8
0
 10
0.0
 20
0.0
 30
0.0
 70
   128
 71
     1
 72
    -2
 73
    -9
  0
VERTEX
  5
F0F
  8
0
 10
0.0
 20
0.0
 30
0.0
 70
   128
 71
     9
 72
   -10
 73
    -1
  0
VERTEX
  5
F10
  8
0
 10
0.0
 20
0.0
 30
0.0
 70
   128
 71
    16
 72
    11
 73
   -12
  0
VERTEX
  5
F11
  8
0
 10
0.0
 20
0.0
 30
0.0
 70
   128
 71
   -28
 72
   -16
 73
   -12
  0
VERTEX
  5
F12
  8
0
 10
0.0
 20
0.0
 30
0.0
 70
   128
 71
    27
 72
   -28
 73
   -12
  0
VERTEX
  5
F13
  8
0
 10
0.0
 20
0.0
 30
0.0
 70
   128
 71
    12
 72
   -13
 73
   -27
  0
VERTEX
  5
F14
  8
0
 10
0.0
 20
0.0
 30
0.0
 70
   128
 71
    28
 72
    23
 73
   -24
  0
VERTEX
  5
F15
  8
0
 10
0.0
 20
0.0
 30
0.0
 70
   128
 71
   -16
 72
   -28
 73
   -24
  0
VERTEX
  5
F16
  8
0
 10
0.0
 20
0.0
 30
0.0
 70
   128
 71
    20
 72
    21
 73
   -22
  0
VERTEX
  5
F17
  8
0
 10
0.0
 20
0.0
 30
0.0
 70
   128
 71
   -10
 72
   -20
 73
   -22
  0
VERTEX
  5
F18
  8
0
 10
0.0
 20
0.0
 30
0.0
 70
   128
 71
   -16
 72
   -24
 73
   -10
  0
VERTEX
  5
F19
  8
0
 10
0.0
 20
0.0
 30
0.0
 70
   128
 71
   -22
 72
   -16
 73
   -10
  0
VERTEX
  5
F1A
  8
0
 10
0.0
 20
0.0
 30
0.0
 70
   128
 71
    24
 72
   -25
 73
   -10
  0
VERTEX
  5
F1B
  8
0
 10
0.0
 20
0.0
 30
0.0
 70
   128
 71
   -25
 72
    -1
 73
   -10
  0
VERTEX
  5
F1C
  8
0
 10
0.0
 20
0.0
 30
0.0
 70
   128
 71
    25
 72
   -26
 73
    -1
  0
VERTEX
  5
F1D
  8
0
 10
0.0
 20
0.0
 30
0.0
 70
   128
 71
    26
 72
   -27
 73
    -1
  0
VERTEX
  5
F1E
  8
0
 10
0.0
 20
0.0
 30
0.0
 70
   128
 71
   -13
 72
     4
 73
    -1
  0
VERTEX
  5
F1F
  8
0
 10
0.0
 20
0.0
 30
0.0
 70
   128
 71
   -27
 72
   -13
 73
    -1
  0
VERTEX
  5
F20
  8
0
 10
0.0
 20
0.0
 30
0.0
 70
   128
 71
    13
 72
   -14
 73
    -4
  0
VERTEX
  5
F21
  8
0
 10
0.0
 20
0.0
 30
0.0
 70
   128
 71
    14
 72
   -15
 73
    -4
  0
VERTEX
  5
F22
  8
0
 10
0.0
 20
0.0
 30
0.0
 70
   128
 71
     3
 72
    -4
 73
   -15
  0
VERTEX
  5
F23
  8
0
 10
0.0
 20
0.0
 30
0.0
 70
   128
 71
    15
 72
   -16
 73
    -3
  0
VERTEX
  5
F24
  8
0
 10
0.0
 20
0.0
 30
0.0
 70
   128
 71
    22
 72
   -17
 73
   -16
  0
VERTEX
  5
F25
  8
0
 10
0.0
 20
0.0
 30
0.0
 70
   128
 71
   -17
 72
    -3
 73
   -16
  0
SEQEND
  5
108A
  8
0
  0
POLYLINE
  5
F26
  8
0
 66
     1
 10
0.0
 20
0.0
 30
0.0
 70
    64
 71
     4
 72
     2
  0
VERTEX
  5
F27
  8
0
 10
40.299999999998
 20
10.7593124211
 30
-1897.5
 70
   192
  0
VERTEX
  5
F28
  8
0
 10
40.299999999998
 20
10.7593124211
 30
-1900.0
 70
   192
  0
VERTEX
  5
F29
  8
0
 10
40.299999999998
 20
-14.2406875789
 30
-1900.0
 70
   192
  0
VERTEX
  5
F2A
  8
0
 10
40.299999999998
 20
-14.2406875789
 30
-1897.5
 70
   192
  0
VERTEX
  5
F2B
  8
0
 10
0.0
 20
0.0
 30
0.0
 70
   128
 71
     3
 72
     4
 73
    -1
  0
VERTEX
  5
F2C
  8
0
 10
0.0
 20
0.0
 30
0.0
 70
   128
 71
     2
 72
    -3
 73
     1
  0
SEQEND
  5
108B
  8
0
  0
POLYLINE
  5
F2D
  8
0
 66
     1
 10
0.0
 20
0.0
 30
0.0
 70
    64
 71
    11
 72
     9
  0
VERTEX
  5
F2E
  8
0
 10
-1.459807621137333
 20
10.6093124211
 30
-1897.5
 70
   192
  0
VERTEX
  5
F2F
  8
0
 10
-1.41213203435798
 20
10.67144445545595
 30
-1900.9
 70
   192
  0
VERTEX
  5
F30
  8
0
 10
-1.45980762113734
 20
10.60931242109999
 30
-1900.9
 70
   192
  0
VERTEX
  5
F31
  8
0
 10
-1.489777747888724
 20
10.53695813463075
 30
-1900.9
 70
   192
  0
VERTEX
  5
F32
  8
0
 10
-1.500000000002002
 20
10.4593124211
 30
-1900.9
 70
   192
  0
VERTEX
  5
F33
  8
0
 10
-1.500000000002
 20
10.4593124211
 30
-1897.5
 70
   192
  0
VERTEX
  5
F34
  8
0
 10
-1.350000000002
 20
10.71912004223533
 30
-1897.5
 70
   192
  0
VERTEX
  5
F35
  8
0
 10
-1.350000000002012
 20
10.71912004223532
 30
-1900.9
 70
   192
  0
VERTEX
  5
F36
  8
0
 10
-1.200000000001999
 20
10.7593124211
 30
-1897.5
 70
   192
  0
VERTEX
  5
F37
  8
0
 10
-1.200000000001998
 20
10.7593124211
 30
-1900.9
 70
   192
  0
VERTEX
  5
F38
  8
0
 10
-1.277645713532763
 20
10.74909016898672
 30
-1900.9
 70
   192
  0
VERTEX
  5
F39
  8
0
 10
0.0
 20
0.0
 30
0.0
 70
   128
 71
     1
 72
     2
 73
     3
  0
VERTEX
  5
F3A
  8
0
 10
0.0
 20
0.0
 30
0.0
 70
   128
 71
     4
 72
     5
 73
     6
  0
VERTEX
  5
F3B
  8
0
 10
0.0
 20
0.0
 30
0.0
 70
   128
 71
     7
 72
     8
 73
     2
  0
VERTEX
  5
F3C
  8
0
 10
0.0
 20
0.0
 30
0.0
 70
   128
 71
     7
 72
     2
 73
     1
  0
VERTEX
  5
F3D
  8
0
 10
0.0
 20
0.0
 30
0.0
 70
   128
 71
     7
 72
     9
 73
    10
  0
VERTEX
  5
F3E
  8
0
 10
0.0
 20
0.0
 30
0.0
 70
   128
 71
     7
 72
    10
 73
    11
  0
VERTEX
  5
F3F
  8
0
 10
0.0
 20
0.0
 30
0.0
 70
   128
 71
    11
 72
     8
 73
     7
  0
VERTEX
  5
F40
  8
0
 10
0.0
 20
0.0
 30
0.0
 70
   128
 71
     1
 72
     3
 73
     4
  0
VERTEX
  5
F41
  8
0
 10
0.0
 20
0.0
 30
0.0
 70
   128
 71
     1
 72
     4
 73
     6
  0
SEQEND
  5
108C
  8
0
  0
POLYLINE
  5
F42
  8
0
 66
     1
 10
0.0
 20
0.0
 30
0.0
 70
    64
 71
    10
 72
     8
  0
VERTEX
  5
F43
  8
0
 10
-1.500000000002
 20
10.4593124211
 30
-1897.5
 70
   192
  0
VERTEX
  5
F44
  8
0
 10
-1.500000000002
 20
-13.9406875789
 30
-1897.5
 70
   192
  0
VERTEX
  5
F45
  8
0
 10
-1.459807621137331
 20
-14.0906875789
 30
-1897.5
 70
   192
  0
VERTEX
  5
F46
  8
0
 10
-1.350000000002
 20
-14.20049520003533
 30
-1897.5
 70
   192
  0
VERTEX
  5
F47
  8
0
 10
-1.200000000002
 20
-14.2406875789
 30
-1897.5
 70
   192
  0
VERTEX
  5
F48
  8
0
 10
-0.300000000002
 20
-14.2406875789
 30
-1897.5
 70
   192
  0
VERTEX
  5
F49
  8
0
 10
-0.300000000002
 20
10.7593124211
 30
-1897.5
 70
   192
  0
VERTEX
  5
F4A
  8
0
 10
-1.200000000001999
 20
10.7593124211
 30
-1897.5
 70
   192
  0
VERTEX
  5
F4B
  8
0
 10
-1.350000000002
 20
10.71912004223533
 30
-1897.5
 70
   192
  0
VERTEX
  5
F4C
  8
0
 10
-1.459807621137333
 20
10.6093124211
 30
-1897.5
 70
   192
  0
VERTEX
  5
F4D
  8
0
 10
0.0
 20
0.0
 30
0.0
 70
   128
 71
     9
 72
    10
 73
    -1
  0
VERTEX
  5
F4E
  8
0
 10
0.0
 20
0.0
 30
0.0
 70
   128
 71
     8
 72
    -9
 73
    -1
  0
VERTEX
  5
F4F
  8
0
 10
0.0
 20
0.0
 30
0.0
 70
   128
 71
     7
 72
    -8
 73
    -1
  0
VERTEX
  5
F50
  8
0
 10
0.0
 20
0.0
 30
0.0
 70
   128
 71
     6
 72
    -7
 73
    -1
  0
VERTEX
  5
F51
  8
0
 10
0.0
 20
0.0
 30
0.0
 70
   128
 71
     5
 72
    -6
 73
    -1
  0
VERTEX
  5
F52
  8
0
 10
0.0
 20
0.0
 30
0.0
 70
   128
 71
     4
 72
    -5
 73
    -1
  0
VERTEX
  5
F53
  8
0
 10
0.0
 20
0.0
 30
0.0
 70
   128
 71
     3
 72
    -4
 73
    -1
  0
VERTEX
  5
F54
  8
0
 10
0.0
 20
0.0
 30
0.0
 70
   128
 71
     2
 72
    -3
 73
     1
  0
SEQEND
  5
108D
  8
0
  0
POLYLINE
  5
F55
  8
0
 66
     1
 10
0.0
 20
0.0
 30
0.0
 70
    64
 71
     4
 72
     2
  0
VERTEX
  5
F56
  8
0
 10
33.99999999999801
 20
8.6593124211
 30
-1895.0
 70
   192
  0
VERTEX
  5
F57
  8
0
 10
33.99999999999801
 20
8.6593124211
 30
-1900.0
 70
   192
  0
VERTEX
  5
F58
  8
0
 10
37.79999999999801
 20
8.6593124211
 30
-1900.0
 70
   192
  0
VERTEX
  5
F59
  8
0
 10
37.799999999998
 20
8.6593124211
 30
-1895.0
 70
   192
  0
VERTEX
  5
F5A
  8
0
 10
0.0
 20
0.0
 30
0.0
 70
   128
 71
     3
 72
     4
 73
    -1
  0
VERTEX
  5
F5B
  8
0
 10
0.0
 20
0.0
 30
0.0
 70
   128
 71
     2
 72
    -3
 73
     1
  0
SEQEND
  5
108E
  8
0
  0
POLYLINE
  5
F5C
  8
0
 66
     1
 10
0.0
 20
0.0
 30
0.0
 70
    64
 71
     4
 72
     2
  0
VERTEX
  5
F5D
  8
0
 10
37.799999999998
 20
8.6593124211
 30
-1895.0
 70
   192
  0
VERTEX
  5
F5E
  8
0
 10
37.799999999998
 20
8.6593124211
 30
-1900.0
 70
   192
  0
VERTEX
  5
F5F
  8
0
 10
37.799999999998
 20
4.859312421099999
 30
-1900.0
 70
   192
  0
VERTEX
  5
F60
  8
0
 10
37.799999999998
 20
4.859312421100002
 30
-1895.0
 70
   192
  0
VERTEX
  5
F61
  8
0
 10
0.0
 20
0.0
 30
0.0
 70
   128
 71
     3
 72
     4
 73
    -1
  0
VERTEX
  5
F62
  8
0
 10
0.0
 20
0.0
 30
0.0
 70
   128
 71
     2
 72
    -3
 73
     1
  0
SEQEND
  5
108F
  8
0
  0
POLYLINE
  5
F63
  8
0
 66
     1
 10
0.0
 20
0.0
 30
0.0
 70
    64
 71
     4
 72
     2
  0
VERTEX
  5
F64
  8
0
 10
38.999999999998
 20
4.859312421100002
 30
-1895.0
 70
   192
  0
VERTEX
  5
F65
  8
0
 10
38.999999999998
 20
4.859312421100002
 30
-1900.0
 70
   192
  0
VERTEX
  5
F66
  8
0
 10
38.999999999998
 20
9.859312421100006
 30
-1900.0
 70
   192
  0
VERTEX
  5
F67
  8
0
 10
38.999999999998
 20
9.859312421100006
 30
-1895.0
 70
   192
  0
VERTEX
  5
F68
  8
0
 10
0.0
 20
0.0
 30
0.0
 70
   128
 71
     3
 72
     4
 73
    -1
  0
VERTEX
  5
F69
  8
0
 10
0.0
 20
0.0
 30
0.0
 70
   128
 71
     2
 72
    -3
 73
     1
  0
SEQEND
  5
1090
  8
0
  0
POLYLINE
  5
F6A
  8
0
 66
     1
 10
0.0
 20
0.0
 30
0.0
 70
    64
 71
     4
 72
     2
  0
VERTEX
  5
F6B
  8
0
 10
38.999999999998
 20
9.859312421100006
 30
-1895.0
 70
   192
  0
VERTEX
  5
F6C
  8
0
 10
38.999999999998
 20
9.859312421100006
 30
-1900.0
 70
   192
  0
VERTEX
  5
F6D
  8
0
 10
33.99999999999802
 20
9.859312421100006
 30
-1900.0
 70
   192
  0
VERTEX
  5
F6E
  8
0
 10
33.99999999999801
 20
9.859312421100006
 30
-1895.0
 70
   192
  0
VERTEX
  5
F6F
  8
0
 10
0.0
 20
0.0
 30
0.0
 70
   128
 71
     3
 72
     4
 73
    -1
  0
VERTEX
  5
F70
  8
0
 10
0.0
 20
0.0
 30
0.0
 70
   128
 71
     2
 72
    -3
 73
     1
  0
SEQEND
  5
1091
  8
0
  0
POLYLINE
  5
F71
  8
0
 66
     1
 10
0.0
 20
0.0
 30
0.0
 70
    64
 71
     4
 72
     2
  0
VERTEX
  5
F72
  8
0
 10
2.199999999998
 20
4.859312421100002
 30
-1895.0
 70
   192
  0
VERTEX
  5
F73
  8
0
 10
2.199999999998
 20
4.859312421100002
 30
-1900.0
 70
   192
  0
VERTEX
  5
F74
  8
0
 10
2.199999999998
 20
8.6593124211
 30
-1900.0
 70
   192
  0
VERTEX
  5
F75
  8
0
 10
2.199999999998
 20
8.6593124211
 30
-1895.0
 70
   192
  0
VERTEX
  5
F76
  8
0
 10
0.0
 20
0.0
 30
0.0
 70
   128
 71
     3
 72
     4
 73
    -1
  0
VERTEX
  5
F77
  8
0
 10
0.0
 20
0.0
 30
0.0
 70
   128
 71
     2
 72
    -3
 73
     1
  0
SEQEND
  5
1092
  8
0
  0
POLYLINE
  5
F78
  8
0
 66
     1
 10
0.0
 20
0.0
 30
0.0
 70
    64
 71
     4
 72
     2
  0
VERTEX
  5
F79
  8
0
 10
2.199999999998
 20
8.6593124211
 30
-1895.0
 70
   192
  0
VERTEX
  5
F7A
  8
0
 10
2.199999999998
 20
8.6593124211
 30
-1900.0
 70
   192
  0
VERTEX
  5
F7B
  8
0
 10
5.999999999998
 20
8.6593124211
 30
-1900.0
 70
   192
  0
VERTEX
  5
F7C
  8
0
 10
5.999999999998
 20
8.6593124211
 30
-1895.0
 70
   192
  0
VERTEX
  5
F7D
  8
0
 10
0.0
 20
0.0
 30
0.0
 70
   128
 71
     3
 72
     4
 73
    -1
  0
VERTEX
  5
F7E
  8
0
 10
0.0
 20
0.0
 30
0.0
 70
   128
 71
     2
 72
    -3
 73
     1
  0
SEQEND
  5
1093
  8
0
  0
POLYLINE
  5
F7F
  8
0
 66
     1
 10
0.0
 20
0.0
 30
0.0
 70
    64
 71
     4
 72
     2
  0
VERTEX
  5
F80
  8
0
 10
5.999999999998
 20
9.859312421100006
 30
-1895.0
 70
   192
  0
VERTEX
  5
F81
  8
0
 10
5.999999999998
 20
9.859312421100006
 30
-1900.0
 70
   192
  0
VERTEX
  5
F82
  8
0
 10
0.9999999999980005
 20
9.859312421100006
 30
-1900.0
 70
   192
  0
VERTEX
  5
F83
  8
0
 10
0.9999999999980005
 20
9.859312421100006
 30
-1895.0
 70
   192
  0
VERTEX
  5
F84
  8
0
 10
0.0
 20
0.0
 30
0.0
 70
   128
 71
     3
 72
     4
 73
    -1
  0
VERTEX
  5
F85
  8
0
 10
0.0
 20
0.0
 30
0.0
 70
   128
 71
     2
 72
    -3
 73
     1
  0
SEQEND
  5
1094
  8
0
  0
POLYLINE
  5
F86
  8
0
 66
     1
 10
0.0
 20
0.0
 30
0.0
 70
    64
 71
     4
 72
     2
  0
VERTEX
  5
F87
  8
0
 10
0.9999999999980005
 20
9.859312421100006
 30
-1895.0
 70
   192
  0
VERTEX
  5
F88
  8
0
 10
0.9999999999980005
 20
9.859312421100006
 30
-1900.0
 70
   192
  0
VERTEX
  5
F89
  8
0
 10
0.999999999998
 20
4.859312421099999
 30
-1900.0
 70
   192
  0
VERTEX
  5
F8A
  8
0
 10
0.999999999998
 20
4.859312421100002
 30
-1895.0
 70
   192
  0
VERTEX
  5
F8B
  8
0
 10
0.0
 20
0.0
 30
0.0
 70
   128
 71
     3
 72
     4
 73
    -1
  0
VERTEX
  5
F8C
  8
0
 10
0.0
 20
0.0
 30
0.0
 70
   128
 71
     2
 72
    -3
 73
     1
  0
SEQEND
  5
1095
  8
0
  0
POLYLINE
  5
F8D
  8
0
 66
     1
 10
0.0
 20
0.0
 30
0.0
 70
    64
 71
     4
 72
     2
  0
VERTEX
  5
F8E
  8
0
 10
37.799999999998
 20
-7.1406875789
 30
-1895.0
 70
   192
  0
VERTEX
  5
F8F
  8
0
 10
37.799999999998
 20
-7.1406875789
 30
-1900.0
 70
   192
  0
VERTEX
  5
F90
  8
0
 10
37.799999999998
 20
-10.9406875789
 30
-1900.0
 70
   192
  0
VERTEX
  5
F91
  8
0
 10
37.799999999998
 20
-10.9406875789
 30
-1895.0
 70
   192
  0
VERTEX
  5
F92
  8
0
 10
0.0
 20
0.0
 30
0.0
 70
   128
 71
     3
 72
     4
 73
    -1
  0
VERTEX
  5
F93
  8
0
 10
0.0
 20
0.0
 30
0.0
 70
   128
 71
     2
 72
    -3
 73
     1
  0
SEQEND
  5
1096
  8
0
  0
POLYLINE
  5
F94
  8
0
 66
     1
 10
0.0
 20
0.0
 30
0.0
 70
    64
 71
     4
 72
     2
  0
VERTEX
  5
F95
  8
0
 10
37.799999999998
 20
-10.9406875789
 30
-1895.0
 70
   192
  0
VERTEX
  5
F96
  8
0
 10
37.799999999998
 20
-10.9406875789
 30
-1900.0
 70
   192
  0
VERTEX
  5
F97
  8
0
 10
33.99999999999802
 20
-10.9406875789
 30
-1900.0
 70
   192
  0
VERTEX
  5
F98
  8
0
 10
33.99999999999801
 20
-10.9406875789
 30
-1895.0
 70
   192
  0
VERTEX
  5
F99
  8
0
 10
0.0
 20
0.0
 30
0.0
 70
   128
 71
     3
 72
     4
 73
    -1
  0
VERTEX
  5
F9A
  8
0
 10
0.0
 20
0.0
 30
0.0
 70
   128
 71
     2
 72
    -3
 73
     1
  0
SEQEND
  5
1097
  8
0
  0
POLYLINE
  5
F9B
  8
0
 66
     1
 10
0.0
 20
0.0
 30
0.0
 70
    64
 71
     4
 72
     2
  0
VERTEX
  5
F9C
  8
0
 10
33.99999999999801
 20
-12.1406875789
 30
-1895.0
 70
   192
  0
VERTEX
  5
F9D
  8
0
 10
33.99999999999801
 20
-12.1406875789
 30
-1900.0
 70
   192
  0
VERTEX
  5
F9E
  8
0
 10
38.999999999998
 20
-12.1406875789
 30
-1900.0
 70
   192
  0
VERTEX
  5
F9F
  8
0
 10
38.999999999998
 20
-12.1406875789
 30
-1895.0
 70
   192
  0
VERTEX
  5
FA0
  8
0
 10
0.0
 20
0.0
 30
0.0
 70
   128
 71
     3
 72
     4
 73
    -1
  0
VERTEX
  5
FA1
  8
0
 10
0.0
 20
0.0
 30
0.0
 70
   128
 71
     2
 72
    -3
 73
     1
  0
SEQEND
  5
1098
  8
0
  0
POLYLINE
  5
FA2
  8
0
 66
     1
 10
0.0
 20
0.0
 30
0.0
 70
    64
 71
     4
 72
     2
  0
VERTEX
  5
FA3
  8
0
 10
38.999999999998
 20
-12.1406875789
 30
-1895.0
 70
   192
  0
VERTEX
  5
FA4
  8
0
 10
38.999999999998
 20
-12.1406875789
 30
-1900.0
 70
   192
  0
VERTEX
  5
FA5
  8
0
 10
38.999999999998
 20
-7.140687578899999
 30
-1900.0
 70
   192
  0
VERTEX
  5
FA6
  8
0
 10
38.999999999998
 20
-7.1406875789
 30
-1895.0
 70
   192
  0
VERTEX
  5
FA7
  8
0
 10
0.0
 20
0.0
 30
0.0
 70
   128
 71
     3
 72
     4
 73
    -1
  0
VERTEX
  5
FA8
  8
0
 10
0.0
 20
0.0
 30
0.0
 70
   128
 71
     2
 72
    -3
 73
     1
  0
SEQEND
  5
1099
  8
0
  0
POLYLINE
  5
FA9
  8
0
 66
     1
 10
0.0
 20
0.0
 30
0.0
 70
    64
 71
     4
 72
     2
  0
VERTEX
  5
FAA
  8
0
 10
0.999999999998
 20
-7.1406875789
 30
-1895.0
 70
   192
  0
VERTEX
  5
FAB
  8
0
 10
0.999999999998
 20
-7.1406875789
 30
-1900.0
 70
   192
  0
VERTEX
  5
FAC
  8
0
 10
0.999999999998
 20
-12.1406875789
 30
-1900.0
 70
   192
  0
VERTEX
  5
FAD
  8
0
 10
0.999999999998
 20
-12.1406875789
 30
-1895.0
 70
   192
  0
VERTEX
  5
FAE
  8
0
 10
0.0
 20
0.0
 30
0.0
 70
   128
 71
     3
 72
     4
 73
    -1
  0
VERTEX
  5
FAF
  8
0
 10
0.0
 20
0.0
 30
0.0
 70
   128
 71
     2
 72
    -3
 73
     1
  0
SEQEND
  5
109A
  8
0
  0
POLYLINE
  5
FB0
  8
0
 66
     1
 10
0.0
 20
0.0
 30
0.0
 70
    64
 71
     4
 72
     2
  0
VERTEX
  5
FB1
  8
0
 10
0.999999999998
 20
-12.1406875789
 30
-1895.0
 70
   192
  0
VERTEX
  5
FB2
  8
0
 10
0.999999999998
 20
-12.1406875789
 30
-1900.0
 70
   192
  0
VERTEX
  5
FB3
  8
0
 10
5.999999999998
 20
-12.1406875789
 30
-1900.0
 70
   192
  0
VERTEX
  5
FB4
  8
0
 10
5.999999999998
 20
-12.1406875789
 30
-1895.0
 70
   192
  0
VERTEX
  5
FB5
  8
0
 10
0.0
 20
0.0
 30
0.0
 70
   128
 71
     3
 72
     4
 73
    -1
  0
VERTEX
  5
FB6
  8
0
 10
0.0
 20
0.0
 30
0.0
 70
   128
 71
     2
 72
    -3
 73
     1
  0
SEQEND
  5
109B
  8
0
  0
POLYLINE
  5
FB7
  8
0
 66
     1
 10
0.0
 20
0.0
 30
0.0
 70
    64
 71
     4
 72
     2
  0
VERTEX
  5
FB8
  8
0
 10
5.999999999998
 20
-10.9406875789
 30
-1895.0
 70
   192
  0
VERTEX
  5
FB9
  8
0
 10
5.999999999998
 20
-10.9406875789
 30
-1900.0
 70
   192
  0
VERTEX
  5
FBA
  8
0
 10
2.199999999998
 20
-10.9406875789
 30
-1900.0
 70
   192
  0
VERTEX
  5
FBB
  8
0
 10
2.199999999998
 20
-10.9406875789
 30
-1895.0
 70
   192
  0
VERTEX
  5
FBC
  8
0
 10
0.0
 20
0.0
 30
0.0
 70
   128
 71
     3
 72
     4
 73
    -1
  0
VERTEX
  5
FBD
  8
0
 10
0.0
 20
0.0
 30
0.0
 70
   128
 71
     2
 72
    -3
 73
     1
  0
SEQEND
  5
109C
  8
0
  0
POLYLINE
  5
FBE
  8
0
 66
     1
 10
0.0
 20
0.0
 30
0.0
 70
    64
 71
     4
 72
     2
  0
VERTEX
  5
FBF
  8
0
 10
2.199999999998
 20
-10.9406875789
 30
-1895.0
 70
   192
  0
VERTEX
  5
FC0
  8
0
 10
2.199999999998
 20
-10.9406875789
 30
-1900.0
 70
   192
  0
VERTEX
  5
FC1
  8
0
 10
2.199999999998
 20
-7.140687578899999
 30
-1900.0
 70
   192
  0
VERTEX
  5
FC2
  8
0
 10
2.199999999998
 20
-7.1406875789
 30
-1895.0
 70
   192
  0
VERTEX
  5
FC3
  8
0
 10
0.0
 20
0.0
 30
0.0
 70
   128
 71
     3
 72
     4
 73
    -1
  0
VERTEX
  5
FC4
  8
0
 10
0.0
 20
0.0
 30
0.0
 70
   128
 71
     2
 72
    -3
 73
     1
  0
SEQEND
  5
109D
  8
0
  0
POLYLINE
  5
FC5
  8
0
 66
     1
 10
0.0
 20
0.0
 30
0.0
 70
    64
 71
     4
 72
     2
  0
VERTEX
  5
FC6
  8
0
 10
33.99999999999801
 20
9.859312421100006
 30
-1895.0
 70
   192
  0
VERTEX
  5
FC7
  8
0
 10
33.99999999999801
 20
9.859312421100006
 30
-1900.0
 70
   192
  0
VERTEX
  5
FC8
  8
0
 10
33.99999999999801
 20
8.6593124211
 30
-1900.0
 70
   192
  0
VERTEX
  5
FC9
  8
0
 10
33.99999999999801
 20
8.6593124211
 30
-1895.0
 70
   192
  0
VERTEX
  5
FCA
  8
0
 10
0.0
 20
0.0
 30
0.0
 70
   128
 71
     3
 72
     4
 73
    -1
  0
VERTEX
  5
FCB
  8
0
 10
0.0
 20
0.0
 30
0.0
 70
   128
 71
     2
 72
    -3
 73
     1
  0
SEQEND
  5
109E
  8
0
  0
POLYLINE
  5
FCC
  8
0
 66
     1
 10
0.0
 20
0.0
 30
0.0
 70
    64
 71
     6
 72
     4
  0
VERTEX
  5
FCD
  8
0
 10
38.999999999998
 20
9.859312421100006
 30
-1895.0
 70
   192
  0
VERTEX
  5
FCE
  8
0
 10
33.99999999999801
 20
9.859312421100006
 30
-1895.0
 70
   192
  0
VERTEX
  5
FCF
  8
0
 10
33.99999999999801
 20
8.6593124211
 30
-1895.0
 70
   192
  0
VERTEX
  5
FD0
  8
0
 10
37.799999999998
 20
8.6593124211
 30
-1895.0
 70
   192
  0
VERTEX
  5
FD1
  8
0
 10
37.799999999998
 20
4.859312421100002
 30
-1895.0
 70
   192
  0
VERTEX
  5
FD2
  8
0
 10
38.999999999998
 20
4.859312421100002
 30
-1895.0
 70
   192
  0
VERTEX
  5
FD3
  8
0
 10
0.0
 20
0.0
 30
0.0
 70
   128
 71
     2
 72
     3
 73
    -4
  0
VERTEX
  5
FD4
  8
0
 10
0.0
 20
0.0
 30
0.0
 70
   128
 71
     1
 72
    -2
 73
    -4
  0
VERTEX
  5
FD5
  8
0
 10
0.0
 20
0.0
 30
0.0
 70
   128
 71
     5
 72
     6
 73
    -1
  0
VERTEX
  5
FD6
  8
0
 10
0.0
 20
0.0
 30
0.0
 70
   128
 71
     4
 72
    -5
 73
    -1
  0
SEQEND
  5
109F
  8
0
  0
POLYLINE
  5
FD7
  8
0
 66
     1
 10
0.0
 20
0.0
 30
0.0
 70
    64
 71
     4
 72
     2
  0
VERTEX
  5
FD8
  8
0
 10
37.799999999998
 20
4.859312421100002
 30
-1895.0
 70
   192
  0
VERTEX
  5
FD9
  8
0
 10
37.799999999998
 20
4.859312421100002
 30
-1900.0
 70
   192
  0
VERTEX
  5
FDA
  8
0
 10
38.999999999998
 20
4.859312421100002
 30
-1900.0
 70
   192
  0
VERTEX
  5
FDB
  8
0
 10
38.999999999998
 20
4.859312421100002
 30
-1895.0
 70
   192
  0
VERTEX
  5
FDC
  8
0
 10
0.0
 20
0.0
 30
0.0
 70
   128
 71
     3
 72
     4
 73
    -1
  0
VERTEX
  5
FDD
  8
0
 10
0.0
 20
0.0
 30
0.0
 70
   128
 71
     2
 72
    -3
 73
     1
  0
SEQEND
  5
10A0
  8
0
  0
POLYLINE
  5
FDE
  8
0
 66
     1
 10
0.0
 20
0.0
 30
0.0
 70
    64
 71
     4
 72
     2
  0
VERTEX
  5
FDF
  8
0
 10
0.999999999998
 20
4.859312421100002
 30
-1895.0
 70
   192
  0
VERTEX
  5
FE0
  8
0
 10
0.999999999998
 20
4.859312421100002
 30
-1900.0
 70
   192
  0
VERTEX
  5
FE1
  8
0
 10
2.199999999998
 20
4.859312421100002
 30
-1900.0
 70
   192
  0
VERTEX
  5
FE2
  8
0
 10
2.199999999998
 20
4.859312421100002
 30
-1895.0
 70
   192
  0
VERTEX
  5
FE3
  8
0
 10
0.0
 20
0.0
 30
0.0
 70
   128
 71
     3
 72
     4
 73
    -1
  0
VERTEX
  5
FE4
  8
0
 10
0.0
 20
0.0
 30
0.0
 70
   128
 71
     2
 72
    -3
 73
     1
  0
SEQEND
  5
10A1
  8
0
  0
POLYLINE
  5
FE5
  8
0
 66
     1
 10
0.0
 20
0.0
 30
0.0
 70
    64
 71
     6
 72
     4
  0
VERTEX
  5
FE6
  8
0
 10
0.999999999998
 20
9.859312421100006
 30
-1895.0
 70
   192
  0
VERTEX
  5
FE7
  8
0
 10
0.999999999998
 20
4.859312421100002
 30
-1895.0
 70
   192
  0
VERTEX
  5
FE8
  8
0
 10
2.199999999998
 20
4.859312421100002
 30
-1895.0
 70
   192
  0
VERTEX
  5
FE9
  8
0
 10
2.199999999998
 20
8.6593124211
 30
-1895.0
 70
   192
  0
VERTEX
  5
FEA
  8
0
 10
5.999999999998
 20
8.6593124211
 30
-1895.0
 70
   192
  0
VERTEX
  5
FEB
  8
0
 10
5.999999999998
 20
9.859312421100006
 30
-1895.0
 70
   192
  0
VERTEX
  5
FEC
  8
0
 10
0.0
 20
0.0
 30
0.0
 70
   128
 71
     2
 72
     3
 73
    -4
  0
VERTEX
  5
FED
  8
0
 10
0.0
 20
0.0
 30
0.0
 70
   128
 71
     1
 72
    -2
 73
    -4
  0
VERTEX
  5
FEE
  8
0
 10
0.0
 20
0.0
 30
0.0
 70
   128
 71
     5
 72
     6
 73
    -1
  0
VERTEX
  5
FEF
  8
0
 10
0.0
 20
0.0
 30
0.0
 70
   128
 71
     4
 72
    -5
 73
    -1
  0
SEQEND
  5
10A2
  8
0
  0
POLYLINE
  5
FF0
  8
0
 66
     1
 10
0.0
 20
0.0
 30
0.0
 70
    64
 71
     4
 72
     2
  0
VERTEX
  5
FF1
  8
0
 10
5.999999999998
 20
8.6593124211
 30
-1895.0
 70
   192
  0
VERTEX
  5
FF2
  8
0
 10
5.999999999998
 20
8.6593124211
 30
-1900.0
 70
   192
  0
VERTEX
  5
FF3
  8
0
 10
5.999999999998
 20
9.859312421100006
 30
-1900.0
 70
   192
  0
VERTEX
  5
FF4
  8
0
 10
5.999999999998
 20
9.859312421100006
 30
-1895.0
 70
   192
  0
VERTEX
  5
FF5
  8
0
 10
0.0
 20
0.0
 30
0.0
 70
   128
 71
     3
 72
     4
 73
    -1
  0
VERTEX
  5
FF6
  8
0
 10
0.0
 20
0.0
 30
0.0
 70
   128
 71
     2
 72
    -3
 73
     1
  0
SEQEND
  5
10A3
  8
0
  0
POLYLINE
  5
FF7
  8
0
 66
     1
 10
0.0
 20
0.0
 30
0.0
 70
    64
 71
     4
 72
     2
  0
VERTEX
  5
FF8
  8
0
 10
38.999999999998
 20
-7.1406875789
 30
-1895.0
 70
   192
  0
VERTEX
  5
FF9
  8
0
 10
38.999999999998
 20
-7.1406875789
 30
-1900.0
 70
   192
  0
VERTEX
  5
FFA
  8
0
 10
37.799999999998
 20
-7.1406875789
 30
-1900.0
 70
   192
  0
VERTEX
  5
FFB
  8
0
 10
37.799999999998
 20
-7.1406875789
 30
-1895.0
 70
   192
  0
VERTEX
  5
FFC
  8
0
 10
0.0
 20
0.0
 30
0.0
 70
   128
 71
     3
 72
     4
 73
    -1
  0
VERTEX
  5
FFD
  8
0
 10
0.0
 20
0.0
 30
0.0
 70
   128
 71
     2
 72
    -3
 73
     1
  0
SEQEND
  5
10A4
  8
0
  0
POLYLINE
  5
FFE
  8
0
 66
     1
 10
0.0
 20
0.0
 30
0.0
 70
    64
 71
     6
 72
     4
  0
VERTEX
  5
FFF
  8
0
 10
38.999999999998
 20
-12.1406875789
 30
-1895.0
 70
   192
  0
VERTEX
  5
1000
  8
0
 10
38.999999999998
 20
-7.1406875789
 30
-1895.0
 70
   192
  0
VERTEX
  5
1001
  8
0
 10
37.799999999998
 20
-7.1406875789
 30
-1895.0
 70
   192
  0
VERTEX
  5
1002
  8
0
 10
37.799999999998
 20
-10.9406875789
 30
-1895.0
 70
   192
  0
VERTEX
  5
1003
  8
0
 10
33.99999999999801
 20
-10.9406875789
 30
-1895.0
 70
   192
  0
VERTEX
  5
1004
  8
0
 10
33.99999999999801
 20
-12.1406875789
 30
-1895.0
 70
   192
  0
VERTEX
  5
1005
  8
0
 10
0.0
 20
0.0
 30
0.0
 70
   128
 71
     2
 72
     3
 73
    -4
  0
VERTEX
  5
1006
  8
0
 10
0.0
 20
0.0
 30
0.0
 70
   128
 71
     1
 72
    -2
 73
    -4
  0
VERTEX
  5
1007
  8
0
 10
0.0
 20
0.0
 30
0.0
 70
   128
 71
     5
 72
     6
 73
    -1
  0
VERTEX
  5
1008
  8
0
 10
0.0
 20
0.0
 30
0.0
 70
   128
 71
     4
 72
    -5
 73
    -1
  0
SEQEND
  5
10A5
  8
0
  0
POLYLINE
  5
1009
  8
0
 66
     1
 10
0.0
 20
0.0
 30
0.0
 70
    64
 71
     4
 72
     2
  0
VERTEX
  5
100A
  8
0
 10
33.99999999999801
 20
-10.9406875789
 30
-1895.0
 70
   192
  0
VERTEX
  5
100B
  8
0
 10
33.99999999999801
 20
-10.9406875789
 30
-1900.0
 70
   192
  0
VERTEX
  5
100C
  8
0
 10
33.99999999999801
 20
-12.1406875789
 30
-1900.0
 70
   192
  0
VERTEX
  5
100D
  8
0
 10
33.99999999999801
 20
-12.1406875789
 30
-1895.0
 70
   192
  0
VERTEX
  5
100E
  8
0
 10
0.0
 20
0.0
 30
0.0
 70
   128
 71
     3
 72
     4
 73
    -1
  0
VERTEX
  5
100F
  8
0
 10
0.0
 20
0.0
 30
0.0
 70
   128
 71
     2
 72
    -3
 73
     1
  0
SEQEND
  5
10A6
  8
0
  0
POLYLINE
  5
1010
  8
0
 66
     1
 10
0.0
 20
0.0
 30
0.0
 70
    64
 71
     4
 72
     2
  0
VERTEX
  5
1011
  8
0
 10
2.199999999998
 20
-7.1406875789
 30
-1895.0
 70
   192
  0
VERTEX
  5
1012
  8
0
 10
2.199999999998
 20
-7.1406875789
 30
-1900.0
 70
   192
  0
VERTEX
  5
1013
  8
0
 10
0.999999999998
 20
-7.1406875789
 30
-1900.0
 70
   192
  0
VERTEX
  5
1014
  8
0
 10
0.999999999998
 20
-7.1406875789
 30
-1895.0
 70
   192
  0
VERTEX
  5
1015
  8
0
 10
0.0
 20
0.0
 30
0.0
 70
   128
 71
     3
 72
     4
 73
    -1
  0
VERTEX
  5
1016
  8
0
 10
0.0
 20
0.0
 30
0.0
 70
   128
 71
     2
 72
    -3
 73
     1
  0
SEQEND
  5
10A7
  8
0
  0
POLYLINE
  5
1017
  8
0
 66
     1
 10
0.0
 20
0.0
 30
0.0
 70
    64
 71
     6
 72
     4
  0
VERTEX
  5
1018
  8
0
 10
2.199999999998
 20
-7.1406875789
 30
-1895.0
 70
   192
  0
VERTEX
  5
1019
  8
0
 10
0.999999999998
 20
-7.1406875789
 30
-1895.0
 70
   192
  0
VERTEX
  5
101A
  8
0
 10
0.999999999998
 20
-12.1406875789
 30
-1895.0
 70
   192
  0
VERTEX
  5
101B
  8
0
 10
5.999999999998
 20
-12.1406875789
 30
-1895.0
 70
   192
  0
VERTEX
  5
101C
  8
0
 10
5.999999999998
 20
-10.9406875789
 30
-1895.0
 70
   192
  0
VERTEX
  5
101D
  8
0
 10
2.199999999998
 20
-10.9406875789
 30
-1895.0
 70
   192
  0
VERTEX
  5
101E
  8
0
 10
0.0
 20
0.0
 30
0.0
 70
   128
 71
     4
 72
     5
 73
    -6
  0
VERTEX
  5
101F
  8
0
 10
0.0
 20
0.0
 30
0.0
 70
   128
 71
     3
 72
    -4
 73
    -6
  0
VERTEX
  5
1020
  8
0
 10
0.0
 20
0.0
 30
0.0
 70
   128
 71
     1
 72
     2
 73
    -3
  0
VERTEX
  5
1021
  8
0
 10
0.0
 20
0.0
 30
0.0
 70
   128
 71
     6
 72
    -1
 73
    -3
  0
SEQEND
  5
10A8
  8
0
  0
POLYLINE
  5
1022
  8
0
 66
     1
 10
0.0
 20
0.0
 30
0.0
 70
    64
 71
     4
 72
     2
  0
VERTEX
  5
1023
  8
0
 10
5.999999999998
 20
-12.1406875789
 30
-1895.0
 70
   192
  0
VERTEX
  5
1024
  8
0
 10
5.999999999998
 20
-12.1406875789
 30
-1900.0
 70
   192
  0
VERTEX
  5
1025
  8
0
 10
5.999999999998
 20
-10.9406875789
 30
-1900.0
 70
   192
  0
VERTEX
  5
1026
  8
0
 10
5.999999999998
 20
-10.9406875789
 30
-1895.0
 70
   192
  0
VERTEX
  5
1027
  8
0
 10
0.0
 20
0.0
 30
0.0
 70
   128
 71
     3
 72
     4
 73
    -1
  0
VERTEX
  5
1028
  8
0
 10
0.0
 20
0.0
 30
0.0
 70
   128
 71
     2
 72
    -3
 73
     1
  0
SEQEND
  5
10A9
  8
0
  0
ENDBLK
  5
1073
  8
0
  0
ENDSEC
  0
SECTION
  2
ENTITIES
  0
INSERT
  5
BF
  8
0
  2
*X1
 10
0.0
 20
0.0
 30
0.0
  0
INSERT
  5
C0
  8
0
  2
*X2
 10
0.0
 20
0.0
 30
0.0
  0
ENDSEC
  0
EOF
