  0
SECTION
  2
HEADER
  9
$ACADVER
  1
AC1009
  9
$DWGCODEPAGE
  3
ansi_1250
  9
$INSBASE
 10
0.0
 20
0.0
 30
0.0
  9
$EXTMIN
 10
-400.0
 20
-400.0000000000003
 30
-25.00000000000011
  9
$EXTMAX
 10
400.0000000000001
 20
400.0000000000001
 30
0.0000000000002061
  9
$LIMMIN
 10
0.0
 20
0.0
  9
$LIMMAX
 10
420.0
 20
297.0
  9
$ORTHOMODE
 70
     0
  9
$REGENMODE
 70
     1
  9
$FILLMODE
 70
     1
  9
$QTEXTMODE
 70
     0
  9
$MIRRTEXT
 70
     0
  9
$DRAGMODE
 70
     2
  9
$LTSCALE
 40
1.0
  9
$OSMODE
 70
   511
  9
$ATTMODE
 70
     1
  9
$TEXTSIZE
 40
2.5
  9
$TRACEWID
 40
1.0
  9
$TEXTSTYLE
  7
STANDARD
  9
$CLAYER
  8
0
  9
$CELTYPE
  6
BYLAYER
  9
$CECOLOR
 62
   256
  9
$DIMSCALE
 40
1.0
  9
$DIMASZ
 40
2.5
  9
$DIMEXO
 40
0.625
  9
$DIMDLI
 40
3.75
  9
$DIMRND
 40
0.0
  9
$DIMDLE
 40
0.0
  9
$DIMEXE
 40
1.25
  9
$DIMTP
 40
0.0
  9
$DIMTM
 40
0.0
  9
$DIMTXT
 40
2.5
  9
$DIMCEN
 40
-2.5
  9
$DIMTSZ
 40
0.0
  9
$DIMTOL
 70
     0
  9
$DIMLIM
 70
     0
  9
$DIMTIH
 70
     0
  9
$DIMTOH
 70
     0
  9
$DIMSE1
 70
     0
  9
$DIMSE2
 70
     0
  9
$DIMTAD
 70
     1
  9
$DIMZIN
 70
     8
  9
$DIMBLK
  1

  9
$DIMASO
 70
     1
  9
$DIMSHO
 70
     1
  9
$DIMPOST
  1

  9
$DIMAPOST
  1

  9
$DIMALT
 70
     0
  9
$DIMALTD
 70
     3
  9
$DIMALTF
 40
0.03937007874016
  9
$DIMLFAC
 40
1.0
  9
$DIMTOFL
 70
     1
  9
$DIMTVP
 40
0.0
  9
$DIMTIX
 70
     0
  9
$DIMSOXD
 70
     0
  9
$DIMSAH
 70
     0
  9
$DIMBLK1
  1

  9
$DIMBLK2
  1

  9
$DIMSTYLE
  2
ISO-25
  9
$DIMCLRD
 70
     0
  9
$DIMCLRE
 70
     0
  9
$DIMCLRT
 70
     0
  9
$DIMTFAC
 40
1.0
  9
$DIMGAP
 40
0.625
  9
$LUNITS
 70
     2
  9
$LUPREC
 70
     3
  9
$SKETCHINC
 40
1.0
  9
$FILLETRAD
 40
10.0
  9
$AUNITS
 70
     0
  9
$AUPREC
 70
     0
  9
$MENU
  1
.
  9
$ELEVATION
 40
0.0
  9
$PELEVATION
 40
0.0
  9
$THICKNESS
 40
0.0
  9
$LIMCHECK
 70
     0
  9
$CHAMFERA
 40
10.0
  9
$CHAMFERB
 40
10.0
  9
$SKPOLY
 70
     0
  9
$TDCREATE
 40
2455022.720692848
  9
$TDUPDATE
 40
2460521.494147419
  9
$TDINDWG
 40
0.164866169
  9
$TDUSRTIMER
 40
0.164866169
  9
$USRTIMER
 70
     1
  9
$ANGBASE
 50
0.0
  9
$ANGDIR
 70
     0
  9
$PDMODE
 70
     0
  9
$PDSIZE
 40
0.0
  9
$PLINEWID
 40
0.0
  9
$COORDS
 70
     1
  9
$SPLFRAME
 70
     0
  9
$SPLINETYPE
 70
     6
  9
$SPLINESEGS
 70
     8
  9
$ATTDIA
 70
     0
  9
$ATTREQ
 70
     1
  9
$HANDLING
 70
     1
  9
$HANDSEED
  5
43F9
  9
$SURFTAB1
 70
     6
  9
$SURFTAB2
 70
     6
  9
$SURFTYPE
 70
     6
  9
$SURFU
 70
     6
  9
$SURFV
 70
     6
  9
$UCSNAME
  2

  9
$UCSORG
 10
0.0
 20
0.0
 30
0.0
  9
$UCSXDIR
 10
1.0
 20
0.0
 30
0.0
  9
$UCSYDIR
 10
0.0
 20
1.0
 30
0.0
  9
$PUCSNAME
  2

  9
$PUCSORG
 10
0.0
 20
0.0
 30
0.0
  9
$PUCSXDIR
 10
1.0
 20
0.0
 30
0.0
  9
$PUCSYDIR
 10
0.0
 20
1.0
 30
0.0
  9
$USERI1
 70
     0
  9
$USERI2
 70
     0
  9
$USERI3
 70
     0
  9
$USERI4
 70
     0
  9
$USERI5
 70
     0
  9
$USERR1
 40
0.0
  9
$USERR2
 40
0.0
  9
$USERR3
 40
0.0
  9
$USERR4
 40
0.0
  9
$USERR5
 40
0.0
  9
$WORLDVIEW
 70
     1
  9
$SHADEDGE
 70
     3
  9
$SHADEDIF
 70
    70
  9
$TILEMODE
 70
     1
  9
$MAXACTVP
 70
    64
  9
$PLIMCHECK
 70
     0
  9
$PEXTMIN
 10
1.000000000000000E+20
 20
1.000000000000000E+20
 30
1.000000000000000E+20
  9
$PEXTMAX
 10
-1.000000000000000E+20
 20
-1.000000000000000E+20
 30
-1.000000000000000E+20
  9
$PLIMMIN
 10
0.0
 20
0.0
  9
$PLIMMAX
 10
0.0
 20
0.0
  9
$UNITMODE
 70
     0
  9
$VISRETAIN
 70
     1
  9
$PLINEGEN
 70
     0
  9
$PSLTSCALE
 70
     1
  0
ENDSEC
  0
SECTION
  2
TABLES
  0
TABLE
  2
VPORT
 70
     1
  0
VPORT
  2
*ACTIVE
 70
     0
 10
0.0
 20
0.0
 11
1.0
 21
1.0
 12
-116.6110757937285
 22
90.81470093901663
 13
0.0
 23
0.0
 14
10.0
 24
10.0
 15
10.0
 25
10.0
 16
0.5773502691896262
 26
0.5773502691896262
 36
0.5773502691896262
 17
-41.66599977993164
 27
123.2469651304761
 37
-82.93435654674934
 40
770.3645241053097
 41
1.88293897882939
 42
50.0
 43
0.0
 44
0.0
 50
0.0
 51
0.0
 71
    16
 72
  1000
 73
     1
 74
     3
 75
     0
 76
     0
 77
     0
 78
     0
  0
ENDTAB
  0
TABLE
  2
LTYPE
 70
     1
  0
LTYPE
  2
CONTINUOUS
 70
     0
  3
Solid line
 72
    65
 73
     0
 40
0.0
  0
ENDTAB
  0
TABLE
  2
LAYER
 70
     1
  0
LAYER
  2
0
 70
     0
 62
     7
  6
CONTINUOUS
  0
ENDTAB
  0
TABLE
  2
STYLE
 70
     2
  0
STYLE
  2
STANDARD
 70
     0
 40
0.0
 41
1.0
 50
0.0
 71
     0
 42
2.5
  3
arial.ttf
  4

  0
STYLE
  2
ANNOTATIVE
 70
     0
 40
0.0
 41
1.0
 50
0.0
 71
     0
 42
2.5
  3
arial.ttf
  4

  0
ENDTAB
  0
TABLE
  2
VIEW
 70
     0
  0
ENDTAB
  0
TABLE
  2
UCS
 70
     0
  0
ENDTAB
  0
TABLE
  2
APPID
 70
     2
  0
APPID
  2
ACAD
 70
     0
  0
APPID
  2
ACADANNOTATIVE
 70
     0
  0
ENDTAB
  0
TABLE
  2
DIMSTYLE
 70
     2
  0
DIMSTYLE
  2
ISO-25
 70
     0
  3

  4

  5

  6

  7

 40
1.0
 41
2.5
 42
0.625
 43
3.75
 44
1.25
 45
0.0
 46
0.0
 47
0.0
 48
0.0
140
2.5
141
-2.5
142
0.0
143
0.03937007874016
144
1.0
145
0.0
146
1.0
147
0.625
 71
     0
 72
     0
 73
     0
 74
     0
 75
     0
 76
     0
 77
     1
 78
     8
170
     0
171
     3
172
     1
173
     0
174
     0
175
     0
176
     0
177
     0
178
     0
  0
DIMSTYLE
  2
ANNOTATIVE
 70
     0
  3

  4

  5

  6

  7

 40
0.0
 41
2.5
 42
0.625
 43
3.75
 44
1.25
 45
0.0
 46
0.0
 47
0.0
 48
0.0
140
2.5
141
-2.5
142
0.0
143
0.03937007874016
144
1.0
145
0.0
146
1.0
147
0.625
 71
     0
 72
     0
 73
     0
 74
     0
 75
     0
 76
     0
 77
     1
 78
     8
170
     0
171
     3
172
     1
173
     0
174
     0
175
     0
176
     0
177
     0
178
     0
  0
ENDTAB
  0
ENDSEC
  0
SECTION
  2
BLOCKS
  0
BLOCK
  8
0
  2
$MODEL_SPACE
 70
     0
 10
0.0
 20
0.0
 30
0.0
  3
$MODEL_SPACE
  1

  0
ENDBLK
  5
21
  8
0
  0
BLOCK
 67
     1
  8
0
  2
$PAPER_SPACE
 70
     0
 10
0.0
 20
0.0
 30
0.0
  3
$PAPER_SPACE
  1

  0
ENDBLK
  5
1D
 67
     1
  8
0
  0
BLOCK
  8
0
  2
*X1
 70
     1
 10
0.0
 20
0.0
 30
0.0
  3
*X1
  1

  0
POLYLINE
  5
3D9D
  8
0
 66
     1
 10
0.0
 20
0.0
 30
0.0
 70
    64
 71
     8
 72
     6
  0
VERTEX
  5
3D9E
  8
0
 10
362.5878054803849
 20
-158.248830333832
 30
0.0
 70
   192
  0
VERTEX
  5
3D9F
  8
0
 10
362.5878054803849
 20
-158.248830333832
 30
-0.5
 70
   192
  0
VERTEX
  5
3DA0
  8
0
 10
371.8921935074385
 20
-79.36742857561077
 30
-0.5
 70
   192
  0
VERTEX
  5
3DA1
  8
0
 10
371.8921935074385
 20
-79.36742857561077
 30
0.0
 70
   192
  0
VERTEX
  5
3DA2
  8
0
 10
347.1438137267598
 20
-236.1611547672221
 30
0.0
 70
   192
  0
VERTEX
  5
3DA3
  8
0
 10
347.1438137267598
 20
-236.1611547672224
 30
-0.5
 70
   192
  0
VERTEX
  5
3DA4
  8
0
 10
375.0
 20
-0.0000000000000272
 30
-0.5
 70
   192
  0
VERTEX
  5
3DA5
  8
0
 10
375.0
 20
-0.0000000000000272
 30
0.0
 70
   192
  0
VERTEX
  5
3DA6
  8
0
 10
0.0
 20
0.0
 30
0.0
 70
   128
 71
     1
 72
     2
 73
    -3
  0
VERTEX
  5
3DA7
  8
0
 10
0.0
 20
0.0
 30
0.0
 70
   128
 71
    -1
 72
     3
 73
     4
  0
VERTEX
  5
3DA8
  8
0
 10
0.0
 20
0.0
 30
0.0
 70
   128
 71
     5
 72
     6
 73
    -2
  0
VERTEX
  5
3DA9
  8
0
 10
0.0
 20
0.0
 30
0.0
 70
   128
 71
    -5
 72
     2
 73
     1
  0
VERTEX
  5
3DAA
  8
0
 10
0.0
 20
0.0
 30
0.0
 70
   128
 71
     4
 72
     3
 73
    -7
  0
VERTEX
  5
3DAB
  8
0
 10
0.0
 20
0.0
 30
0.0
 70
   128
 71
    -4
 72
     7
 73
     8
  0
SEQEND
  5
439A
  8
0
  0
POLYLINE
  5
3DAC
  8
0
 66
     1
 10
0.0
 20
0.0
 30
0.0
 70
    64
 71
     8
 72
     6
  0
VERTEX
  5
3DAD
  8
0
 10
377.4043740342819
 20
160.587482998864
 30
-0.5
 70
   192
  0
VERTEX
  5
3DAE
  8
0
 10
386.8462653326715
 20
80.54034623928973
 30
-0.5
 70
   192
  0
VERTEX
  5
3DAF
  8
0
 10
386.8462653326715
 20
80.54034623928973
 30
0.0
 70
   192
  0
VERTEX
  5
3DB0
  8
0
 10
377.4043740342819
 20
160.587482998864
 30
0.0
 70
   192
  0
VERTEX
  5
3DB1
  8
0
 10
389.9999999999998
 20
-0.0000000000000272
 30
-0.5
 70
   192
  0
VERTEX
  5
3DB2
  8
0
 10
389.9999999999999
 20
-0.0000000000000272
 30
0.0
 70
   192
  0
VERTEX
  5
3DB3
  8
0
 10
361.7321459493226
 20
239.6512210938313
 30
-0.5
 70
   192
  0
VERTEX
  5
3DB4
  8
0
 10
361.7321459493226
 20
239.6512210938313
 30
0.0
 70
   192
  0
VERTEX
  5
3DB5
  8
0
 10
0.0
 20
0.0
 30
0.0
 70
   128
 71
     1
 72
     2
 73
    -3
  0
VERTEX
  5
3DB6
  8
0
 10
0.0
 20
0.0
 30
0.0
 70
   128
 71
     4
 72
    -1
 73
     3
  0
VERTEX
  5
3DB7
  8
0
 10
0.0
 20
0.0
 30
0.0
 70
   128
 71
     2
 72
     5
 73
    -6
  0
VERTEX
  5
3DB8
  8
0
 10
0.0
 20
0.0
 30
0.0
 70
   128
 71
     3
 72
    -2
 73
     6
  0
VERTEX
  5
3DB9
  8
0
 10
0.0
 20
0.0
 30
0.0
 70
   128
 71
     7
 72
     1
 73
    -4
  0
VERTEX
  5
3DBA
  8
0
 10
0.0
 20
0.0
 30
0.0
 70
   128
 71
     8
 72
    -7
 73
     4
  0
SEQEND
  5
439B
  8
0
  0
POLYLINE
  5
3DBB
  8
0
 66
     1
 10
0.0
 20
0.0
 30
0.0
 70
    64
 71
     8
 72
     6
  0
VERTEX
  5
3DBC
  8
0
 10
372.4655178496498
 20
159.8079321105206
 30
-25.0
 70
   192
  0
VERTEX
  5
3DBD
  8
0
 10
381.8615747242608
 20
80.14937368473024
 30
-25.0
 70
   192
  0
VERTEX
  5
3DBE
  8
0
 10
381.8615747242608
 20
80.14937368473024
 30
-15.0
 70
   192
  0
VERTEX
  5
3DBF
  8
0
 10
372.4655178496498
 20
159.8079321105206
 30
-15.0
 70
   192
  0
VERTEX
  5
3DC0
  8
0
 10
385.0000000000002
 20
0.0000000000000983
 30
-25.0
 70
   192
  0
VERTEX
  5
3DC1
  8
0
 10
385.0000000000002
 20
-0.0000000000000272
 30
-15.0
 70
   192
  0
VERTEX
  5
3DC2
  8
0
 10
356.8693685418019
 20
238.487865651629
 30
-25.0
 70
   192
  0
VERTEX
  5
3DC3
  8
0
 10
356.8693685418019
 20
238.487865651629
 30
-15.0
 70
   192
  0
VERTEX
  5
3DC4
  8
0
 10
0.0
 20
0.0
 30
0.0
 70
   128
 71
     1
 72
     2
 73
    -3
  0
VERTEX
  5
3DC5
  8
0
 10
0.0
 20
0.0
 30
0.0
 70
   128
 71
     4
 72
    -1
 73
     3
  0
VERTEX
  5
3DC6
  8
0
 10
0.0
 20
0.0
 30
0.0
 70
   128
 71
     2
 72
     5
 73
    -6
  0
VERTEX
  5
3DC7
  8
0
 10
0.0
 20
0.0
 30
0.0
 70
   128
 71
     3
 72
    -2
 73
     6
  0
VERTEX
  5
3DC8
  8
0
 10
0.0
 20
0.0
 30
0.0
 70
   128
 71
     7
 72
     1
 73
    -4
  0
VERTEX
  5
3DC9
  8
0
 10
0.0
 20
0.0
 30
0.0
 70
   128
 71
     8
 72
    -7
 73
     4
  0
SEQEND
  5
439C
  8
0
  0
POLYLINE
  5
3DCA
  8
0
 66
     1
 10
0.0
 20
0.0
 30
0.0
 70
    64
 71
     8
 72
     6
  0
VERTEX
  5
3DCB
  8
0
 10
387.2820864035471
 20
-162.146584775552
 30
0.0
 70
   192
  0
VERTEX
  5
3DCC
  8
0
 10
387.2820864035471
 20
-162.146584775552
 30
-25.0
 70
   192
  0
VERTEX
  5
3DCD
  8
0
 10
396.8156465494937
 20
-81.32229134840901
 30
-25.0
 70
   192
  0
VERTEX
  5
3DCE
  8
0
 10
396.8156465494937
 20
-81.32229134840901
 30
0.0
 70
   192
  0
VERTEX
  5
3DCF
  8
0
 10
371.4577007643649
 20
-241.9779319782375
 30
0.0
 70
   192
  0
VERTEX
  5
3DD0
  8
0
 10
371.4577007643648
 20
-241.977931978238
 30
-25.0
 70
   192
  0
VERTEX
  5
3DD1
  8
0
 10
400.0
 20
0.0000000000001001
 30
-25.0
 70
   192
  0
VERTEX
  5
3DD2
  8
0
 10
400.0000000000001
 20
-0.0000000000000272
 30
0.0
 70
   192
  0
VERTEX
  5
3DD3
  8
0
 10
0.0
 20
0.0
 30
0.0
 70
   128
 71
     1
 72
     2
 73
    -3
  0
VERTEX
  5
3DD4
  8
0
 10
0.0
 20
0.0
 30
0.0
 70
   128
 71
    -1
 72
     3
 73
     4
  0
VERTEX
  5
3DD5
  8
0
 10
0.0
 20
0.0
 30
0.0
 70
   128
 71
     5
 72
     6
 73
    -2
  0
VERTEX
  5
3DD6
  8
0
 10
0.0
 20
0.0
 30
0.0
 70
   128
 71
    -5
 72
     2
 73
     1
  0
VERTEX
  5
3DD7
  8
0
 10
0.0
 20
0.0
 30
0.0
 70
   128
 71
     4
 72
     3
 73
    -7
  0
VERTEX
  5
3DD8
  8
0
 10
0.0
 20
0.0
 30
0.0
 70
   128
 71
    -4
 72
     7
 73
     8
  0
SEQEND
  5
439D
  8
0
  0
POLYLINE
  5
3DD9
  8
0
 66
     1
 10
0.0
 20
0.0
 30
0.0
 70
    64
 71
    54
 72
    54
  0
VERTEX
  5
3DDA
  8
0
 10
241.9779319782375
 20
371.457700764365
 30
0.0
 70
   192
  0
VERTEX
  5
3DDB
  8
0
 10
300.3433029034138
 20
345.5088761874746
 30
0.0
 70
   192
  0
VERTEX
  5
3DDC
  8
0
 10
345.5088761874742
 20
300.3433029034144
 30
0.0
 70
   192
  0
VERTEX
  5
3DDD
  8
0
 10
371.4577007643646
 20
241.9779319782381
 30
0.0
 70
   192
  0
VERTEX
  5
3DDE
  8
0
 10
387.2820864035468
 20
162.1465847755526
 30
0.0
 70
   192
  0
VERTEX
  5
3DDF
  8
0
 10
396.8156465494937
 20
81.3222913484092
 30
0.0
 70
   192
  0
VERTEX
  5
3DE0
  8
0
 10
400.0
 20
0.0000000000001001
 30
0.0
 70
   192
  0
VERTEX
  5
3DE1
  8
0
 10
396.8156465494937
 20
-81.32229134840901
 30
0.0
 70
   192
  0
VERTEX
  5
3DE2
  8
0
 10
387.2820864035471
 20
-162.146584775552
 30
0.0
 70
   192
  0
VERTEX
  5
3DE3
  8
0
 10
371.4577007643647
 20
-241.977931978238
 30
0.0
 70
   192
  0
VERTEX
  5
3DE4
  8
0
 10
345.5088761874741
 20
-300.3433029034144
 30
0.0
 70
   192
  0
VERTEX
  5
3DE5
  8
0
 10
300.3433029034135
 20
-345.5088761874748
 30
0.0
 70
   192
  0
VERTEX
  5
3DE6
  8
0
 10
241.9779319782369
 20
-371.4577007643653
 30
0.0
 70
   192
  0
VERTEX
  5
3DE7
  8
0
 10
81.32229134840902
 20
-396.8156465494939
 30
0.0
 70
   192
  0
VERTEX
  5
3DE8
  8
0
 10
-81.3222913484095
 20
-396.8156465494939
 30
0.0
 70
   192
  0
VERTEX
  5
3DE9
  8
0
 10
-241.9779319782376
 20
-371.457700764365
 30
0.0
 70
   192
  0
VERTEX
  5
3DEA
  8
0
 10
-300.3433029034139
 20
-345.5088761874745
 30
0.0
 70
   192
  0
VERTEX
  5
3DEB
  8
0
 10
-345.5088761874742
 20
-300.3433029034142
 30
0.0
 70
   192
  0
VERTEX
  5
3DEC
  8
0
 10
-371.4577007643649
 20
-241.9779319782373
 30
0.0
 70
   192
  0
VERTEX
  5
3DED
  8
0
 10
-396.8156465494937
 20
-81.32229134840885
 30
0.0
 70
   192
  0
VERTEX
  5
3DEE
  8
0
 10
-396.8156465494937
 20
81.32229134840935
 30
0.0
 70
   192
  0
VERTEX
  5
3DEF
  8
0
 10
-371.4577007643647
 20
241.9779319782379
 30
0.0
 70
   192
  0
VERTEX
  5
3DF0
  8
0
 10
-345.5088761874741
 20
300.3433029034142
 30
0.0
 70
   192
  0
VERTEX
  5
3DF1
  8
0
 10
-300.3433029034138
 20
345.5088761874745
 30
0.0
 70
   192
  0
VERTEX
  5
3DF2
  8
0
 10
-241.9779319782375
 20
371.457700764365
 30
0.0
 70
   192
  0
VERTEX
  5
3DF3
  8
0
 10
-81.32229134840897
 20
396.8156465494936
 30
0.0
 70
   192
  0
VERTEX
  5
3DF4
  8
0
 10
81.32229134840905
 20
396.8156465494936
 30
0.0
 70
   192
  0
VERTEX
  5
3DF5
  8
0
 10
-239.6512210938316
 20
361.732145949323
 30
0.0
 70
   192
  0
VERTEX
  5
3DF6
  8
0
 10
-294.6814279661406
 20
337.2661113482549
 30
0.0
 70
   192
  0
VERTEX
  5
3DF7
  8
0
 10
-337.2661113482547
 20
294.6814279661408
 30
0.0
 70
   192
  0
VERTEX
  5
3DF8
  8
0
 10
-361.7321459493226
 20
239.6512210938317
 30
0.0
 70
   192
  0
VERTEX
  5
3DF9
  8
0
 10
-386.8462653326715
 20
80.54034623929002
 30
0.0
 70
   192
  0
VERTEX
  5
3DFA
  8
0
 10
-386.8462653326712
 20
-80.54034623928996
 30
0.0
 70
   192
  0
VERTEX
  5
3DFB
  8
0
 10
-361.7321459493227
 20
-239.6512210938318
 30
0.0
 70
   192
  0
VERTEX
  5
3DFC
  8
0
 10
-337.2661113482545
 20
-294.6814279661409
 30
0.0
 70
   192
  0
VERTEX
  5
3DFD
  8
0
 10
-294.6814279661404
 20
-337.2661113482549
 30
0.0
 70
   192
  0
VERTEX
  5
3DFE
  8
0
 10
-239.6512210938312
 20
-361.732145949323
 30
0.0
 70
   192
  0
VERTEX
  5
3DFF
  8
0
 10
-80.54034623929016
 20
-386.8462653326718
 30
0.0
 70
   192
  0
VERTEX
  5
3E00
  8
0
 10
80.54034623928969
 20
-386.8462653326718
 30
0.0
 70
   192
  0
VERTEX
  5
3E01
  8
0
 10
239.6512210938313
 20
-361.7321459493229
 30
0.0
 70
   192
  0
VERTEX
  5
3E02
  8
0
 10
294.6814279661405
 20
-337.2661113482548
 30
0.0
 70
   192
  0
VERTEX
  5
3E03
  8
0
 10
337.2661113482545
 20
-294.6814279661409
 30
0.0
 70
   192
  0
VERTEX
  5
3E04
  8
0
 10
361.7321459493226
 20
-239.6512210938317
 30
0.0
 70
   192
  0
VERTEX
  5
3E05
  8
0
 10
377.4043740342819
 20
-160.5874829988643
 30
0.0
 70
   192
  0
VERTEX
  5
3E06
  8
0
 10
386.8462653326715
 20
-80.5403462392899
 30
0.0
 70
   192
  0
VERTEX
  5
3E07
  8
0
 10
389.9999999999998
 20
-0.0000000000000272
 30
0.0
 70
   192
  0
VERTEX
  5
3E08
  8
0
 10
386.8462653326715
 20
80.54034623928973
 30
0.0
 70
   192
  0
VERTEX
  5
3E09
  8
0
 10
377.4043740342819
 20
160.587482998864
 30
0.0
 70
   192
  0
VERTEX
  5
3E0A
  8
0
 10
361.7321459493228
 20
239.6512210938319
 30
0.0
 70
   192
  0
VERTEX
  5
3E0B
  8
0
 10
337.2661113482545
 20
294.6814279661411
 30
0.0
 70
   192
  0
VERTEX
  5
3E0C
  8
0
 10
294.6814279661404
 20
337.266111348255
 30
0.0
 70
   192
  0
VERTEX
  5
3E0D
  8
0
 10
239.6512210938309
 20
361.7321459493232
 30
0.0
 70
   192
  0
VERTEX
  5
3E0E
  8
0
 10
80.54034623928891
 20
386.846265332672
 30
0.0
 70
   192
  0
VERTEX
  5
3E0F
  8
0
 10
-80.54034623929097
 20
386.8462653326718
 30
0.0
 70
   192
  0
VERTEX
  5
3E10
  8
0
 10
0.0
 20
0.0
 30
0.0
 70
   128
 71
    49
 72
   -48
 73
    -5
  0
VERTEX
  5
3E11
  8
0
 10
0.0
 20
0.0
 30
0.0
 70
   128
 71
   -49
 72
     5
 73
    -4
  0
VERTEX
  5
3E12
  8
0
 10
0.0
 20
0.0
 30
0.0
 70
   128
 71
     4
 72
    -3
 73
   -50
  0
VERTEX
  5
3E13
  8
0
 10
0.0
 20
0.0
 30
0.0
 70
   128
 71
    -4
 72
    50
 73
   -49
  0
VERTEX
  5
3E14
  8
0
 10
0.0
 20
0.0
 30
0.0
 70
   128
 71
     3
 72
    -2
 73
   -51
  0
VERTEX
  5
3E15
  8
0
 10
0.0
 20
0.0
 30
0.0
 70
   128
 71
    -3
 72
    51
 73
   -50
  0
VERTEX
  5
3E16
  8
0
 10
0.0
 20
0.0
 30
0.0
 70
   128
 71
     2
 72
    -1
 73
   -52
  0
VERTEX
  5
3E17
  8
0
 10
0.0
 20
0.0
 30
0.0
 70
   128
 71
    -2
 72
    52
 73
   -51
  0
VERTEX
  5
3E18
  8
0
 10
0.0
 20
0.0
 30
0.0
 70
   128
 71
     1
 72
   -27
 73
   -53
  0
VERTEX
  5
3E19
  8
0
 10
0.0
 20
0.0
 30
0.0
 70
   128
 71
    -1
 72
    53
 73
   -52
  0
VERTEX
  5
3E1A
  8
0
 10
0.0
 20
0.0
 30
0.0
 70
   128
 71
    27
 72
   -26
 73
   -54
  0
VERTEX
  5
3E1B
  8
0
 10
0.0
 20
0.0
 30
0.0
 70
   128
 71
   -27
 72
    54
 73
   -53
  0
VERTEX
  5
3E1C
  8
0
 10
0.0
 20
0.0
 30
0.0
 70
   128
 71
    26
 72
   -25
 73
   -28
  0
VERTEX
  5
3E1D
  8
0
 10
0.0
 20
0.0
 30
0.0
 70
   128
 71
   -26
 72
    28
 73
   -54
  0
VERTEX
  5
3E1E
  8
0
 10
0.0
 20
0.0
 30
0.0
 70
   128
 71
    48
 72
   -47
 73
    -6
  0
VERTEX
  5
3E1F
  8
0
 10
0.0
 20
0.0
 30
0.0
 70
   128
 71
   -48
 72
     6
 73
    -5
  0
VERTEX
  5
3E20
  8
0
 10
0.0
 20
0.0
 30
0.0
 70
   128
 71
    47
 72
   -46
 73
    -7
  0
VERTEX
  5
3E21
  8
0
 10
0.0
 20
0.0
 30
0.0
 70
   128
 71
   -47
 72
     7
 73
    -6
  0
VERTEX
  5
3E22
  8
0
 10
0.0
 20
0.0
 30
0.0
 70
   128
 71
    46
 72
   -45
 73
    -8
  0
VERTEX
  5
3E23
  8
0
 10
0.0
 20
0.0
 30
0.0
 70
   128
 71
   -46
 72
     8
 73
    -7
  0
VERTEX
  5
3E24
  8
0
 10
0.0
 20
0.0
 30
0.0
 70
   128
 71
    45
 72
   -44
 73
    -9
  0
VERTEX
  5
3E25
  8
0
 10
0.0
 20
0.0
 30
0.0
 70
   128
 71
   -45
 72
     9
 73
    -8
  0
VERTEX
  5
3E26
  8
0
 10
0.0
 20
0.0
 30
0.0
 70
   128
 71
    29
 72
   -28
 73
   -25
  0
VERTEX
  5
3E27
  8
0
 10
0.0
 20
0.0
 30
0.0
 70
   128
 71
   -29
 72
    25
 73
   -24
  0
VERTEX
  5
3E28
  8
0
 10
0.0
 20
0.0
 30
0.0
 70
   128
 71
    24
 72
   -23
 73
   -30
  0
VERTEX
  5
3E29
  8
0
 10
0.0
 20
0.0
 30
0.0
 70
   128
 71
   -24
 72
    30
 73
   -29
  0
VERTEX
  5
3E2A
  8
0
 10
0.0
 20
0.0
 30
0.0
 70
   128
 71
    23
 72
   -22
 73
   -31
  0
VERTEX
  5
3E2B
  8
0
 10
0.0
 20
0.0
 30
0.0
 70
   128
 71
   -23
 72
    31
 73
   -30
  0
VERTEX
  5
3E2C
  8
0
 10
0.0
 20
0.0
 30
0.0
 70
   128
 71
    22
 72
   -21
 73
   -32
  0
VERTEX
  5
3E2D
  8
0
 10
0.0
 20
0.0
 30
0.0
 70
   128
 71
   -22
 72
    32
 73
   -31
  0
VERTEX
  5
3E2E
  8
0
 10
0.0
 20
0.0
 30
0.0
 70
   128
 71
    21
 72
   -20
 73
   -33
  0
VERTEX
  5
3E2F
  8
0
 10
0.0
 20
0.0
 30
0.0
 70
   128
 71
   -21
 72
    33
 73
   -32
  0
VERTEX
  5
3E30
  8
0
 10
0.0
 20
0.0
 30
0.0
 70
   128
 71
    20
 72
   -19
 73
   -34
  0
VERTEX
  5
3E31
  8
0
 10
0.0
 20
0.0
 30
0.0
 70
   128
 71
   -20
 72
    34
 73
   -33
  0
VERTEX
  5
3E32
  8
0
 10
0.0
 20
0.0
 30
0.0
 70
   128
 71
    19
 72
   -18
 73
   -35
  0
VERTEX
  5
3E33
  8
0
 10
0.0
 20
0.0
 30
0.0
 70
   128
 71
   -19
 72
    35
 73
   -34
  0
VERTEX
  5
3E34
  8
0
 10
0.0
 20
0.0
 30
0.0
 70
   128
 71
    18
 72
   -17
 73
   -36
  0
VERTEX
  5
3E35
  8
0
 10
0.0
 20
0.0
 30
0.0
 70
   128
 71
   -18
 72
    36
 73
   -35
  0
VERTEX
  5
3E36
  8
0
 10
0.0
 20
0.0
 30
0.0
 70
   128
 71
    17
 72
   -16
 73
   -37
  0
VERTEX
  5
3E37
  8
0
 10
0.0
 20
0.0
 30
0.0
 70
   128
 71
   -17
 72
    37
 73
   -36
  0
VERTEX
  5
3E38
  8
0
 10
0.0
 20
0.0
 30
0.0
 70
   128
 71
    16
 72
   -15
 73
   -38
  0
VERTEX
  5
3E39
  8
0
 10
0.0
 20
0.0
 30
0.0
 70
   128
 71
   -16
 72
    38
 73
   -37
  0
VERTEX
  5
3E3A
  8
0
 10
0.0
 20
0.0
 30
0.0
 70
   128
 71
    15
 72
   -14
 73
   -39
  0
VERTEX
  5
3E3B
  8
0
 10
0.0
 20
0.0
 30
0.0
 70
   128
 71
   -15
 72
    39
 73
   -38
  0
VERTEX
  5
3E3C
  8
0
 10
0.0
 20
0.0
 30
0.0
 70
   128
 71
    14
 72
   -13
 73
   -40
  0
VERTEX
  5
3E3D
  8
0
 10
0.0
 20
0.0
 30
0.0
 70
   128
 71
   -14
 72
    40
 73
   -39
  0
VERTEX
  5
3E3E
  8
0
 10
0.0
 20
0.0
 30
0.0
 70
   128
 71
    13
 72
   -12
 73
   -41
  0
VERTEX
  5
3E3F
  8
0
 10
0.0
 20
0.0
 30
0.0
 70
   128
 71
   -13
 72
    41
 73
   -40
  0
VERTEX
  5
3E40
  8
0
 10
0.0
 20
0.0
 30
0.0
 70
   128
 71
    12
 72
   -11
 73
   -42
  0
VERTEX
  5
3E41
  8
0
 10
0.0
 20
0.0
 30
0.0
 70
   128
 71
   -12
 72
    42
 73
   -41
  0
VERTEX
  5
3E42
  8
0
 10
0.0
 20
0.0
 30
0.0
 70
   128
 71
    11
 72
   -10
 73
   -43
  0
VERTEX
  5
3E43
  8
0
 10
0.0
 20
0.0
 30
0.0
 70
   128
 71
   -11
 72
    43
 73
   -42
  0
VERTEX
  5
3E44
  8
0
 10
0.0
 20
0.0
 30
0.0
 70
   128
 71
    10
 72
    -9
 73
   -44
  0
VERTEX
  5
3E45
  8
0
 10
0.0
 20
0.0
 30
0.0
 70
   128
 71
   -10
 72
    44
 73
   -43
  0
SEQEND
  5
439E
  8
0
  0
POLYLINE
  5
3E46
  8
0
 66
     1
 10
0.0
 20
0.0
 30
0.0
 70
    64
 71
    54
 72
    54
  0
VERTEX
  5
3E47
  8
0
 10
-241.9779319782375
 20
371.457700764365
 30
-25.0
 70
   192
  0
VERTEX
  5
3E48
  8
0
 10
-81.32229134840897
 20
396.8156465494936
 30
-25.0
 70
   192
  0
VERTEX
  5
3E49
  8
0
 10
81.32229134840905
 20
396.8156465494936
 30
-25.0
 70
   192
  0
VERTEX
  5
3E4A
  8
0
 10
241.9779319782376
 20
371.457700764365
 30
-25.0
 70
   192
  0
VERTEX
  5
3E4B
  8
0
 10
300.3433029034138
 20
345.5088761874746
 30
-25.0
 70
   192
  0
VERTEX
  5
3E4C
  8
0
 10
345.5088761874742
 20
300.3433029034144
 30
-25.0
 70
   192
  0
VERTEX
  5
3E4D
  8
0
 10
371.4577007643647
 20
241.9779319782381
 30
-25.0
 70
   192
  0
VERTEX
  5
3E4E
  8
0
 10
387.2820864035468
 20
162.1465847755526
 30
-25.0
 70
   192
  0
VERTEX
  5
3E4F
  8
0
 10
396.8156465494937
 20
81.3222913484092
 30
-25.0
 70
   192
  0
VERTEX
  5
3E50
  8
0
 10
400.0
 20
0.0000000000001001
 30
-25.0
 70
   192
  0
VERTEX
  5
3E51
  8
0
 10
396.8156465494937
 20
-81.32229134840901
 30
-25.0
 70
   192
  0
VERTEX
  5
3E52
  8
0
 10
387.2820864035471
 20
-162.146584775552
 30
-25.0
 70
   192
  0
VERTEX
  5
3E53
  8
0
 10
371.4577007643649
 20
-241.9779319782375
 30
-25.0
 70
   192
  0
VERTEX
  5
3E54
  8
0
 10
345.5088761874741
 20
-300.3433029034144
 30
-25.0
 70
   192
  0
VERTEX
  5
3E55
  8
0
 10
300.3433029034135
 20
-345.5088761874748
 30
-25.0
 70
   192
  0
VERTEX
  5
3E56
  8
0
 10
241.9779319782369
 20
-371.4577007643651
 30
-25.0
 70
   192
  0
VERTEX
  5
3E57
  8
0
 10
81.32229134840902
 20
-396.8156465494939
 30
-25.0
 70
   192
  0
VERTEX
  5
3E58
  8
0
 10
-81.3222913484095
 20
-396.8156465494939
 30
-25.0
 70
   192
  0
VERTEX
  5
3E59
  8
0
 10
-241.9779319782374
 20
-371.4577007643653
 30
-25.0
 70
   192
  0
VERTEX
  5
3E5A
  8
0
 10
-300.3433029034139
 20
-345.5088761874745
 30
-25.0
 70
   192
  0
VERTEX
  5
3E5B
  8
0
 10
-345.5088761874742
 20
-300.3433029034142
 30
-25.0
 70
   192
  0
VERTEX
  5
3E5C
  8
0
 10
-371.4577007643647
 20
-241.9779319782378
 30
-25.0
 70
   192
  0
VERTEX
  5
3E5D
  8
0
 10
-396.8156465494937
 20
-81.32229134840885
 30
-25.0
 70
   192
  0
VERTEX
  5
3E5E
  8
0
 10
-396.8156465494937
 20
81.32229134840935
 30
-25.0
 70
   192
  0
VERTEX
  5
3E5F
  8
0
 10
-371.4577007643647
 20
241.9779319782378
 30
-25.0
 70
   192
  0
VERTEX
  5
3E60
  8
0
 10
-345.5088761874741
 20
300.3433029034142
 30
-25.0
 70
   192
  0
VERTEX
  5
3E61
  8
0
 10
-300.3433029034138
 20
345.5088761874745
 30
-25.0
 70
   192
  0
VERTEX
  5
3E62
  8
0
 10
238.4878656516285
 20
356.8693685418021
 30
-25.0
 70
   192
  0
VERTEX
  5
3E63
  8
0
 10
80.14937368473011
 20
381.8615747242609
 30
-25.0
 70
   192
  0
VERTEX
  5
3E64
  8
0
 10
-80.14937368473001
 20
381.8615747242609
 30
-25.0
 70
   192
  0
VERTEX
  5
3E65
  8
0
 10
-238.4878656516283
 20
356.8693685418021
 30
-25.0
 70
   192
  0
VERTEX
  5
3E66
  8
0
 10
-291.8504904975038
 20
333.144728928645
 30
-25.0
 70
   192
  0
VERTEX
  5
3E67
  8
0
 10
-333.1447289286448
 20
291.8504904975041
 30
-25.0
 70
   192
  0
VERTEX
  5
3E68
  8
0
 10
-356.8693685418018
 20
238.4878656516287
 30
-25.0
 70
   192
  0
VERTEX
  5
3E69
  8
0
 10
-381.8615747242608
 20
80.14937368473026
 30
-25.0
 70
   192
  0
VERTEX
  5
3E6A
  8
0
 10
-381.8615747242608
 20
-80.14937368473001
 30
-25.0
 70
   192
  0
VERTEX
  5
3E6B
  8
0
 10
-356.869368541802
 20
-238.4878656516283
 30
-25.0
 70
   192
  0
VERTEX
  5
3E6C
  8
0
 10
-333.1447289286448
 20
-291.8504904975042
 30
-25.0
 70
   192
  0
VERTEX
  5
3E6D
  8
0
 10
-291.8504904975038
 20
-333.1447289286451
 30
-25.0
 70
   192
  0
VERTEX
  5
3E6E
  8
0
 10
-238.4878656516282
 20
-356.8693685418021
 30
-25.0
 70
   192
  0
VERTEX
  5
3E6F
  8
0
 10
-80.14937368473018
 20
-381.8615747242611
 30
-25.0
 70
   192
  0
VERTEX
  5
3E70
  8
0
 10
80.14937368472974
 20
-381.8615747242611
 30
-25.0
 70
   192
  0
VERTEX
  5
3E71
  8
0
 10
238.4878656516279
 20
-356.8693685418025
 30
-25.0
 70
   192
  0
VERTEX
  5
3E72
  8
0
 10
291.8504904975035
 20
-333.1447289286452
 30
-25.0
 70
   192
  0
VERTEX
  5
3E73
  8
0
 10
333.1447289286447
 20
-291.8504904975043
 30
-25.0
 70
   192
  0
VERTEX
  5
3E74
  8
0
 10
356.8693685418019
 20
-238.4878656516287
 30
-25.0
 70
   192
  0
VERTEX
  5
3E75
  8
0
 10
372.4655178496499
 20
-159.80793211052
 30
-25.0
 70
   192
  0
VERTEX
  5
3E76
  8
0
 10
381.8615747242608
 20
-80.14937368473005
 30
-25.0
 70
   192
  0
VERTEX
  5
3E77
  8
0
 10
385.0000000000002
 20
0.0000000000000983
 30
-25.0
 70
   192
  0
VERTEX
  5
3E78
  8
0
 10
381.8615747242608
 20
80.14937368473024
 30
-25.0
 70
   192
  0
VERTEX
  5
3E79
  8
0
 10
372.4655178496498
 20
159.8079321105206
 30
-25.0
 70
   192
  0
VERTEX
  5
3E7A
  8
0
 10
356.8693685418019
 20
238.487865651629
 30
-25.0
 70
   192
  0
VERTEX
  5
3E7B
  8
0
 10
333.1447289286447
 20
291.8504904975043
 30
-25.0
 70
   192
  0
VERTEX
  5
3E7C
  8
0
 10
291.8504904975038
 20
333.1447289286451
 30
-25.0
 70
   192
  0
VERTEX
  5
3E7D
  8
0
 10
0.0
 20
0.0
 30
0.0
 70
   128
 71
    -8
 72
    51
 73
   -52
  0
VERTEX
  5
3E7E
  8
0
 10
0.0
 20
0.0
 30
0.0
 70
   128
 71
     7
 72
    -8
 73
   -52
  0
VERTEX
  5
3E7F
  8
0
 10
0.0
 20
0.0
 30
0.0
 70
   128
 71
   -53
 72
     6
 73
    -7
  0
VERTEX
  5
3E80
  8
0
 10
0.0
 20
0.0
 30
0.0
 70
   128
 71
    52
 72
   -53
 73
    -7
  0
VERTEX
  5
3E81
  8
0
 10
0.0
 20
0.0
 30
0.0
 70
   128
 71
   -54
 72
     5
 73
    -6
  0
VERTEX
  5
3E82
  8
0
 10
0.0
 20
0.0
 30
0.0
 70
   128
 71
    53
 72
   -54
 73
    -6
  0
VERTEX
  5
3E83
  8
0
 10
0.0
 20
0.0
 30
0.0
 70
   128
 71
   -28
 72
     4
 73
    -5
  0
VERTEX
  5
3E84
  8
0
 10
0.0
 20
0.0
 30
0.0
 70
   128
 71
    54
 72
   -28
 73
    -5
  0
VERTEX
  5
3E85
  8
0
 10
0.0
 20
0.0
 30
0.0
 70
   128
 71
    -9
 72
    50
 73
   -51
  0
VERTEX
  5
3E86
  8
0
 10
0.0
 20
0.0
 30
0.0
 70
   128
 71
     8
 72
    -9
 73
   -51
  0
VERTEX
  5
3E87
  8
0
 10
0.0
 20
0.0
 30
0.0
 70
   128
 71
   -10
 72
    49
 73
   -50
  0
VERTEX
  5
3E88
  8
0
 10
0.0
 20
0.0
 30
0.0
 70
   128
 71
     9
 72
   -10
 73
   -50
  0
VERTEX
  5
3E89
  8
0
 10
0.0
 20
0.0
 30
0.0
 70
   128
 71
   -11
 72
    48
 73
   -49
  0
VERTEX
  5
3E8A
  8
0
 10
0.0
 20
0.0
 30
0.0
 70
   128
 71
    10
 72
   -11
 73
   -49
  0
VERTEX
  5
3E8B
  8
0
 10
0.0
 20
0.0
 30
0.0
 70
   128
 71
   -12
 72
    47
 73
   -48
  0
VERTEX
  5
3E8C
  8
0
 10
0.0
 20
0.0
 30
0.0
 70
   128
 71
    11
 72
   -12
 73
   -48
  0
VERTEX
  5
3E8D
  8
0
 10
0.0
 20
0.0
 30
0.0
 70
   128
 71
    -4
 72
    28
 73
   -29
  0
VERTEX
  5
3E8E
  8
0
 10
0.0
 20
0.0
 30
0.0
 70
   128
 71
     3
 72
    -4
 73
   -29
  0
VERTEX
  5
3E8F
  8
0
 10
0.0
 20
0.0
 30
0.0
 70
   128
 71
   -30
 72
     2
 73
    -3
  0
VERTEX
  5
3E90
  8
0
 10
0.0
 20
0.0
 30
0.0
 70
   128
 71
    29
 72
   -30
 73
    -3
  0
VERTEX
  5
3E91
  8
0
 10
0.0
 20
0.0
 30
0.0
 70
   128
 71
   -31
 72
     1
 73
    -2
  0
VERTEX
  5
3E92
  8
0
 10
0.0
 20
0.0
 30
0.0
 70
   128
 71
    30
 72
   -31
 73
    -2
  0
VERTEX
  5
3E93
  8
0
 10
0.0
 20
0.0
 30
0.0
 70
   128
 71
   -32
 72
    27
 73
    -1
  0
VERTEX
  5
3E94
  8
0
 10
0.0
 20
0.0
 30
0.0
 70
   128
 71
    31
 72
   -32
 73
    -1
  0
VERTEX
  5
3E95
  8
0
 10
0.0
 20
0.0
 30
0.0
 70
   128
 71
   -33
 72
    26
 73
   -27
  0
VERTEX
  5
3E96
  8
0
 10
0.0
 20
0.0
 30
0.0
 70
   128
 71
    32
 72
   -33
 73
   -27
  0
VERTEX
  5
3E97
  8
0
 10
0.0
 20
0.0
 30
0.0
 70
   128
 71
   -34
 72
    25
 73
   -26
  0
VERTEX
  5
3E98
  8
0
 10
0.0
 20
0.0
 30
0.0
 70
   128
 71
    33
 72
   -34
 73
   -26
  0
VERTEX
  5
3E99
  8
0
 10
0.0
 20
0.0
 30
0.0
 70
   128
 71
   -35
 72
    24
 73
   -25
  0
VERTEX
  5
3E9A
  8
0
 10
0.0
 20
0.0
 30
0.0
 70
   128
 71
    34
 72
   -35
 73
   -25
  0
VERTEX
  5
3E9B
  8
0
 10
0.0
 20
0.0
 30
0.0
 70
   128
 71
   -36
 72
    23
 73
   -24
  0
VERTEX
  5
3E9C
  8
0
 10
0.0
 20
0.0
 30
0.0
 70
   128
 71
    35
 72
   -36
 73
   -24
  0
VERTEX
  5
3E9D
  8
0
 10
0.0
 20
0.0
 30
0.0
 70
   128
 71
   -37
 72
    22
 73
   -23
  0
VERTEX
  5
3E9E
  8
0
 10
0.0
 20
0.0
 30
0.0
 70
   128
 71
    36
 72
   -37
 73
   -23
  0
VERTEX
  5
3E9F
  8
0
 10
0.0
 20
0.0
 30
0.0
 70
   128
 71
   -38
 72
    21
 73
   -22
  0
VERTEX
  5
3EA0
  8
0
 10
0.0
 20
0.0
 30
0.0
 70
   128
 71
    37
 72
   -38
 73
   -22
  0
VERTEX
  5
3EA1
  8
0
 10
0.0
 20
0.0
 30
0.0
 70
   128
 71
   -39
 72
    20
 73
   -21
  0
VERTEX
  5
3EA2
  8
0
 10
0.0
 20
0.0
 30
0.0
 70
   128
 71
    38
 72
   -39
 73
   -21
  0
VERTEX
  5
3EA3
  8
0
 10
0.0
 20
0.0
 30
0.0
 70
   128
 71
   -40
 72
    19
 73
   -20
  0
VERTEX
  5
3EA4
  8
0
 10
0.0
 20
0.0
 30
0.0
 70
   128
 71
    39
 72
   -40
 73
   -20
  0
VERTEX
  5
3EA5
  8
0
 10
0.0
 20
0.0
 30
0.0
 70
   128
 71
   -41
 72
    18
 73
   -19
  0
VERTEX
  5
3EA6
  8
0
 10
0.0
 20
0.0
 30
0.0
 70
   128
 71
    40
 72
   -41
 73
   -19
  0
VERTEX
  5
3EA7
  8
0
 10
0.0
 20
0.0
 30
0.0
 70
   128
 71
   -42
 72
    17
 73
   -18
  0
VERTEX
  5
3EA8
  8
0
 10
0.0
 20
0.0
 30
0.0
 70
   128
 71
    41
 72
   -42
 73
   -18
  0
VERTEX
  5
3EA9
  8
0
 10
0.0
 20
0.0
 30
0.0
 70
   128
 71
   -43
 72
    16
 73
   -17
  0
VERTEX
  5
3EAA
  8
0
 10
0.0
 20
0.0
 30
0.0
 70
   128
 71
    42
 72
   -43
 73
   -17
  0
VERTEX
  5
3EAB
  8
0
 10
0.0
 20
0.0
 30
0.0
 70
   128
 71
   -44
 72
    15
 73
   -16
  0
VERTEX
  5
3EAC
  8
0
 10
0.0
 20
0.0
 30
0.0
 70
   128
 71
    43
 72
   -44
 73
   -16
  0
VERTEX
  5
3EAD
  8
0
 10
0.0
 20
0.0
 30
0.0
 70
   128
 71
   -45
 72
    14
 73
   -15
  0
VERTEX
  5
3EAE
  8
0
 10
0.0
 20
0.0
 30
0.0
 70
   128
 71
    44
 72
   -45
 73
   -15
  0
VERTEX
  5
3EAF
  8
0
 10
0.0
 20
0.0
 30
0.0
 70
   128
 71
   -46
 72
    13
 73
   -14
  0
VERTEX
  5
3EB0
  8
0
 10
0.0
 20
0.0
 30
0.0
 70
   128
 71
    45
 72
   -46
 73
   -14
  0
VERTEX
  5
3EB1
  8
0
 10
0.0
 20
0.0
 30
0.0
 70
   128
 71
   -47
 72
    12
 73
   -13
  0
VERTEX
  5
3EB2
  8
0
 10
0.0
 20
0.0
 30
0.0
 70
   128
 71
    46
 72
   -47
 73
   -13
  0
SEQEND
  5
439F
  8
0
  0
POLYLINE
  5
3EB3
  8
0
 66
     1
 10
0.0
 20
0.0
 30
0.0
 70
    64
 71
     8
 72
     6
  0
VERTEX
  5
3EB4
  8
0
 10
81.32229134840905
 20
396.8156465494936
 30
0.0
 70
   192
  0
VERTEX
  5
3EB5
  8
0
 10
81.32229134840905
 20
396.8156465494936
 30
-25.0
 70
   192
  0
VERTEX
  5
3EB6
  8
0
 10
-81.32229134840897
 20
396.8156465494936
 30
-25.0
 70
   192
  0
VERTEX
  5
3EB7
  8
0
 10
-81.32229134840897
 20
396.8156465494936
 30
0.0
 70
   192
  0
VERTEX
  5
3EB8
  8
0
 10
241.9779319782376
 20
371.457700764365
 30
0.0
 70
   192
  0
VERTEX
  5
3EB9
  8
0
 10
241.9779319782375
 20
371.457700764365
 30
-25.0
 70
   192
  0
VERTEX
  5
3EBA
  8
0
 10
-241.9779319782375
 20
371.457700764365
 30
-25.0
 70
   192
  0
VERTEX
  5
3EBB
  8
0
 10
-241.9779319782375
 20
371.4577007643649
 30
0.0
 70
   192
  0
VERTEX
  5
3EBC
  8
0
 10
0.0
 20
0.0
 30
0.0
 70
   128
 71
     1
 72
     2
 73
    -3
  0
VERTEX
  5
3EBD
  8
0
 10
0.0
 20
0.0
 30
0.0
 70
   128
 71
    -1
 72
     3
 73
     4
  0
VERTEX
  5
3EBE
  8
0
 10
0.0
 20
0.0
 30
0.0
 70
   128
 71
     5
 72
     6
 73
    -2
  0
VERTEX
  5
3EBF
  8
0
 10
0.0
 20
0.0
 30
0.0
 70
   128
 71
    -5
 72
     2
 73
     1
  0
VERTEX
  5
3EC0
  8
0
 10
0.0
 20
0.0
 30
0.0
 70
   128
 71
     4
 72
     3
 73
    -7
  0
VERTEX
  5
3EC1
  8
0
 10
0.0
 20
0.0
 30
0.0
 70
   128
 71
    -4
 72
     7
 73
     8
  0
SEQEND
  5
43A0
  8
0
  0
POLYLINE
  5
3EC2
  8
0
 66
     1
 10
0.0
 20
0.0
 30
0.0
 70
    64
 71
     8
 72
     6
  0
VERTEX
  5
3EC3
  8
0
 10
345.5088761874742
 20
300.3433029034144
 30
0.0
 70
   192
  0
VERTEX
  5
3EC4
  8
0
 10
345.5088761874742
 20
300.3433029034144
 30
-25.0
 70
   192
  0
VERTEX
  5
3EC5
  8
0
 10
300.3433029034138
 20
345.5088761874746
 30
-25.0
 70
   192
  0
VERTEX
  5
3EC6
  8
0
 10
300.3433029034138
 20
345.5088761874746
 30
0.0
 70
   192
  0
VERTEX
  5
3EC7
  8
0
 10
371.4577007643647
 20
241.9779319782381
 30
0.0
 70
   192
  0
VERTEX
  5
3EC8
  8
0
 10
371.4577007643647
 20
241.9779319782382
 30
-25.0
 70
   192
  0
VERTEX
  5
3EC9
  8
0
 10
241.9779319782375
 20
371.457700764365
 30
-25.0
 70
   192
  0
VERTEX
  5
3ECA
  8
0
 10
241.9779319782375
 20
371.457700764365
 30
0.0
 70
   192
  0
VERTEX
  5
3ECB
  8
0
 10
0.0
 20
0.0
 30
0.0
 70
   128
 71
     1
 72
     2
 73
    -3
  0
VERTEX
  5
3ECC
  8
0
 10
0.0
 20
0.0
 30
0.0
 70
   128
 71
    -1
 72
     3
 73
     4
  0
VERTEX
  5
3ECD
  8
0
 10
0.0
 20
0.0
 30
0.0
 70
   128
 71
     5
 72
     6
 73
    -2
  0
VERTEX
  5
3ECE
  8
0
 10
0.0
 20
0.0
 30
0.0
 70
   128
 71
    -5
 72
     2
 73
     1
  0
VERTEX
  5
3ECF
  8
0
 10
0.0
 20
0.0
 30
0.0
 70
   128
 71
     4
 72
     3
 73
    -7
  0
VERTEX
  5
3ED0
  8
0
 10
0.0
 20
0.0
 30
0.0
 70
   128
 71
    -4
 72
     7
 73
     8
  0
SEQEND
  5
43A1
  8
0
  0
POLYLINE
  5
3ED1
  8
0
 66
     1
 10
0.0
 20
0.0
 30
0.0
 70
    64
 71
     8
 72
     6
  0
VERTEX
  5
3ED2
  8
0
 10
396.8156465494937
 20
81.3222913484092
 30
0.0
 70
   192
  0
VERTEX
  5
3ED3
  8
0
 10
396.8156465494937
 20
81.3222913484092
 30
-25.0
 70
   192
  0
VERTEX
  5
3ED4
  8
0
 10
387.2820864035468
 20
162.1465847755526
 30
-25.0
 70
   192
  0
VERTEX
  5
3ED5
  8
0
 10
387.2820864035468
 20
162.1465847755526
 30
0.0
 70
   192
  0
VERTEX
  5
3ED6
  8
0
 10
400.0
 20
0.0000000000001001
 30
0.0
 70
   192
  0
VERTEX
  5
3ED7
  8
0
 10
400.0000000000001
 20
-0.0000000000000272
 30
-25.0
 70
   192
  0
VERTEX
  5
3ED8
  8
0
 10
371.4577007643646
 20
241.9779319782381
 30
-25.0
 70
   192
  0
VERTEX
  5
3ED9
  8
0
 10
371.4577007643647
 20
241.9779319782382
 30
0.0
 70
   192
  0
VERTEX
  5
3EDA
  8
0
 10
0.0
 20
0.0
 30
0.0
 70
   128
 71
     1
 72
     2
 73
    -3
  0
VERTEX
  5
3EDB
  8
0
 10
0.0
 20
0.0
 30
0.0
 70
   128
 71
    -1
 72
     3
 73
     4
  0
VERTEX
  5
3EDC
  8
0
 10
0.0
 20
0.0
 30
0.0
 70
   128
 71
     5
 72
     6
 73
    -2
  0
VERTEX
  5
3EDD
  8
0
 10
0.0
 20
0.0
 30
0.0
 70
   128
 71
    -5
 72
     2
 73
     1
  0
VERTEX
  5
3EDE
  8
0
 10
0.0
 20
0.0
 30
0.0
 70
   128
 71
     4
 72
     3
 73
    -7
  0
VERTEX
  5
3EDF
  8
0
 10
0.0
 20
0.0
 30
0.0
 70
   128
 71
    -4
 72
     7
 73
     8
  0
SEQEND
  5
43A2
  8
0
  0
POLYLINE
  5
3EE0
  8
0
 66
     1
 10
0.0
 20
0.0
 30
0.0
 70
    64
 71
     8
 72
     6
  0
VERTEX
  5
3EE1
  8
0
 10
300.3433029034135
 20
-345.5088761874748
 30
0.0
 70
   192
  0
VERTEX
  5
3EE2
  8
0
 10
300.3433029034135
 20
-345.5088761874748
 30
-25.0
 70
   192
  0
VERTEX
  5
3EE3
  8
0
 10
345.5088761874741
 20
-300.3433029034144
 30
-25.0
 70
   192
  0
VERTEX
  5
3EE4
  8
0
 10
345.5088761874741
 20
-300.3433029034144
 30
0.0
 70
   192
  0
VERTEX
  5
3EE5
  8
0
 10
241.9779319782369
 20
-371.4577007643651
 30
0.0
 70
   192
  0
VERTEX
  5
3EE6
  8
0
 10
241.977931978237
 20
-371.4577007643654
 30
-25.0
 70
   192
  0
VERTEX
  5
3EE7
  8
0
 10
371.4577007643647
 20
-241.977931978238
 30
-25.0
 70
   192
  0
VERTEX
  5
3EE8
  8
0
 10
371.4577007643648
 20
-241.977931978238
 30
0.0
 70
   192
  0
VERTEX
  5
3EE9
  8
0
 10
0.0
 20
0.0
 30
0.0
 70
   128
 71
     1
 72
     2
 73
    -3
  0
VERTEX
  5
3EEA
  8
0
 10
0.0
 20
0.0
 30
0.0
 70
   128
 71
    -1
 72
     3
 73
     4
  0
VERTEX
  5
3EEB
  8
0
 10
0.0
 20
0.0
 30
0.0
 70
   128
 71
     5
 72
     6
 73
    -2
  0
VERTEX
  5
3EEC
  8
0
 10
0.0
 20
0.0
 30
0.0
 70
   128
 71
    -5
 72
     2
 73
     1
  0
VERTEX
  5
3EED
  8
0
 10
0.0
 20
0.0
 30
0.0
 70
   128
 71
     4
 72
     3
 73
    -7
  0
VERTEX
  5
3EEE
  8
0
 10
0.0
 20
0.0
 30
0.0
 70
   128
 71
    -4
 72
     7
 73
     8
  0
SEQEND
  5
43A3
  8
0
  0
POLYLINE
  5
3EEF
  8
0
 66
     1
 10
0.0
 20
0.0
 30
0.0
 70
    64
 71
     8
 72
     6
  0
VERTEX
  5
3EF0
  8
0
 10
-81.3222913484095
 20
-396.8156465494939
 30
0.0
 70
   192
  0
VERTEX
  5
3EF1
  8
0
 10
-81.3222913484095
 20
-396.8156465494939
 30
-25.0
 70
   192
  0
VERTEX
  5
3EF2
  8
0
 10
81.32229134840902
 20
-396.8156465494939
 30
-25.0
 70
   192
  0
VERTEX
  5
3EF3
  8
0
 10
81.32229134840902
 20
-396.8156465494939
 30
0.0
 70
   192
  0
VERTEX
  5
3EF4
  8
0
 10
-241.9779319782374
 20
-371.4577007643653
 30
0.0
 70
   192
  0
VERTEX
  5
3EF5
  8
0
 10
-241.9779319782375
 20
-371.457700764365
 30
-25.0
 70
   192
  0
VERTEX
  5
3EF6
  8
0
 10
241.9779319782369
 20
-371.4577007643653
 30
-25.0
 70
   192
  0
VERTEX
  5
3EF7
  8
0
 10
241.977931978237
 20
-371.4577007643654
 30
0.0
 70
   192
  0
VERTEX
  5
3EF8
  8
0
 10
0.0
 20
0.0
 30
0.0
 70
   128
 71
     1
 72
     2
 73
    -3
  0
VERTEX
  5
3EF9
  8
0
 10
0.0
 20
0.0
 30
0.0
 70
   128
 71
    -1
 72
     3
 73
     4
  0
VERTEX
  5
3EFA
  8
0
 10
0.0
 20
0.0
 30
0.0
 70
   128
 71
     5
 72
     6
 73
    -2
  0
VERTEX
  5
3EFB
  8
0
 10
0.0
 20
0.0
 30
0.0
 70
   128
 71
    -5
 72
     2
 73
     1
  0
VERTEX
  5
3EFC
  8
0
 10
0.0
 20
0.0
 30
0.0
 70
   128
 71
     4
 72
     3
 73
    -7
  0
VERTEX
  5
3EFD
  8
0
 10
0.0
 20
0.0
 30
0.0
 70
   128
 71
    -4
 72
     7
 73
     8
  0
SEQEND
  5
43A4
  8
0
  0
POLYLINE
  5
3EFE
  8
0
 66
     1
 10
0.0
 20
0.0
 30
0.0
 70
    64
 71
     8
 72
     6
  0
VERTEX
  5
3EFF
  8
0
 10
-345.5088761874742
 20
-300.3433029034142
 30
0.0
 70
   192
  0
VERTEX
  5
3F00
  8
0
 10
-345.5088761874742
 20
-300.3433029034142
 30
-25.0
 70
   192
  0
VERTEX
  5
3F01
  8
0
 10
-300.3433029034139
 20
-345.5088761874745
 30
-25.0
 70
   192
  0
VERTEX
  5
3F02
  8
0
 10
-300.3433029034139
 20
-345.5088761874745
 30
0.0
 70
   192
  0
VERTEX
  5
3F03
  8
0
 10
-371.4577007643647
 20
-241.9779319782378
 30
0.0
 70
   192
  0
VERTEX
  5
3F04
  8
0
 10
-371.4577007643649
 20
-241.9779319782378
 30
-25.0
 70
   192
  0
VERTEX
  5
3F05
  8
0
 10
-241.9779319782376
 20
-371.457700764365
 30
-25.0
 70
   192
  0
VERTEX
  5
3F06
  8
0
 10
-241.9779319782375
 20
-371.457700764365
 30
0.0
 70
   192
  0
VERTEX
  5
3F07
  8
0
 10
0.0
 20
0.0
 30
0.0
 70
   128
 71
     1
 72
     2
 73
    -3
  0
VERTEX
  5
3F08
  8
0
 10
0.0
 20
0.0
 30
0.0
 70
   128
 71
    -1
 72
     3
 73
     4
  0
VERTEX
  5
3F09
  8
0
 10
0.0
 20
0.0
 30
0.0
 70
   128
 71
     5
 72
     6
 73
    -2
  0
VERTEX
  5
3F0A
  8
0
 10
0.0
 20
0.0
 30
0.0
 70
   128
 71
    -5
 72
     2
 73
     1
  0
VERTEX
  5
3F0B
  8
0
 10
0.0
 20
0.0
 30
0.0
 70
   128
 71
     4
 72
     3
 73
    -7
  0
VERTEX
  5
3F0C
  8
0
 10
0.0
 20
0.0
 30
0.0
 70
   128
 71
    -4
 72
     7
 73
     8
  0
SEQEND
  5
43A5
  8
0
  0
POLYLINE
  5
3F0D
  8
0
 66
     1
 10
0.0
 20
0.0
 30
0.0
 70
    64
 71
     8
 72
     6
  0
VERTEX
  5
3F0E
  8
0
 10
-396.8156465494937
 20
81.32229134840935
 30
0.0
 70
   192
  0
VERTEX
  5
3F0F
  8
0
 10
-396.8156465494937
 20
81.32229134840935
 30
-25.0
 70
   192
  0
VERTEX
  5
3F10
  8
0
 10
-396.8156465494937
 20
-81.32229134840885
 30
-25.0
 70
   192
  0
VERTEX
  5
3F11
  8
0
 10
-396.8156465494937
 20
-81.32229134840885
 30
0.0
 70
   192
  0
VERTEX
  5
3F12
  8
0
 10
-371.4577007643647
 20
241.9779319782378
 30
0.0
 70
   192
  0
VERTEX
  5
3F13
  8
0
 10
-371.4577007643647
 20
241.9779319782379
 30
-25.0
 70
   192
  0
VERTEX
  5
3F14
  8
0
 10
-371.4577007643649
 20
-241.9779319782373
 30
-25.0
 70
   192
  0
VERTEX
  5
3F15
  8
0
 10
-371.4577007643649
 20
-241.9779319782378
 30
0.0
 70
   192
  0
VERTEX
  5
3F16
  8
0
 10
0.0
 20
0.0
 30
0.0
 70
   128
 71
     1
 72
     2
 73
    -3
  0
VERTEX
  5
3F17
  8
0
 10
0.0
 20
0.0
 30
0.0
 70
   128
 71
    -1
 72
     3
 73
     4
  0
VERTEX
  5
3F18
  8
0
 10
0.0
 20
0.0
 30
0.0
 70
   128
 71
     5
 72
     6
 73
    -2
  0
VERTEX
  5
3F19
  8
0
 10
0.0
 20
0.0
 30
0.0
 70
   128
 71
    -5
 72
     2
 73
     1
  0
VERTEX
  5
3F1A
  8
0
 10
0.0
 20
0.0
 30
0.0
 70
   128
 71
     4
 72
     3
 73
    -7
  0
VERTEX
  5
3F1B
  8
0
 10
0.0
 20
0.0
 30
0.0
 70
   128
 71
    -4
 72
     7
 73
     8
  0
SEQEND
  5
43A6
  8
0
  0
POLYLINE
  5
3F1C
  8
0
 66
     1
 10
0.0
 20
0.0
 30
0.0
 70
    64
 71
     8
 72
     6
  0
VERTEX
  5
3F1D
  8
0
 10
-300.3433029034138
 20
345.5088761874745
 30
0.0
 70
   192
  0
VERTEX
  5
3F1E
  8
0
 10
-300.3433029034138
 20
345.5088761874745
 30
-25.0
 70
   192
  0
VERTEX
  5
3F1F
  8
0
 10
-345.5088761874741
 20
300.3433029034142
 30
-25.0
 70
   192
  0
VERTEX
  5
3F20
  8
0
 10
-345.5088761874741
 20
300.3433029034142
 30
0.0
 70
   192
  0
VERTEX
  5
3F21
  8
0
 10
-241.9779319782375
 20
371.4577007643649
 30
0.0
 70
   192
  0
VERTEX
  5
3F22
  8
0
 10
-241.9779319782375
 20
371.4577007643649
 30
-25.0
 70
   192
  0
VERTEX
  5
3F23
  8
0
 10
-371.4577007643647
 20
241.9779319782379
 30
-25.0
 70
   192
  0
VERTEX
  5
3F24
  8
0
 10
-371.4577007643647
 20
241.9779319782379
 30
0.0
 70
   192
  0
VERTEX
  5
3F25
  8
0
 10
0.0
 20
0.0
 30
0.0
 70
   128
 71
     1
 72
     2
 73
    -3
  0
VERTEX
  5
3F26
  8
0
 10
0.0
 20
0.0
 30
0.0
 70
   128
 71
    -1
 72
     3
 73
     4
  0
VERTEX
  5
3F27
  8
0
 10
0.0
 20
0.0
 30
0.0
 70
   128
 71
     5
 72
     6
 73
    -2
  0
VERTEX
  5
3F28
  8
0
 10
0.0
 20
0.0
 30
0.0
 70
   128
 71
    -5
 72
     2
 73
     1
  0
VERTEX
  5
3F29
  8
0
 10
0.0
 20
0.0
 30
0.0
 70
   128
 71
     4
 72
     3
 73
    -7
  0
VERTEX
  5
3F2A
  8
0
 10
0.0
 20
0.0
 30
0.0
 70
   128
 71
    -4
 72
     7
 73
     8
  0
SEQEND
  5
43A7
  8
0
  0
POLYLINE
  5
3F2B
  8
0
 66
     1
 10
0.0
 20
0.0
 30
0.0
 70
    64
 71
     8
 72
     6
  0
VERTEX
  5
3F2C
  8
0
 10
-80.14937368473001
 20
381.8615747242609
 30
-25.0
 70
   192
  0
VERTEX
  5
3F2D
  8
0
 10
80.14937368473011
 20
381.8615747242609
 30
-25.0
 70
   192
  0
VERTEX
  5
3F2E
  8
0
 10
80.14937368473011
 20
381.8615747242609
 30
-15.0
 70
   192
  0
VERTEX
  5
3F2F
  8
0
 10
-80.14937368473001
 20
381.8615747242609
 30
-15.0
 70
   192
  0
VERTEX
  5
3F30
  8
0
 10
238.4878656516285
 20
356.8693685418021
 30
-25.0
 70
   192
  0
VERTEX
  5
3F31
  8
0
 10
238.4878656516285
 20
356.8693685418021
 30
-15.0
 70
   192
  0
VERTEX
  5
3F32
  8
0
 10
-238.4878656516285
 20
356.8693685418021
 30
-25.0
 70
   192
  0
VERTEX
  5
3F33
  8
0
 10
-238.4878656516283
 20
356.8693685418021
 30
-15.0
 70
   192
  0
VERTEX
  5
3F34
  8
0
 10
0.0
 20
0.0
 30
0.0
 70
   128
 71
     1
 72
     2
 73
    -3
  0
VERTEX
  5
3F35
  8
0
 10
0.0
 20
0.0
 30
0.0
 70
   128
 71
     4
 72
    -1
 73
     3
  0
VERTEX
  5
3F36
  8
0
 10
0.0
 20
0.0
 30
0.0
 70
   128
 71
     2
 72
     5
 73
    -6
  0
VERTEX
  5
3F37
  8
0
 10
0.0
 20
0.0
 30
0.0
 70
   128
 71
     3
 72
    -2
 73
     6
  0
VERTEX
  5
3F38
  8
0
 10
0.0
 20
0.0
 30
0.0
 70
   128
 71
     7
 72
     1
 73
    -4
  0
VERTEX
  5
3F39
  8
0
 10
0.0
 20
0.0
 30
0.0
 70
   128
 71
     8
 72
    -7
 73
     4
  0
SEQEND
  5
43A8
  8
0
  0
POLYLINE
  5
3F3A
  8
0
 66
     1
 10
0.0
 20
0.0
 30
0.0
 70
    64
 71
     8
 72
     6
  0
VERTEX
  5
3F3B
  8
0
 10
291.8504904975038
 20
333.1447289286451
 30
-25.0
 70
   192
  0
VERTEX
  5
3F3C
  8
0
 10
333.1447289286447
 20
291.8504904975043
 30
-25.0
 70
   192
  0
VERTEX
  5
3F3D
  8
0
 10
333.1447289286447
 20
291.8504904975043
 30
-15.0
 70
   192
  0
VERTEX
  5
3F3E
  8
0
 10
291.8504904975038
 20
333.1447289286451
 30
-15.0
 70
   192
  0
VERTEX
  5
3F3F
  8
0
 10
356.8693685418018
 20
238.487865651629
 30
-25.0
 70
   192
  0
VERTEX
  5
3F40
  8
0
 10
356.8693685418018
 20
238.4878656516289
 30
-15.0
 70
   192
  0
VERTEX
  5
3F41
  8
0
 10
238.4878656516283
 20
356.869368541802
 30
-25.0
 70
   192
  0
VERTEX
  5
3F42
  8
0
 10
238.4878656516283
 20
356.869368541802
 30
-15.0
 70
   192
  0
VERTEX
  5
3F43
  8
0
 10
0.0
 20
0.0
 30
0.0
 70
   128
 71
     1
 72
     2
 73
    -3
  0
VERTEX
  5
3F44
  8
0
 10
0.0
 20
0.0
 30
0.0
 70
   128
 71
     4
 72
    -1
 73
     3
  0
VERTEX
  5
3F45
  8
0
 10
0.0
 20
0.0
 30
0.0
 70
   128
 71
     2
 72
     5
 73
    -6
  0
VERTEX
  5
3F46
  8
0
 10
0.0
 20
0.0
 30
0.0
 70
   128
 71
     3
 72
    -2
 73
     6
  0
VERTEX
  5
3F47
  8
0
 10
0.0
 20
0.0
 30
0.0
 70
   128
 71
     7
 72
     1
 73
    -4
  0
VERTEX
  5
3F48
  8
0
 10
0.0
 20
0.0
 30
0.0
 70
   128
 71
     8
 72
    -7
 73
     4
  0
SEQEND
  5
43A9
  8
0
  0
POLYLINE
  5
3F49
  8
0
 66
     1
 10
0.0
 20
0.0
 30
0.0
 70
    64
 71
     8
 72
     6
  0
VERTEX
  5
3F4A
  8
0
 10
381.8615747242608
 20
-80.14937368473005
 30
-25.0
 70
   192
  0
VERTEX
  5
3F4B
  8
0
 10
372.4655178496499
 20
-159.80793211052
 30
-25.0
 70
   192
  0
VERTEX
  5
3F4C
  8
0
 10
372.4655178496499
 20
-159.80793211052
 30
-15.0
 70
   192
  0
VERTEX
  5
3F4D
  8
0
 10
381.8615747242608
 20
-80.14937368473005
 30
-15.0
 70
   192
  0
VERTEX
  5
3F4E
  8
0
 10
356.8693685418021
 20
-238.4878656516284
 30
-25.0
 70
   192
  0
VERTEX
  5
3F4F
  8
0
 10
356.8693685418019
 20
-238.4878656516287
 30
-15.0
 70
   192
  0
VERTEX
  5
3F50
  8
0
 10
385.0000000000002
 20
-0.0000000000000272
 30
-25.0
 70
   192
  0
VERTEX
  5
3F51
  8
0
 10
385.0000000000002
 20
-0.0000000000000272
 30
-15.0
 70
   192
  0
VERTEX
  5
3F52
  8
0
 10
0.0
 20
0.0
 30
0.0
 70
   128
 71
     1
 72
     2
 73
    -3
  0
VERTEX
  5
3F53
  8
0
 10
0.0
 20
0.0
 30
0.0
 70
   128
 71
     4
 72
    -1
 73
     3
  0
VERTEX
  5
3F54
  8
0
 10
0.0
 20
0.0
 30
0.0
 70
   128
 71
     2
 72
     5
 73
    -6
  0
VERTEX
  5
3F55
  8
0
 10
0.0
 20
0.0
 30
0.0
 70
   128
 71
     3
 72
    -2
 73
     6
  0
VERTEX
  5
3F56
  8
0
 10
0.0
 20
0.0
 30
0.0
 70
   128
 71
     7
 72
     1
 73
    -4
  0
VERTEX
  5
3F57
  8
0
 10
0.0
 20
0.0
 30
0.0
 70
   128
 71
     8
 72
    -7
 73
     4
  0
SEQEND
  5
43AA
  8
0
  0
POLYLINE
  5
3F58
  8
0
 66
     1
 10
0.0
 20
0.0
 30
0.0
 70
    64
 71
     8
 72
     6
  0
VERTEX
  5
3F59
  8
0
 10
333.1447289286447
 20
-291.8504904975043
 30
-25.0
 70
   192
  0
VERTEX
  5
3F5A
  8
0
 10
291.8504904975035
 20
-333.1447289286452
 30
-25.0
 70
   192
  0
VERTEX
  5
3F5B
  8
0
 10
291.8504904975035
 20
-333.1447289286452
 30
-15.0
 70
   192
  0
VERTEX
  5
3F5C
  8
0
 10
333.1447289286447
 20
-291.8504904975043
 30
-15.0
 70
   192
  0
VERTEX
  5
3F5D
  8
0
 10
238.4878656516277
 20
-356.8693685418021
 30
-25.0
 70
   192
  0
VERTEX
  5
3F5E
  8
0
 10
238.4878656516277
 20
-356.8693685418021
 30
-15.0
 70
   192
  0
VERTEX
  5
3F5F
  8
0
 10
356.8693685418019
 20
-238.4878656516287
 30
-25.0
 70
   192
  0
VERTEX
  5
3F60
  8
0
 10
356.8693685418018
 20
-238.4878656516287
 30
-15.0
 70
   192
  0
VERTEX
  5
3F61
  8
0
 10
0.0
 20
0.0
 30
0.0
 70
   128
 71
     1
 72
     2
 73
    -3
  0
VERTEX
  5
3F62
  8
0
 10
0.0
 20
0.0
 30
0.0
 70
   128
 71
     4
 72
    -1
 73
     3
  0
VERTEX
  5
3F63
  8
0
 10
0.0
 20
0.0
 30
0.0
 70
   128
 71
     2
 72
     5
 73
    -6
  0
VERTEX
  5
3F64
  8
0
 10
0.0
 20
0.0
 30
0.0
 70
   128
 71
     3
 72
    -2
 73
     6
  0
VERTEX
  5
3F65
  8
0
 10
0.0
 20
0.0
 30
0.0
 70
   128
 71
     7
 72
     1
 73
    -4
  0
VERTEX
  5
3F66
  8
0
 10
0.0
 20
0.0
 30
0.0
 70
   128
 71
     8
 72
    -7
 73
     4
  0
SEQEND
  5
43AB
  8
0
  0
POLYLINE
  5
3F67
  8
0
 66
     1
 10
0.0
 20
0.0
 30
0.0
 70
    64
 71
     8
 72
     6
  0
VERTEX
  5
3F68
  8
0
 10
80.14937368472974
 20
-381.8615747242611
 30
-25.0
 70
   192
  0
VERTEX
  5
3F69
  8
0
 10
-80.14937368473018
 20
-381.8615747242611
 30
-25.0
 70
   192
  0
VERTEX
  5
3F6A
  8
0
 10
-80.14937368473018
 20
-381.8615747242611
 30
-15.0
 70
   192
  0
VERTEX
  5
3F6B
  8
0
 10
80.14937368472974
 20
-381.8615747242611
 30
-15.0
 70
   192
  0
VERTEX
  5
3F6C
  8
0
 10
-238.4878656516283
 20
-356.8693685418025
 30
-25.0
 70
   192
  0
VERTEX
  5
3F6D
  8
0
 10
-238.4878656516283
 20
-356.8693685418025
 30
-15.0
 70
   192
  0
VERTEX
  5
3F6E
  8
0
 10
238.4878656516278
 20
-356.8693685418024
 30
-25.0
 70
   192
  0
VERTEX
  5
3F6F
  8
0
 10
238.4878656516279
 20
-356.8693685418025
 30
-15.0
 70
   192
  0
VERTEX
  5
3F70
  8
0
 10
0.0
 20
0.0
 30
0.0
 70
   128
 71
     1
 72
     2
 73
    -3
  0
VERTEX
  5
3F71
  8
0
 10
0.0
 20
0.0
 30
0.0
 70
   128
 71
     4
 72
    -1
 73
     3
  0
VERTEX
  5
3F72
  8
0
 10
0.0
 20
0.0
 30
0.0
 70
   128
 71
     2
 72
     5
 73
    -6
  0
VERTEX
  5
3F73
  8
0
 10
0.0
 20
0.0
 30
0.0
 70
   128
 71
     3
 72
    -2
 73
     6
  0
VERTEX
  5
3F74
  8
0
 10
0.0
 20
0.0
 30
0.0
 70
   128
 71
     7
 72
     1
 73
    -4
  0
VERTEX
  5
3F75
  8
0
 10
0.0
 20
0.0
 30
0.0
 70
   128
 71
     8
 72
    -7
 73
     4
  0
SEQEND
  5
43AC
  8
0
  0
POLYLINE
  5
3F76
  8
0
 66
     1
 10
0.0
 20
0.0
 30
0.0
 70
    64
 71
     8
 72
     6
  0
VERTEX
  5
3F77
  8
0
 10
-291.8504904975038
 20
-333.1447289286451
 30
-25.0
 70
   192
  0
VERTEX
  5
3F78
  8
0
 10
-333.1447289286448
 20
-291.8504904975042
 30
-25.0
 70
   192
  0
VERTEX
  5
3F79
  8
0
 10
-333.144728928645
 20
-291.8504904975039
 30
-15.0
 70
   192
  0
VERTEX
  5
3F7A
  8
0
 10
-291.850490497504
 20
-333.144728928645
 30
-15.0
 70
   192
  0
VERTEX
  5
3F7B
  8
0
 10
-356.8693685418018
 20
-238.4878656516285
 30
-25.0
 70
   192
  0
VERTEX
  5
3F7C
  8
0
 10
-356.8693685418019
 20
-238.4878656516281
 30
-15.0
 70
   192
  0
VERTEX
  5
3F7D
  8
0
 10
-238.4878656516283
 20
-356.8693685418021
 30
-25.0
 70
   192
  0
VERTEX
  5
3F7E
  8
0
 10
-238.4878656516283
 20
-356.869368541802
 30
-15.0
 70
   192
  0
VERTEX
  5
3F7F
  8
0
 10
0.0
 20
0.0
 30
0.0
 70
   128
 71
     1
 72
     2
 73
    -3
  0
VERTEX
  5
3F80
  8
0
 10
0.0
 20
0.0
 30
0.0
 70
   128
 71
     4
 72
    -1
 73
     3
  0
VERTEX
  5
3F81
  8
0
 10
0.0
 20
0.0
 30
0.0
 70
   128
 71
     2
 72
     5
 73
    -6
  0
VERTEX
  5
3F82
  8
0
 10
0.0
 20
0.0
 30
0.0
 70
   128
 71
     3
 72
    -2
 73
     6
  0
VERTEX
  5
3F83
  8
0
 10
0.0
 20
0.0
 30
0.0
 70
   128
 71
     7
 72
     1
 73
    -4
  0
VERTEX
  5
3F84
  8
0
 10
0.0
 20
0.0
 30
0.0
 70
   128
 71
     8
 72
    -7
 73
     4
  0
SEQEND
  5
43AD
  8
0
  0
POLYLINE
  5
3F85
  8
0
 66
     1
 10
0.0
 20
0.0
 30
0.0
 70
    64
 71
     8
 72
     6
  0
VERTEX
  5
3F86
  8
0
 10
-381.8615747242608
 20
-80.14937368473001
 30
-25.0
 70
   192
  0
VERTEX
  5
3F87
  8
0
 10
-381.8615747242608
 20
80.14937368473026
 30
-25.0
 70
   192
  0
VERTEX
  5
3F88
  8
0
 10
-381.8615747242608
 20
80.14937368473026
 30
-15.0
 70
   192
  0
VERTEX
  5
3F89
  8
0
 10
-381.8615747242608
 20
-80.14937368473001
 30
-15.0
 70
   192
  0
VERTEX
  5
3F8A
  8
0
 10
-356.869368541802
 20
238.4878656516286
 30
-25.0
 70
   192
  0
VERTEX
  5
3F8B
  8
0
 10
-356.869368541802
 20
238.4878656516286
 30
-15.0
 70
   192
  0
VERTEX
  5
3F8C
  8
0
 10
-356.8693685418022
 20
-238.4878656516282
 30
-25.0
 70
   192
  0
VERTEX
  5
3F8D
  8
0
 10
-356.869368541802
 20
-238.4878656516283
 30
-15.0
 70
   192
  0
VERTEX
  5
3F8E
  8
0
 10
0.0
 20
0.0
 30
0.0
 70
   128
 71
     1
 72
     2
 73
    -3
  0
VERTEX
  5
3F8F
  8
0
 10
0.0
 20
0.0
 30
0.0
 70
   128
 71
     4
 72
    -1
 73
     3
  0
VERTEX
  5
3F90
  8
0
 10
0.0
 20
0.0
 30
0.0
 70
   128
 71
     2
 72
     5
 73
    -6
  0
VERTEX
  5
3F91
  8
0
 10
0.0
 20
0.0
 30
0.0
 70
   128
 71
     3
 72
    -2
 73
     6
  0
VERTEX
  5
3F92
  8
0
 10
0.0
 20
0.0
 30
0.0
 70
   128
 71
     7
 72
     1
 73
    -4
  0
VERTEX
  5
3F93
  8
0
 10
0.0
 20
0.0
 30
0.0
 70
   128
 71
     8
 72
    -7
 73
     4
  0
SEQEND
  5
43AE
  8
0
  0
POLYLINE
  5
3F94
  8
0
 66
     1
 10
0.0
 20
0.0
 30
0.0
 70
    64
 71
     8
 72
     6
  0
VERTEX
  5
3F95
  8
0
 10
-333.1447289286448
 20
291.8504904975041
 30
-25.0
 70
   192
  0
VERTEX
  5
3F96
  8
0
 10
-291.8504904975038
 20
333.144728928645
 30
-25.0
 70
   192
  0
VERTEX
  5
3F97
  8
0
 10
-291.8504904975038
 20
333.144728928645
 30
-15.0
 70
   192
  0
VERTEX
  5
3F98
  8
0
 10
-333.1447289286447
 20
291.8504904975042
 30
-15.0
 70
   192
  0
VERTEX
  5
3F99
  8
0
 10
-238.4878656516283
 20
356.8693685418019
 30
-25.0
 70
   192
  0
VERTEX
  5
3F9A
  8
0
 10
-238.4878656516283
 20
356.8693685418019
 30
-15.0
 70
   192
  0
VERTEX
  5
3F9B
  8
0
 10
-356.8693685418017
 20
238.4878656516287
 30
-25.0
 70
   192
  0
VERTEX
  5
3F9C
  8
0
 10
-356.8693685418017
 20
238.4878656516288
 30
-15.0
 70
   192
  0
VERTEX
  5
3F9D
  8
0
 10
0.0
 20
0.0
 30
0.0
 70
   128
 71
     1
 72
     2
 73
    -3
  0
VERTEX
  5
3F9E
  8
0
 10
0.0
 20
0.0
 30
0.0
 70
   128
 71
     4
 72
    -1
 73
     3
  0
VERTEX
  5
3F9F
  8
0
 10
0.0
 20
0.0
 30
0.0
 70
   128
 71
     2
 72
     5
 73
    -6
  0
VERTEX
  5
3FA0
  8
0
 10
0.0
 20
0.0
 30
0.0
 70
   128
 71
     3
 72
    -2
 73
     6
  0
VERTEX
  5
3FA1
  8
0
 10
0.0
 20
0.0
 30
0.0
 70
   128
 71
     7
 72
     1
 73
    -4
  0
VERTEX
  5
3FA2
  8
0
 10
0.0
 20
0.0
 30
0.0
 70
   128
 71
     8
 72
    -7
 73
     4
  0
SEQEND
  5
43AF
  8
0
  0
POLYLINE
  5
3FA3
  8
0
 66
     1
 10
0.0
 20
0.0
 30
0.0
 70
    64
 71
    27
 72
    25
  0
VERTEX
  5
3FA4
  8
0
 10
-238.4878656516283
 20
356.8693685418021
 30
-15.0
 70
   192
  0
VERTEX
  5
3FA5
  8
0
 10
-80.14937368473001
 20
381.8615747242609
 30
-15.0
 70
   192
  0
VERTEX
  5
3FA6
  8
0
 10
80.14937368473011
 20
381.8615747242609
 30
-15.0
 70
   192
  0
VERTEX
  5
3FA7
  8
0
 10
238.4878656516285
 20
356.8693685418021
 30
-15.0
 70
   192
  0
VERTEX
  5
3FA8
  8
0
 10
291.8504904975038
 20
333.1447289286451
 30
-15.0
 70
   192
  0
VERTEX
  5
3FA9
  8
0
 10
333.1447289286447
 20
291.8504904975043
 30
-15.0
 70
   192
  0
VERTEX
  5
3FAA
  8
0
 10
356.8693685418018
 20
238.4878656516289
 30
-15.0
 70
   192
  0
VERTEX
  5
3FAB
  8
0
 10
372.4655178496498
 20
159.8079321105206
 30
-15.0
 70
   192
  0
VERTEX
  5
3FAC
  8
0
 10
381.8615747242608
 20
80.14937368473024
 30
-15.0
 70
   192
  0
VERTEX
  5
3FAD
  8
0
 10
385.0000000000002
 20
0.0000000000000983
 30
-15.0
 70
   192
  0
VERTEX
  5
3FAE
  8
0
 10
381.8615747242608
 20
-80.14937368473005
 30
-15.0
 70
   192
  0
VERTEX
  5
3FAF
  8
0
 10
372.4655178496499
 20
-159.80793211052
 30
-15.0
 70
   192
  0
VERTEX
  5
3FB0
  8
0
 10
356.8693685418021
 20
-238.4878656516284
 30
-15.0
 70
   192
  0
VERTEX
  5
3FB1
  8
0
 10
333.1447289286447
 20
-291.8504904975043
 30
-15.0
 70
   192
  0
VERTEX
  5
3FB2
  8
0
 10
291.8504904975035
 20
-333.1447289286452
 30
-15.0
 70
   192
  0
VERTEX
  5
3FB3
  8
0
 10
238.4878656516277
 20
-356.8693685418021
 30
-15.0
 70
   192
  0
VERTEX
  5
3FB4
  8
0
 10
80.14937368472974
 20
-381.8615747242611
 30
-15.0
 70
   192
  0
VERTEX
  5
3FB5
  8
0
 10
-80.14937368473018
 20
-381.8615747242611
 30
-15.0
 70
   192
  0
VERTEX
  5
3FB6
  8
0
 10
-238.4878656516283
 20
-356.8693685418025
 30
-15.0
 70
   192
  0
VERTEX
  5
3FB7
  8
0
 10
-291.850490497504
 20
-333.144728928645
 30
-15.0
 70
   192
  0
VERTEX
  5
3FB8
  8
0
 10
-333.144728928645
 20
-291.8504904975039
 30
-15.0
 70
   192
  0
VERTEX
  5
3FB9
  8
0
 10
-356.8693685418019
 20
-238.4878656516281
 30
-15.0
 70
   192
  0
VERTEX
  5
3FBA
  8
0
 10
-381.8615747242608
 20
-80.14937368473001
 30
-15.0
 70
   192
  0
VERTEX
  5
3FBB
  8
0
 10
-381.8615747242608
 20
80.14937368473026
 30
-15.0
 70
   192
  0
VERTEX
  5
3FBC
  8
0
 10
-356.869368541802
 20
238.4878656516286
 30
-15.0
 70
   192
  0
VERTEX
  5
3FBD
  8
0
 10
-333.1447289286447
 20
291.8504904975042
 30
-15.0
 70
   192
  0
VERTEX
  5
3FBE
  8
0
 10
-291.8504904975038
 20
333.144728928645
 30
-15.0
 70
   192
  0
VERTEX
  5
3FBF
  8
0
 10
0.0
 20
0.0
 30
0.0
 70
   128
 71
     6
 72
     7
 73
    -8
  0
VERTEX
  5
3FC0
  8
0
 10
0.0
 20
0.0
 30
0.0
 70
   128
 71
     5
 72
    -6
 73
    -8
  0
VERTEX
  5
3FC1
  8
0
 10
0.0
 20
0.0
 30
0.0
 70
   128
 71
     4
 72
    -5
 73
    -8
  0
VERTEX
  5
3FC2
  8
0
 10
0.0
 20
0.0
 30
0.0
 70
   128
 71
     3
 72
    -4
 73
    -8
  0
VERTEX
  5
3FC3
  8
0
 10
0.0
 20
0.0
 30
0.0
 70
   128
 71
     2
 72
    -3
 73
    -8
  0
VERTEX
  5
3FC4
  8
0
 10
0.0
 20
0.0
 30
0.0
 70
   128
 71
     1
 72
    -2
 73
    -8
  0
VERTEX
  5
3FC5
  8
0
 10
0.0
 20
0.0
 30
0.0
 70
   128
 71
    27
 72
    -1
 73
    -8
  0
VERTEX
  5
3FC6
  8
0
 10
0.0
 20
0.0
 30
0.0
 70
   128
 71
    26
 72
   -27
 73
    -8
  0
VERTEX
  5
3FC7
  8
0
 10
0.0
 20
0.0
 30
0.0
 70
   128
 71
    25
 72
   -26
 73
    -8
  0
VERTEX
  5
3FC8
  8
0
 10
0.0
 20
0.0
 30
0.0
 70
   128
 71
    24
 72
   -25
 73
    -8
  0
VERTEX
  5
3FC9
  8
0
 10
0.0
 20
0.0
 30
0.0
 70
   128
 71
     8
 72
    -9
 73
   -24
  0
VERTEX
  5
3FCA
  8
0
 10
0.0
 20
0.0
 30
0.0
 70
   128
 71
   -10
 72
    23
 73
   -24
  0
VERTEX
  5
3FCB
  8
0
 10
0.0
 20
0.0
 30
0.0
 70
   128
 71
     9
 72
   -10
 73
   -24
  0
VERTEX
  5
3FCC
  8
0
 10
0.0
 20
0.0
 30
0.0
 70
   128
 71
    10
 72
   -11
 73
   -23
  0
VERTEX
  5
3FCD
  8
0
 10
0.0
 20
0.0
 30
0.0
 70
   128
 71
    11
 72
   -12
 73
   -23
  0
VERTEX
  5
3FCE
  8
0
 10
0.0
 20
0.0
 30
0.0
 70
   128
 71
    21
 72
    22
 73
   -23
  0
VERTEX
  5
3FCF
  8
0
 10
0.0
 20
0.0
 30
0.0
 70
   128
 71
    20
 72
   -21
 73
   -23
  0
VERTEX
  5
3FD0
  8
0
 10
0.0
 20
0.0
 30
0.0
 70
   128
 71
    19
 72
   -20
 73
   -23
  0
VERTEX
  5
3FD1
  8
0
 10
0.0
 20
0.0
 30
0.0
 70
   128
 71
    18
 72
   -19
 73
   -23
  0
VERTEX
  5
3FD2
  8
0
 10
0.0
 20
0.0
 30
0.0
 70
   128
 71
    17
 72
   -18
 73
   -23
  0
VERTEX
  5
3FD3
  8
0
 10
0.0
 20
0.0
 30
0.0
 70
   128
 71
    16
 72
   -17
 73
   -23
  0
VERTEX
  5
3FD4
  8
0
 10
0.0
 20
0.0
 30
0.0
 70
   128
 71
    15
 72
   -16
 73
   -23
  0
VERTEX
  5
3FD5
  8
0
 10
0.0
 20
0.0
 30
0.0
 70
   128
 71
    14
 72
   -15
 73
   -23
  0
VERTEX
  5
3FD6
  8
0
 10
0.0
 20
0.0
 30
0.0
 70
   128
 71
    13
 72
   -14
 73
   -23
  0
VERTEX
  5
3FD7
  8
0
 10
0.0
 20
0.0
 30
0.0
 70
   128
 71
    12
 72
   -13
 73
   -23
  0
SEQEND
  5
43B0
  8
0
  0
POLYLINE
  5
3FD8
  8
0
 66
     1
 10
0.0
 20
0.0
 30
0.0
 70
    64
 71
     8
 72
     6
  0
VERTEX
  5
3FD9
  8
0
 10
-80.54034623929097
 20
386.8462653326718
 30
-0.5
 70
   192
  0
VERTEX
  5
3FDA
  8
0
 10
80.54034623928891
 20
386.846265332672
 30
-0.5
 70
   192
  0
VERTEX
  5
3FDB
  8
0
 10
80.54034623928891
 20
386.846265332672
 30
0.0
 70
   192
  0
VERTEX
  5
3FDC
  8
0
 10
-80.54034623929097
 20
386.8462653326718
 30
0.0
 70
   192
  0
VERTEX
  5
3FDD
  8
0
 10
239.6512210938309
 20
361.7321459493232
 30
-0.5
 70
   192
  0
VERTEX
  5
3FDE
  8
0
 10
239.6512210938309
 20
361.7321459493232
 30
0.0
 70
   192
  0
VERTEX
  5
3FDF
  8
0
 10
-239.6512210938317
 20
361.7321459493232
 30
-0.5
 70
   192
  0
VERTEX
  5
3FE0
  8
0
 10
-239.651221093833
 20
361.7321459493228
 30
0.0
 70
   192
  0
VERTEX
  5
3FE1
  8
0
 10
0.0
 20
0.0
 30
0.0
 70
   128
 71
     1
 72
     2
 73
    -3
  0
VERTEX
  5
3FE2
  8
0
 10
0.0
 20
0.0
 30
0.0
 70
   128
 71
     4
 72
    -1
 73
     3
  0
VERTEX
  5
3FE3
  8
0
 10
0.0
 20
0.0
 30
0.0
 70
   128
 71
     2
 72
     5
 73
    -6
  0
VERTEX
  5
3FE4
  8
0
 10
0.0
 20
0.0
 30
0.0
 70
   128
 71
     3
 72
    -2
 73
     6
  0
VERTEX
  5
3FE5
  8
0
 10
0.0
 20
0.0
 30
0.0
 70
   128
 71
     7
 72
     1
 73
    -4
  0
VERTEX
  5
3FE6
  8
0
 10
0.0
 20
0.0
 30
0.0
 70
   128
 71
     8
 72
    -7
 73
     4
  0
SEQEND
  5
43B1
  8
0
  0
POLYLINE
  5
3FE7
  8
0
 66
     1
 10
0.0
 20
0.0
 30
0.0
 70
    64
 71
     8
 72
     6
  0
VERTEX
  5
3FE8
  8
0
 10
294.6814279661404
 20
337.266111348255
 30
-0.5
 70
   192
  0
VERTEX
  5
3FE9
  8
0
 10
337.2661113482545
 20
294.6814279661411
 30
-0.5
 70
   192
  0
VERTEX
  5
3FEA
  8
0
 10
337.2661113482545
 20
294.6814279661411
 30
0.0
 70
   192
  0
VERTEX
  5
3FEB
  8
0
 10
294.6814279661404
 20
337.266111348255
 30
0.0
 70
   192
  0
VERTEX
  5
3FEC
  8
0
 10
361.7321459493228
 20
239.6512210938319
 30
-0.5
 70
   192
  0
VERTEX
  5
3FED
  8
0
 10
361.7321459493228
 20
239.6512210938319
 30
0.0
 70
   192
  0
VERTEX
  5
3FEE
  8
0
 10
239.6512210938313
 20
361.7321459493232
 30
-0.5
 70
   192
  0
VERTEX
  5
3FEF
  8
0
 10
239.6512210938312
 20
361.732145949323
 30
0.0
 70
   192
  0
VERTEX
  5
3FF0
  8
0
 10
0.0
 20
0.0
 30
0.0
 70
   128
 71
     1
 72
     2
 73
    -3
  0
VERTEX
  5
3FF1
  8
0
 10
0.0
 20
0.0
 30
0.0
 70
   128
 71
     4
 72
    -1
 73
     3
  0
VERTEX
  5
3FF2
  8
0
 10
0.0
 20
0.0
 30
0.0
 70
   128
 71
     2
 72
     5
 73
    -6
  0
VERTEX
  5
3FF3
  8
0
 10
0.0
 20
0.0
 30
0.0
 70
   128
 71
     3
 72
    -2
 73
     6
  0
VERTEX
  5
3FF4
  8
0
 10
0.0
 20
0.0
 30
0.0
 70
   128
 71
     7
 72
     1
 73
    -4
  0
VERTEX
  5
3FF5
  8
0
 10
0.0
 20
0.0
 30
0.0
 70
   128
 71
     8
 72
    -7
 73
     4
  0
SEQEND
  5
43B2
  8
0
  0
POLYLINE
  5
3FF6
  8
0
 66
     1
 10
0.0
 20
0.0
 30
0.0
 70
    64
 71
     8
 72
     6
  0
VERTEX
  5
3FF7
  8
0
 10
386.8462653326715
 20
-80.5403462392899
 30
-0.5
 70
   192
  0
VERTEX
  5
3FF8
  8
0
 10
377.4043740342819
 20
-160.5874829988643
 30
-0.5
 70
   192
  0
VERTEX
  5
3FF9
  8
0
 10
377.4043740342819
 20
-160.5874829988643
 30
0.0
 70
   192
  0
VERTEX
  5
3FFA
  8
0
 10
386.8462653326715
 20
-80.5403462392899
 30
0.0
 70
   192
  0
VERTEX
  5
3FFB
  8
0
 10
361.7321459493226
 20
-239.6512210938317
 30
-0.5
 70
   192
  0
VERTEX
  5
3FFC
  8
0
 10
361.7321459493226
 20
-239.6512210938318
 30
0.0
 70
   192
  0
VERTEX
  5
3FFD
  8
0
 10
389.9999999999999
 20
-0.0000000000000272
 30
-0.5
 70
   192
  0
VERTEX
  5
3FFE
  8
0
 10
389.9999999999999
 20
-0.0000000000000272
 30
0.0
 70
   192
  0
VERTEX
  5
3FFF
  8
0
 10
0.0
 20
0.0
 30
0.0
 70
   128
 71
     1
 72
     2
 73
    -3
  0
VERTEX
  5
4000
  8
0
 10
0.0
 20
0.0
 30
0.0
 70
   128
 71
     4
 72
    -1
 73
     3
  0
VERTEX
  5
4001
  8
0
 10
0.0
 20
0.0
 30
0.0
 70
   128
 71
     2
 72
     5
 73
    -6
  0
VERTEX
  5
4002
  8
0
 10
0.0
 20
0.0
 30
0.0
 70
   128
 71
     3
 72
    -2
 73
     6
  0
VERTEX
  5
4003
  8
0
 10
0.0
 20
0.0
 30
0.0
 70
   128
 71
     7
 72
     1
 73
    -4
  0
VERTEX
  5
4004
  8
0
 10
0.0
 20
0.0
 30
0.0
 70
   128
 71
     8
 72
    -7
 73
     4
  0
SEQEND
  5
43B3
  8
0
  0
POLYLINE
  5
4005
  8
0
 66
     1
 10
0.0
 20
0.0
 30
0.0
 70
    64
 71
     8
 72
     6
  0
VERTEX
  5
4006
  8
0
 10
337.2661113482545
 20
-294.6814279661409
 30
-0.5
 70
   192
  0
VERTEX
  5
4007
  8
0
 10
294.6814279661405
 20
-337.2661113482548
 30
-0.5
 70
   192
  0
VERTEX
  5
4008
  8
0
 10
294.6814279661405
 20
-337.2661113482548
 30
0.0
 70
   192
  0
VERTEX
  5
4009
  8
0
 10
337.2661113482545
 20
-294.6814279661409
 30
0.0
 70
   192
  0
VERTEX
  5
400A
  8
0
 10
239.6512210938313
 20
-361.7321459493229
 30
-0.5
 70
   192
  0
VERTEX
  5
400B
  8
0
 10
239.6512210938313
 20
-361.7321459493229
 30
0.0
 70
   192
  0
VERTEX
  5
400C
  8
0
 10
361.7321459493226
 20
-239.6512210938318
 30
-0.5
 70
   192
  0
VERTEX
  5
400D
  8
0
 10
361.7321459493227
 20
-239.6512210938318
 30
0.0
 70
   192
  0
VERTEX
  5
400E
  8
0
 10
0.0
 20
0.0
 30
0.0
 70
   128
 71
     1
 72
     2
 73
    -3
  0
VERTEX
  5
400F
  8
0
 10
0.0
 20
0.0
 30
0.0
 70
   128
 71
     4
 72
    -1
 73
     3
  0
VERTEX
  5
4010
  8
0
 10
0.0
 20
0.0
 30
0.0
 70
   128
 71
     2
 72
     5
 73
    -6
  0
VERTEX
  5
4011
  8
0
 10
0.0
 20
0.0
 30
0.0
 70
   128
 71
     3
 72
    -2
 73
     6
  0
VERTEX
  5
4012
  8
0
 10
0.0
 20
0.0
 30
0.0
 70
   128
 71
     7
 72
     1
 73
    -4
  0
VERTEX
  5
4013
  8
0
 10
0.0
 20
0.0
 30
0.0
 70
   128
 71
     8
 72
    -7
 73
     4
  0
SEQEND
  5
43B4
  8
0
  0
POLYLINE
  5
4014
  8
0
 66
     1
 10
0.0
 20
0.0
 30
0.0
 70
    64
 71
     8
 72
     6
  0
VERTEX
  5
4015
  8
0
 10
80.54034623928969
 20
-386.8462653326718
 30
-0.5
 70
   192
  0
VERTEX
  5
4016
  8
0
 10
-80.54034623929016
 20
-386.8462653326718
 30
-0.5
 70
   192
  0
VERTEX
  5
4017
  8
0
 10
-80.54034623929016
 20
-386.8462653326718
 30
0.0
 70
   192
  0
VERTEX
  5
4018
  8
0
 10
80.54034623928969
 20
-386.8462653326718
 30
0.0
 70
   192
  0
VERTEX
  5
4019
  8
0
 10
-239.6512210938312
 20
-361.732145949323
 30
-0.5
 70
   192
  0
VERTEX
  5
401A
  8
0
 10
-239.6512210938312
 20
-361.732145949323
 30
0.0
 70
   192
  0
VERTEX
  5
401B
  8
0
 10
239.6512210938313
 20
-361.7321459493229
 30
-0.5
 70
   192
  0
VERTEX
  5
401C
  8
0
 10
239.6512210938308
 20
-361.732145949323
 30
0.0
 70
   192
  0
VERTEX
  5
401D
  8
0
 10
0.0
 20
0.0
 30
0.0
 70
   128
 71
     1
 72
     2
 73
    -3
  0
VERTEX
  5
401E
  8
0
 10
0.0
 20
0.0
 30
0.0
 70
   128
 71
     4
 72
    -1
 73
     3
  0
VERTEX
  5
401F
  8
0
 10
0.0
 20
0.0
 30
0.0
 70
   128
 71
     2
 72
     5
 73
    -6
  0
VERTEX
  5
4020
  8
0
 10
0.0
 20
0.0
 30
0.0
 70
   128
 71
     3
 72
    -2
 73
     6
  0
VERTEX
  5
4021
  8
0
 10
0.0
 20
0.0
 30
0.0
 70
   128
 71
     7
 72
     1
 73
    -4
  0
VERTEX
  5
4022
  8
0
 10
0.0
 20
0.0
 30
0.0
 70
   128
 71
     8
 72
    -7
 73
     4
  0
SEQEND
  5
43B5
  8
0
  0
POLYLINE
  5
4023
  8
0
 66
     1
 10
0.0
 20
0.0
 30
0.0
 70
    64
 71
     8
 72
     6
  0
VERTEX
  5
4024
  8
0
 10
-294.6814279661404
 20
-337.2661113482549
 30
-0.5
 70
   192
  0
VERTEX
  5
4025
  8
0
 10
-337.2661113482545
 20
-294.6814279661409
 30
-0.5
 70
   192
  0
VERTEX
  5
4026
  8
0
 10
-337.2661113482545
 20
-294.6814279661409
 30
0.0
 70
   192
  0
VERTEX
  5
4027
  8
0
 10
-294.6814279661404
 20
-337.2661113482549
 30
0.0
 70
   192
  0
VERTEX
  5
4028
  8
0
 10
-361.7321459493227
 20
-239.6512210938318
 30
-0.5
 70
   192
  0
VERTEX
  5
4029
  8
0
 10
-361.7321459493227
 20
-239.6512210938318
 30
0.0
 70
   192
  0
VERTEX
  5
402A
  8
0
 10
-239.6512210938312
 20
-361.732145949323
 30
-0.5
 70
   192
  0
VERTEX
  5
402B
  8
0
 10
-239.6512210938313
 20
-361.732145949323
 30
0.0
 70
   192
  0
VERTEX
  5
402C
  8
0
 10
0.0
 20
0.0
 30
0.0
 70
   128
 71
     1
 72
     2
 73
    -3
  0
VERTEX
  5
402D
  8
0
 10
0.0
 20
0.0
 30
0.0
 70
   128
 71
     4
 72
    -1
 73
     3
  0
VERTEX
  5
402E
  8
0
 10
0.0
 20
0.0
 30
0.0
 70
   128
 71
     2
 72
     5
 73
    -6
  0
VERTEX
  5
402F
  8
0
 10
0.0
 20
0.0
 30
0.0
 70
   128
 71
     3
 72
    -2
 73
     6
  0
VERTEX
  5
4030
  8
0
 10
0.0
 20
0.0
 30
0.0
 70
   128
 71
     7
 72
     1
 73
    -4
  0
VERTEX
  5
4031
  8
0
 10
0.0
 20
0.0
 30
0.0
 70
   128
 71
     8
 72
    -7
 73
     4
  0
SEQEND
  5
43B6
  8
0
  0
POLYLINE
  5
4032
  8
0
 66
     1
 10
0.0
 20
0.0
 30
0.0
 70
    64
 71
     8
 72
     6
  0
VERTEX
  5
4033
  8
0
 10
-386.8462653326712
 20
-80.54034623928996
 30
-0.5
 70
   192
  0
VERTEX
  5
4034
  8
0
 10
-386.8462653326715
 20
80.54034623929002
 30
-0.5
 70
   192
  0
VERTEX
  5
4035
  8
0
 10
-386.8462653326715
 20
80.54034623929002
 30
0.0
 70
   192
  0
VERTEX
  5
4036
  8
0
 10
-386.8462653326712
 20
-80.54034623928996
 30
0.0
 70
   192
  0
VERTEX
  5
4037
  8
0
 10
-361.7321459493226
 20
239.6512210938317
 30
-0.5
 70
   192
  0
VERTEX
  5
4038
  8
0
 10
-361.7321459493226
 20
239.6512210938317
 30
0.0
 70
   192
  0
VERTEX
  5
4039
  8
0
 10
-361.7321459493227
 20
-239.6512210938318
 30
-0.5
 70
   192
  0
VERTEX
  5
403A
  8
0
 10
-361.7321459493226
 20
-239.6512210938316
 30
0.0
 70
   192
  0
VERTEX
  5
403B
  8
0
 10
0.0
 20
0.0
 30
0.0
 70
   128
 71
     1
 72
     2
 73
    -3
  0
VERTEX
  5
403C
  8
0
 10
0.0
 20
0.0
 30
0.0
 70
   128
 71
     4
 72
    -1
 73
     3
  0
VERTEX
  5
403D
  8
0
 10
0.0
 20
0.0
 30
0.0
 70
   128
 71
     2
 72
     5
 73
    -6
  0
VERTEX
  5
403E
  8
0
 10
0.0
 20
0.0
 30
0.0
 70
   128
 71
     3
 72
    -2
 73
     6
  0
VERTEX
  5
403F
  8
0
 10
0.0
 20
0.0
 30
0.0
 70
   128
 71
     7
 72
     1
 73
    -4
  0
VERTEX
  5
4040
  8
0
 10
0.0
 20
0.0
 30
0.0
 70
   128
 71
     8
 72
    -7
 73
     4
  0
SEQEND
  5
43B7
  8
0
  0
POLYLINE
  5
4041
  8
0
 66
     1
 10
0.0
 20
0.0
 30
0.0
 70
    64
 71
     8
 72
     6
  0
VERTEX
  5
4042
  8
0
 10
-286.1886155602306
 20
324.9019640894254
 30
0.0
 70
   192
  0
VERTEX
  5
4043
  8
0
 10
-286.1886155602306
 20
324.9019640894254
 30
-0.5
 70
   192
  0
VERTEX
  5
4044
  8
0
 10
-324.9019640894252
 20
286.1886155602308
 30
-0.5
 70
   192
  0
VERTEX
  5
4045
  8
0
 10
-324.9019640894252
 20
286.1886155602308
 30
0.0
 70
   192
  0
VERTEX
  5
4046
  8
0
 10
-236.1611547672222
 20
347.1438137267601
 30
0.0
 70
   192
  0
VERTEX
  5
4047
  8
0
 10
-236.1611547672222
 20
347.1438137267601
 30
-0.5
 70
   192
  0
VERTEX
  5
4048
  8
0
 10
-347.14381372676
 20
236.1611547672224
 30
-0.5
 70
   192
  0
VERTEX
  5
4049
  8
0
 10
-347.1438137267598
 20
236.1611547672223
 30
0.0
 70
   192
  0
VERTEX
  5
404A
  8
0
 10
0.0
 20
0.0
 30
0.0
 70
   128
 71
     1
 72
     2
 73
    -3
  0
VERTEX
  5
404B
  8
0
 10
0.0
 20
0.0
 30
0.0
 70
   128
 71
    -1
 72
     3
 73
     4
  0
VERTEX
  5
404C
  8
0
 10
0.0
 20
0.0
 30
0.0
 70
   128
 71
     5
 72
     6
 73
    -2
  0
VERTEX
  5
404D
  8
0
 10
0.0
 20
0.0
 30
0.0
 70
   128
 71
    -5
 72
     2
 73
     1
  0
VERTEX
  5
404E
  8
0
 10
0.0
 20
0.0
 30
0.0
 70
   128
 71
     4
 72
     3
 73
    -7
  0
VERTEX
  5
404F
  8
0
 10
0.0
 20
0.0
 30
0.0
 70
   128
 71
    -4
 72
     7
 73
     8
  0
SEQEND
  5
43B8
  8
0
  0
POLYLINE
  5
4050
  8
0
 66
     1
 10
0.0
 20
0.0
 30
0.0
 70
    64
 71
     8
 72
     6
  0
VERTEX
  5
4051
  8
0
 10
-371.8921935074385
 20
79.36742857561099
 30
0.0
 70
   192
  0
VERTEX
  5
4052
  8
0
 10
-371.8921935074385
 20
79.36742857561099
 30
-0.5
 70
   192
  0
VERTEX
  5
4053
  8
0
 10
-371.8921935074384
 20
-79.36742857561093
 30
-0.5
 70
   192
  0
VERTEX
  5
4054
  8
0
 10
-371.8921935074384
 20
-79.36742857561093
 30
0.0
 70
   192
  0
VERTEX
  5
4055
  8
0
 10
-347.1438137267598
 20
236.1611547672223
 30
0.0
 70
   192
  0
VERTEX
  5
4056
  8
0
 10
-347.1438137267598
 20
236.1611547672223
 30
-0.5
 70
   192
  0
VERTEX
  5
4057
  8
0
 10
-347.1438137267598
 20
-236.1611547672223
 30
-0.5
 70
   192
  0
VERTEX
  5
4058
  8
0
 10
-347.1438137267596
 20
-236.1611547672225
 30
0.0
 70
   192
  0
VERTEX
  5
4059
  8
0
 10
0.0
 20
0.0
 30
0.0
 70
   128
 71
     1
 72
     2
 73
    -3
  0
VERTEX
  5
405A
  8
0
 10
0.0
 20
0.0
 30
0.0
 70
   128
 71
    -1
 72
     3
 73
     4
  0
VERTEX
  5
405B
  8
0
 10
0.0
 20
0.0
 30
0.0
 70
   128
 71
     5
 72
     6
 73
    -2
  0
VERTEX
  5
405C
  8
0
 10
0.0
 20
0.0
 30
0.0
 70
   128
 71
    -5
 72
     2
 73
     1
  0
VERTEX
  5
405D
  8
0
 10
0.0
 20
0.0
 30
0.0
 70
   128
 71
     4
 72
     3
 73
    -7
  0
VERTEX
  5
405E
  8
0
 10
0.0
 20
0.0
 30
0.0
 70
   128
 71
    -4
 72
     7
 73
     8
  0
SEQEND
  5
43B9
  8
0
  0
POLYLINE
  5
405F
  8
0
 66
     1
 10
0.0
 20
0.0
 30
0.0
 70
    64
 71
     8
 72
     6
  0
VERTEX
  5
4060
  8
0
 10
-324.901964089425
 20
-286.1886155602308
 30
0.0
 70
   192
  0
VERTEX
  5
4061
  8
0
 10
-324.901964089425
 20
-286.1886155602308
 30
-0.5
 70
   192
  0
VERTEX
  5
4062
  8
0
 10
-286.1886155602303
 20
-324.9019640894253
 30
-0.5
 70
   192
  0
VERTEX
  5
4063
  8
0
 10
-286.1886155602303
 20
-324.9019640894253
 30
0.0
 70
   192
  0
VERTEX
  5
4064
  8
0
 10
-347.1438137267597
 20
-236.1611547672226
 30
0.0
 70
   192
  0
VERTEX
  5
4065
  8
0
 10
-347.1438137267596
 20
-236.1611547672225
 30
-0.5
 70
   192
  0
VERTEX
  5
4066
  8
0
 10
-236.1611547672221
 20
-347.14381372676
 30
-0.5
 70
   192
  0
VERTEX
  5
4067
  8
0
 10
-236.161154767222
 20
-347.14381372676
 30
0.0
 70
   192
  0
VERTEX
  5
4068
  8
0
 10
0.0
 20
0.0
 30
0.0
 70
   128
 71
     1
 72
     2
 73
    -3
  0
VERTEX
  5
4069
  8
0
 10
0.0
 20
0.0
 30
0.0
 70
   128
 71
    -1
 72
     3
 73
     4
  0
VERTEX
  5
406A
  8
0
 10
0.0
 20
0.0
 30
0.0
 70
   128
 71
     5
 72
     6
 73
    -2
  0
VERTEX
  5
406B
  8
0
 10
0.0
 20
0.0
 30
0.0
 70
   128
 71
    -5
 72
     2
 73
     1
  0
VERTEX
  5
406C
  8
0
 10
0.0
 20
0.0
 30
0.0
 70
   128
 71
     4
 72
     3
 73
    -7
  0
VERTEX
  5
406D
  8
0
 10
0.0
 20
0.0
 30
0.0
 70
   128
 71
    -4
 72
     7
 73
     8
  0
SEQEND
  5
43BA
  8
0
  0
POLYLINE
  5
406E
  8
0
 66
     1
 10
0.0
 20
0.0
 30
0.0
 70
    64
 71
     8
 72
     6
  0
VERTEX
  5
406F
  8
0
 10
-79.36742857561117
 20
-371.8921935074385
 30
0.0
 70
   192
  0
VERTEX
  5
4070
  8
0
 10
-79.36742857561117
 20
-371.8921935074385
 30
-0.5
 70
   192
  0
VERTEX
  5
4071
  8
0
 10
79.3674285756107
 20
-371.8921935074385
 30
-0.5
 70
   192
  0
VERTEX
  5
4072
  8
0
 10
79.3674285756107
 20
-371.8921935074385
 30
0.0
 70
   192
  0
VERTEX
  5
4073
  8
0
 10
-236.161154767222
 20
-347.14381372676
 30
0.0
 70
   192
  0
VERTEX
  5
4074
  8
0
 10
-236.161154767222
 20
-347.14381372676
 30
-0.5
 70
   192
  0
VERTEX
  5
4075
  8
0
 10
236.1611547672215
 20
-347.14381372676
 30
-0.5
 70
   192
  0
VERTEX
  5
4076
  8
0
 10
236.1611547672222
 20
-347.14381372676
 30
0.0
 70
   192
  0
VERTEX
  5
4077
  8
0
 10
0.0
 20
0.0
 30
0.0
 70
   128
 71
     1
 72
     2
 73
    -3
  0
VERTEX
  5
4078
  8
0
 10
0.0
 20
0.0
 30
0.0
 70
   128
 71
    -1
 72
     3
 73
     4
  0
VERTEX
  5
4079
  8
0
 10
0.0
 20
0.0
 30
0.0
 70
   128
 71
     5
 72
     6
 73
    -2
  0
VERTEX
  5
407A
  8
0
 10
0.0
 20
0.0
 30
0.0
 70
   128
 71
    -5
 72
     2
 73
     1
  0
VERTEX
  5
407B
  8
0
 10
0.0
 20
0.0
 30
0.0
 70
   128
 71
     4
 72
     3
 73
    -7
  0
VERTEX
  5
407C
  8
0
 10
0.0
 20
0.0
 30
0.0
 70
   128
 71
    -4
 72
     7
 73
     8
  0
SEQEND
  5
43BB
  8
0
  0
POLYLINE
  5
407D
  8
0
 66
     1
 10
0.0
 20
0.0
 30
0.0
 70
    64
 71
     8
 72
     6
  0
VERTEX
  5
407E
  8
0
 10
286.1886155602305
 20
-324.9019640894253
 30
0.0
 70
   192
  0
VERTEX
  5
407F
  8
0
 10
286.1886155602305
 20
-324.9019640894253
 30
-0.5
 70
   192
  0
VERTEX
  5
4080
  8
0
 10
324.9019640894251
 20
-286.1886155602307
 30
-0.5
 70
   192
  0
VERTEX
  5
4081
  8
0
 10
324.9019640894251
 20
-286.1886155602307
 30
0.0
 70
   192
  0
VERTEX
  5
4082
  8
0
 10
236.1611547672222
 20
-347.14381372676
 30
0.0
 70
   192
  0
VERTEX
  5
4083
  8
0
 10
236.1611547672222
 20
-347.14381372676
 30
-0.5
 70
   192
  0
VERTEX
  5
4084
  8
0
 10
347.1438137267598
 20
-236.1611547672224
 30
-0.5
 70
   192
  0
VERTEX
  5
4085
  8
0
 10
347.1438137267598
 20
-236.1611547672224
 30
0.0
 70
   192
  0
VERTEX
  5
4086
  8
0
 10
0.0
 20
0.0
 30
0.0
 70
   128
 71
     1
 72
     2
 73
    -3
  0
VERTEX
  5
4087
  8
0
 10
0.0
 20
0.0
 30
0.0
 70
   128
 71
    -1
 72
     3
 73
     4
  0
VERTEX
  5
4088
  8
0
 10
0.0
 20
0.0
 30
0.0
 70
   128
 71
     5
 72
     6
 73
    -2
  0
VERTEX
  5
4089
  8
0
 10
0.0
 20
0.0
 30
0.0
 70
   128
 71
    -5
 72
     2
 73
     1
  0
VERTEX
  5
408A
  8
0
 10
0.0
 20
0.0
 30
0.0
 70
   128
 71
     4
 72
     3
 73
    -7
  0
VERTEX
  5
408B
  8
0
 10
0.0
 20
0.0
 30
0.0
 70
   128
 71
    -4
 72
     7
 73
     8
  0
SEQEND
  5
43BC
  8
0
  0
POLYLINE
  5
408C
  8
0
 66
     1
 10
0.0
 20
0.0
 30
0.0
 70
    64
 71
     8
 72
     6
  0
VERTEX
  5
408D
  8
0
 10
371.8921935074385
 20
79.36742857561096
 30
0.0
 70
   192
  0
VERTEX
  5
408E
  8
0
 10
371.8921935074385
 20
79.36742857561096
 30
-0.5
 70
   192
  0
VERTEX
  5
408F
  8
0
 10
362.5878054803846
 20
158.248830333833
 30
-0.5
 70
   192
  0
VERTEX
  5
4090
  8
0
 10
362.5878054803846
 20
158.248830333833
 30
0.0
 70
   192
  0
VERTEX
  5
4091
  8
0
 10
375.0
 20
0.0000000000002214
 30
0.0
 70
   192
  0
VERTEX
  5
4092
  8
0
 10
375.0
 20
-0.0000000000000272
 30
-0.5
 70
   192
  0
VERTEX
  5
4093
  8
0
 10
347.1438137267596
 20
236.1611547672232
 30
-0.5
 70
   192
  0
VERTEX
  5
4094
  8
0
 10
347.1438137267598
 20
236.1611547672226
 30
0.0
 70
   192
  0
VERTEX
  5
4095
  8
0
 10
0.0
 20
0.0
 30
0.0
 70
   128
 71
     1
 72
     2
 73
    -3
  0
VERTEX
  5
4096
  8
0
 10
0.0
 20
0.0
 30
0.0
 70
   128
 71
    -1
 72
     3
 73
     4
  0
VERTEX
  5
4097
  8
0
 10
0.0
 20
0.0
 30
0.0
 70
   128
 71
     5
 72
     6
 73
    -2
  0
VERTEX
  5
4098
  8
0
 10
0.0
 20
0.0
 30
0.0
 70
   128
 71
    -5
 72
     2
 73
     1
  0
VERTEX
  5
4099
  8
0
 10
0.0
 20
0.0
 30
0.0
 70
   128
 71
     4
 72
     3
 73
    -7
  0
VERTEX
  5
409A
  8
0
 10
0.0
 20
0.0
 30
0.0
 70
   128
 71
    -4
 72
     7
 73
     8
  0
SEQEND
  5
43BD
  8
0
  0
POLYLINE
  5
409B
  8
0
 66
     1
 10
0.0
 20
0.0
 30
0.0
 70
    64
 71
     8
 72
     6
  0
VERTEX
  5
409C
  8
0
 10
324.9019640894251
 20
286.1886155602309
 30
0.0
 70
   192
  0
VERTEX
  5
409D
  8
0
 10
324.9019640894251
 20
286.1886155602309
 30
-0.5
 70
   192
  0
VERTEX
  5
409E
  8
0
 10
286.1886155602305
 20
324.9019640894254
 30
-0.5
 70
   192
  0
VERTEX
  5
409F
  8
0
 10
286.1886155602305
 20
324.9019640894254
 30
0.0
 70
   192
  0
VERTEX
  5
40A0
  8
0
 10
347.1438137267598
 20
236.1611547672227
 30
0.0
 70
   192
  0
VERTEX
  5
40A1
  8
0
 10
347.1438137267598
 20
236.1611547672226
 30
-0.5
 70
   192
  0
VERTEX
  5
40A2
  8
0
 10
236.1611547672223
 20
347.1438137267601
 30
-0.5
 70
   192
  0
VERTEX
  5
40A3
  8
0
 10
236.1611547672224
 20
347.1438137267603
 30
0.0
 70
   192
  0
VERTEX
  5
40A4
  8
0
 10
0.0
 20
0.0
 30
0.0
 70
   128
 71
     1
 72
     2
 73
    -3
  0
VERTEX
  5
40A5
  8
0
 10
0.0
 20
0.0
 30
0.0
 70
   128
 71
    -1
 72
     3
 73
     4
  0
VERTEX
  5
40A6
  8
0
 10
0.0
 20
0.0
 30
0.0
 70
   128
 71
     5
 72
     6
 73
    -2
  0
VERTEX
  5
40A7
  8
0
 10
0.0
 20
0.0
 30
0.0
 70
   128
 71
    -5
 72
     2
 73
     1
  0
VERTEX
  5
40A8
  8
0
 10
0.0
 20
0.0
 30
0.0
 70
   128
 71
     4
 72
     3
 73
    -7
  0
VERTEX
  5
40A9
  8
0
 10
0.0
 20
0.0
 30
0.0
 70
   128
 71
    -4
 72
     7
 73
     8
  0
SEQEND
  5
43BE
  8
0
  0
POLYLINE
  5
40AA
  8
0
 66
     1
 10
0.0
 20
0.0
 30
0.0
 70
    64
 71
     8
 72
     6
  0
VERTEX
  5
40AB
  8
0
 10
79.36742857561092
 20
371.8921935074387
 30
0.0
 70
   192
  0
VERTEX
  5
40AC
  8
0
 10
79.36742857561092
 20
371.8921935074387
 30
-0.5
 70
   192
  0
VERTEX
  5
40AD
  8
0
 10
-79.36742857561097
 20
371.8921935074386
 30
-0.5
 70
   192
  0
VERTEX
  5
40AE
  8
0
 10
-79.36742857561097
 20
371.8921935074386
 30
0.0
 70
   192
  0
VERTEX
  5
40AF
  8
0
 10
236.1611547672227
 20
347.14381372676
 30
0.0
 70
   192
  0
VERTEX
  5
40B0
  8
0
 10
236.1611547672224
 20
347.1438137267603
 30
-0.5
 70
   192
  0
VERTEX
  5
40B1
  8
0
 10
-236.1611547672227
 20
347.14381372676
 30
-0.5
 70
   192
  0
VERTEX
  5
40B2
  8
0
 10
-236.1611547672222
 20
347.1438137267601
 30
0.0
 70
   192
  0
VERTEX
  5
40B3
  8
0
 10
0.0
 20
0.0
 30
0.0
 70
   128
 71
     1
 72
     2
 73
    -3
  0
VERTEX
  5
40B4
  8
0
 10
0.0
 20
0.0
 30
0.0
 70
   128
 71
    -1
 72
     3
 73
     4
  0
VERTEX
  5
40B5
  8
0
 10
0.0
 20
0.0
 30
0.0
 70
   128
 71
     5
 72
     6
 73
    -2
  0
VERTEX
  5
40B6
  8
0
 10
0.0
 20
0.0
 30
0.0
 70
   128
 71
    -5
 72
     2
 73
     1
  0
VERTEX
  5
40B7
  8
0
 10
0.0
 20
0.0
 30
0.0
 70
   128
 71
     4
 72
     3
 73
    -7
  0
VERTEX
  5
40B8
  8
0
 10
0.0
 20
0.0
 30
0.0
 70
   128
 71
    -4
 72
     7
 73
     8
  0
SEQEND
  5
43BF
  8
0
  0
POLYLINE
  5
40B9
  8
0
 66
     1
 10
0.0
 20
0.0
 30
0.0
 70
    64
 71
     8
 72
     6
  0
VERTEX
  5
40BA
  8
0
 10
-337.2661113482547
 20
294.6814279661408
 30
-0.5
 70
   192
  0
VERTEX
  5
40BB
  8
0
 10
-294.6814279661406
 20
337.2661113482549
 30
-0.5
 70
   192
  0
VERTEX
  5
40BC
  8
0
 10
-294.6814279661406
 20
337.2661113482549
 30
0.0
 70
   192
  0
VERTEX
  5
40BD
  8
0
 10
-337.2661113482547
 20
294.6814279661408
 30
0.0
 70
   192
  0
VERTEX
  5
40BE
  8
0
 10
-239.6512210938316
 20
361.732145949323
 30
-0.5
 70
   192
  0
VERTEX
  5
40BF
  8
0
 10
-239.6512210938316
 20
361.732145949323
 30
0.0
 70
   192
  0
VERTEX
  5
40C0
  8
0
 10
-361.7321459493228
 20
239.6512210938317
 30
-0.5
 70
   192
  0
VERTEX
  5
40C1
  8
0
 10
-361.7321459493229
 20
239.6512210938317
 30
0.0
 70
   192
  0
VERTEX
  5
40C2
  8
0
 10
0.0
 20
0.0
 30
0.0
 70
   128
 71
     1
 72
     2
 73
    -3
  0
VERTEX
  5
40C3
  8
0
 10
0.0
 20
0.0
 30
0.0
 70
   128
 71
     4
 72
    -1
 73
     3
  0
VERTEX
  5
40C4
  8
0
 10
0.0
 20
0.0
 30
0.0
 70
   128
 71
     2
 72
     5
 73
    -6
  0
VERTEX
  5
40C5
  8
0
 10
0.0
 20
0.0
 30
0.0
 70
   128
 71
     3
 72
    -2
 73
     6
  0
VERTEX
  5
40C6
  8
0
 10
0.0
 20
0.0
 30
0.0
 70
   128
 71
     7
 72
     1
 73
    -4
  0
VERTEX
  5
40C7
  8
0
 10
0.0
 20
0.0
 30
0.0
 70
   128
 71
     8
 72
    -7
 73
     4
  0
SEQEND
  5
43C0
  8
0
  0
POLYLINE
  5
40C8
  8
0
 66
     1
 10
0.0
 20
0.0
 30
0.0
 70
    64
 71
    54
 72
    54
  0
VERTEX
  5
40C9
  8
0
 10
239.6512210938309
 20
361.7321459493232
 30
-0.5
 70
   192
  0
VERTEX
  5
40CA
  8
0
 10
80.54034623928891
 20
386.846265332672
 30
-0.5
 70
   192
  0
VERTEX
  5
40CB
  8
0
 10
-80.54034623929097
 20
386.8462653326718
 30
-0.5
 70
   192
  0
VERTEX
  5
40CC
  8
0
 10
-239.651221093833
 20
361.7321459493228
 30
-0.5
 70
   192
  0
VERTEX
  5
40CD
  8
0
 10
-294.6814279661406
 20
337.2661113482549
 30
-0.5
 70
   192
  0
VERTEX
  5
40CE
  8
0
 10
-337.2661113482547
 20
294.6814279661408
 30
-0.5
 70
   192
  0
VERTEX
  5
40CF
  8
0
 10
-361.7321459493229
 20
239.6512210938317
 30
-0.5
 70
   192
  0
VERTEX
  5
40D0
  8
0
 10
-386.8462653326715
 20
80.54034623929002
 30
-0.5
 70
   192
  0
VERTEX
  5
40D1
  8
0
 10
-386.8462653326712
 20
-80.54034623928996
 30
-0.5
 70
   192
  0
VERTEX
  5
40D2
  8
0
 10
-361.7321459493226
 20
-239.6512210938316
 30
-0.5
 70
   192
  0
VERTEX
  5
40D3
  8
0
 10
-337.2661113482545
 20
-294.6814279661409
 30
-0.5
 70
   192
  0
VERTEX
  5
40D4
  8
0
 10
-294.6814279661404
 20
-337.2661113482549
 30
-0.5
 70
   192
  0
VERTEX
  5
40D5
  8
0
 10
-239.6512210938313
 20
-361.732145949323
 30
-0.5
 70
   192
  0
VERTEX
  5
40D6
  8
0
 10
-80.54034623929016
 20
-386.8462653326718
 30
-0.5
 70
   192
  0
VERTEX
  5
40D7
  8
0
 10
80.54034623928969
 20
-386.8462653326718
 30
-0.5
 70
   192
  0
VERTEX
  5
40D8
  8
0
 10
239.6512210938308
 20
-361.732145949323
 30
-0.5
 70
   192
  0
VERTEX
  5
40D9
  8
0
 10
294.6814279661405
 20
-337.2661113482548
 30
-0.5
 70
   192
  0
VERTEX
  5
40DA
  8
0
 10
337.2661113482545
 20
-294.6814279661409
 30
-0.5
 70
   192
  0
VERTEX
  5
40DB
  8
0
 10
361.7321459493227
 20
-239.6512210938318
 30
-0.5
 70
   192
  0
VERTEX
  5
40DC
  8
0
 10
377.4043740342819
 20
-160.5874829988643
 30
-0.5
 70
   192
  0
VERTEX
  5
40DD
  8
0
 10
386.8462653326715
 20
-80.5403462392899
 30
-0.5
 70
   192
  0
VERTEX
  5
40DE
  8
0
 10
389.9999999999998
 20
-0.0000000000000272
 30
-0.5
 70
   192
  0
VERTEX
  5
40DF
  8
0
 10
386.8462653326715
 20
80.54034623928973
 30
-0.5
 70
   192
  0
VERTEX
  5
40E0
  8
0
 10
377.4043740342819
 20
160.587482998864
 30
-0.5
 70
   192
  0
VERTEX
  5
40E1
  8
0
 10
361.7321459493226
 20
239.6512210938313
 30
-0.5
 70
   192
  0
VERTEX
  5
40E2
  8
0
 10
337.2661113482545
 20
294.6814279661411
 30
-0.5
 70
   192
  0
VERTEX
  5
40E3
  8
0
 10
294.6814279661404
 20
337.266111348255
 30
-0.5
 70
   192
  0
VERTEX
  5
40E4
  8
0
 10
-347.14381372676
 20
236.1611547672224
 30
-0.5
 70
   192
  0
VERTEX
  5
40E5
  8
0
 10
-324.9019640894252
 20
286.1886155602308
 30
-0.5
 70
   192
  0
VERTEX
  5
40E6
  8
0
 10
-286.1886155602306
 20
324.9019640894254
 30
-0.5
 70
   192
  0
VERTEX
  5
40E7
  8
0
 10
-236.1611547672222
 20
347.1438137267601
 30
-0.5
 70
   192
  0
VERTEX
  5
40E8
  8
0
 10
-79.36742857561097
 20
371.8921935074386
 30
-0.5
 70
   192
  0
VERTEX
  5
40E9
  8
0
 10
79.36742857561092
 20
371.8921935074387
 30
-0.5
 70
   192
  0
VERTEX
  5
40EA
  8
0
 10
236.1611547672227
 20
347.14381372676
 30
-0.5
 70
   192
  0
VERTEX
  5
40EB
  8
0
 10
286.1886155602305
 20
324.9019640894254
 30
-0.5
 70
   192
  0
VERTEX
  5
40EC
  8
0
 10
324.9019640894251
 20
286.1886155602309
 30
-0.5
 70
   192
  0
VERTEX
  5
40ED
  8
0
 10
347.1438137267598
 20
236.1611547672227
 30
-0.5
 70
   192
  0
VERTEX
  5
40EE
  8
0
 10
362.5878054803846
 20
158.248830333833
 30
-0.5
 70
   192
  0
VERTEX
  5
40EF
  8
0
 10
371.8921935074385
 20
79.36742857561096
 30
-0.5
 70
   192
  0
VERTEX
  5
40F0
  8
0
 10
375.0
 20
0.0000000000002214
 30
-0.5
 70
   192
  0
VERTEX
  5
40F1
  8
0
 10
371.8921935074385
 20
-79.36742857561077
 30
-0.5
 70
   192
  0
VERTEX
  5
40F2
  8
0
 10
362.5878054803849
 20
-158.248830333832
 30
-0.5
 70
   192
  0
VERTEX
  5
40F3
  8
0
 10
347.1438137267598
 20
-236.1611547672221
 30
-0.5
 70
   192
  0
VERTEX
  5
40F4
  8
0
 10
324.9019640894251
 20
-286.1886155602307
 30
-0.5
 70
   192
  0
VERTEX
  5
40F5
  8
0
 10
286.1886155602305
 20
-324.9019640894253
 30
-0.5
 70
   192
  0
VERTEX
  5
40F6
  8
0
 10
236.1611547672222
 20
-347.14381372676
 30
-0.5
 70
   192
  0
VERTEX
  5
40F7
  8
0
 10
79.3674285756107
 20
-371.8921935074385
 30
-0.5
 70
   192
  0
VERTEX
  5
40F8
  8
0
 10
-79.36742857561117
 20
-371.8921935074385
 30
-0.5
 70
   192
  0
VERTEX
  5
40F9
  8
0
 10
-236.161154767222
 20
-347.14381372676
 30
-0.5
 70
   192
  0
VERTEX
  5
40FA
  8
0
 10
-286.1886155602303
 20
-324.9019640894253
 30
-0.5
 70
   192
  0
VERTEX
  5
40FB
  8
0
 10
-324.901964089425
 20
-286.1886155602308
 30
-0.5
 70
   192
  0
VERTEX
  5
40FC
  8
0
 10
-347.1438137267597
 20
-236.1611547672226
 30
-0.5
 70
   192
  0
VERTEX
  5
40FD
  8
0
 10
-371.8921935074384
 20
-79.36742857561093
 30
-0.5
 70
   192
  0
VERTEX
  5
40FE
  8
0
 10
-371.8921935074385
 20
79.36742857561099
 30
-0.5
 70
   192
  0
VERTEX
  5
40FF
  8
0
 10
0.0
 20
0.0
 30
0.0
 70
   128
 71
   -20
 72
    42
 73
   -43
  0
VERTEX
  5
4100
  8
0
 10
0.0
 20
0.0
 30
0.0
 70
   128
 71
    19
 72
   -20
 73
   -43
  0
VERTEX
  5
4101
  8
0
 10
0.0
 20
0.0
 30
0.0
 70
   128
 71
   -44
 72
    18
 73
   -19
  0
VERTEX
  5
4102
  8
0
 10
0.0
 20
0.0
 30
0.0
 70
   128
 71
    43
 72
   -44
 73
   -19
  0
VERTEX
  5
4103
  8
0
 10
0.0
 20
0.0
 30
0.0
 70
   128
 71
   -45
 72
    17
 73
   -18
  0
VERTEX
  5
4104
  8
0
 10
0.0
 20
0.0
 30
0.0
 70
   128
 71
    44
 72
   -45
 73
   -18
  0
VERTEX
  5
4105
  8
0
 10
0.0
 20
0.0
 30
0.0
 70
   128
 71
   -46
 72
    16
 73
   -17
  0
VERTEX
  5
4106
  8
0
 10
0.0
 20
0.0
 30
0.0
 70
   128
 71
    45
 72
   -46
 73
   -17
  0
VERTEX
  5
4107
  8
0
 10
0.0
 20
0.0
 30
0.0
 70
   128
 71
   -47
 72
    15
 73
   -16
  0
VERTEX
  5
4108
  8
0
 10
0.0
 20
0.0
 30
0.0
 70
   128
 71
    46
 72
   -47
 73
   -16
  0
VERTEX
  5
4109
  8
0
 10
0.0
 20
0.0
 30
0.0
 70
   128
 71
   -48
 72
    14
 73
   -15
  0
VERTEX
  5
410A
  8
0
 10
0.0
 20
0.0
 30
0.0
 70
   128
 71
    47
 72
   -48
 73
   -15
  0
VERTEX
  5
410B
  8
0
 10
0.0
 20
0.0
 30
0.0
 70
   128
 71
   -49
 72
    13
 73
   -14
  0
VERTEX
  5
410C
  8
0
 10
0.0
 20
0.0
 30
0.0
 70
   128
 71
    48
 72
   -49
 73
   -14
  0
VERTEX
  5
410D
  8
0
 10
0.0
 20
0.0
 30
0.0
 70
   128
 71
   -50
 72
    12
 73
   -13
  0
VERTEX
  5
410E
  8
0
 10
0.0
 20
0.0
 30
0.0
 70
   128
 71
    49
 72
   -50
 73
   -13
  0
VERTEX
  5
410F
  8
0
 10
0.0
 20
0.0
 30
0.0
 70
   128
 71
   -51
 72
    11
 73
   -12
  0
VERTEX
  5
4110
  8
0
 10
0.0
 20
0.0
 30
0.0
 70
   128
 71
    50
 72
   -51
 73
   -12
  0
VERTEX
  5
4111
  8
0
 10
0.0
 20
0.0
 30
0.0
 70
   128
 71
   -52
 72
    10
 73
   -11
  0
VERTEX
  5
4112
  8
0
 10
0.0
 20
0.0
 30
0.0
 70
   128
 71
    51
 72
   -52
 73
   -11
  0
VERTEX
  5
4113
  8
0
 10
0.0
 20
0.0
 30
0.0
 70
   128
 71
   -53
 72
     9
 73
   -10
  0
VERTEX
  5
4114
  8
0
 10
0.0
 20
0.0
 30
0.0
 70
   128
 71
    52
 72
   -53
 73
   -10
  0
VERTEX
  5
4115
  8
0
 10
0.0
 20
0.0
 30
0.0
 70
   128
 71
   -54
 72
     8
 73
    -9
  0
VERTEX
  5
4116
  8
0
 10
0.0
 20
0.0
 30
0.0
 70
   128
 71
    53
 72
   -54
 73
    -9
  0
VERTEX
  5
4117
  8
0
 10
0.0
 20
0.0
 30
0.0
 70
   128
 71
   -28
 72
     7
 73
    -8
  0
VERTEX
  5
4118
  8
0
 10
0.0
 20
0.0
 30
0.0
 70
   128
 71
    54
 72
   -28
 73
    -8
  0
VERTEX
  5
4119
  8
0
 10
0.0
 20
0.0
 30
0.0
 70
   128
 71
   -21
 72
    41
 73
   -42
  0
VERTEX
  5
411A
  8
0
 10
0.0
 20
0.0
 30
0.0
 70
   128
 71
    20
 72
   -21
 73
   -42
  0
VERTEX
  5
411B
  8
0
 10
0.0
 20
0.0
 30
0.0
 70
   128
 71
   -22
 72
    40
 73
   -41
  0
VERTEX
  5
411C
  8
0
 10
0.0
 20
0.0
 30
0.0
 70
   128
 71
    21
 72
   -22
 73
   -41
  0
VERTEX
  5
411D
  8
0
 10
0.0
 20
0.0
 30
0.0
 70
   128
 71
   -23
 72
    39
 73
   -40
  0
VERTEX
  5
411E
  8
0
 10
0.0
 20
0.0
 30
0.0
 70
   128
 71
    22
 72
   -23
 73
   -40
  0
VERTEX
  5
411F
  8
0
 10
0.0
 20
0.0
 30
0.0
 70
   128
 71
   -24
 72
    38
 73
   -39
  0
VERTEX
  5
4120
  8
0
 10
0.0
 20
0.0
 30
0.0
 70
   128
 71
    23
 72
   -24
 73
   -39
  0
VERTEX
  5
4121
  8
0
 10
0.0
 20
0.0
 30
0.0
 70
   128
 71
    -7
 72
    28
 73
   -29
  0
VERTEX
  5
4122
  8
0
 10
0.0
 20
0.0
 30
0.0
 70
   128
 71
     6
 72
    -7
 73
   -29
  0
VERTEX
  5
4123
  8
0
 10
0.0
 20
0.0
 30
0.0
 70
   128
 71
   -30
 72
     5
 73
    -6
  0
VERTEX
  5
4124
  8
0
 10
0.0
 20
0.0
 30
0.0
 70
   128
 71
    29
 72
   -30
 73
    -6
  0
VERTEX
  5
4125
  8
0
 10
0.0
 20
0.0
 30
0.0
 70
   128
 71
   -31
 72
     4
 73
    -5
  0
VERTEX
  5
4126
  8
0
 10
0.0
 20
0.0
 30
0.0
 70
   128
 71
    30
 72
   -31
 73
    -5
  0
VERTEX
  5
4127
  8
0
 10
0.0
 20
0.0
 30
0.0
 70
   128
 71
   -32
 72
     3
 73
    -4
  0
VERTEX
  5
4128
  8
0
 10
0.0
 20
0.0
 30
0.0
 70
   128
 71
    31
 72
   -32
 73
    -4
  0
VERTEX
  5
4129
  8
0
 10
0.0
 20
0.0
 30
0.0
 70
   128
 71
   -33
 72
     2
 73
    -3
  0
VERTEX
  5
412A
  8
0
 10
0.0
 20
0.0
 30
0.0
 70
   128
 71
    32
 72
   -33
 73
    -3
  0
VERTEX
  5
412B
  8
0
 10
0.0
 20
0.0
 30
0.0
 70
   128
 71
   -34
 72
     1
 73
    -2
  0
VERTEX
  5
412C
  8
0
 10
0.0
 20
0.0
 30
0.0
 70
   128
 71
    33
 72
   -34
 73
    -2
  0
VERTEX
  5
412D
  8
0
 10
0.0
 20
0.0
 30
0.0
 70
   128
 71
   -35
 72
    27
 73
    -1
  0
VERTEX
  5
412E
  8
0
 10
0.0
 20
0.0
 30
0.0
 70
   128
 71
    34
 72
   -35
 73
    -1
  0
VERTEX
  5
412F
  8
0
 10
0.0
 20
0.0
 30
0.0
 70
   128
 71
   -36
 72
    26
 73
   -27
  0
VERTEX
  5
4130
  8
0
 10
0.0
 20
0.0
 30
0.0
 70
   128
 71
    35
 72
   -36
 73
   -27
  0
VERTEX
  5
4131
  8
0
 10
0.0
 20
0.0
 30
0.0
 70
   128
 71
   -37
 72
    25
 73
   -26
  0
VERTEX
  5
4132
  8
0
 10
0.0
 20
0.0
 30
0.0
 70
   128
 71
    36
 72
   -37
 73
   -26
  0
VERTEX
  5
4133
  8
0
 10
0.0
 20
0.0
 30
0.0
 70
   128
 71
   -38
 72
    24
 73
   -25
  0
VERTEX
  5
4134
  8
0
 10
0.0
 20
0.0
 30
0.0
 70
   128
 71
    37
 72
   -38
 73
   -25
  0
SEQEND
  5
43C1
  8
0
  0
POLYLINE
  5
4135
  8
0
 66
     1
 10
0.0
 20
0.0
 30
0.0
 70
    64
 71
    27
 72
    25
  0
VERTEX
  5
4136
  8
0
 10
-236.1611547672227
 20
347.14381372676
 30
0.0
 70
   192
  0
VERTEX
  5
4137
  8
0
 10
-79.36742857561097
 20
371.8921935074386
 30
0.0
 70
   192
  0
VERTEX
  5
4138
  8
0
 10
79.36742857561092
 20
371.8921935074387
 30
0.0
 70
   192
  0
VERTEX
  5
4139
  8
0
 10
236.1611547672223
 20
347.1438137267601
 30
0.0
 70
   192
  0
VERTEX
  5
413A
  8
0
 10
286.1886155602305
 20
324.9019640894254
 30
0.0
 70
   192
  0
VERTEX
  5
413B
  8
0
 10
324.9019640894251
 20
286.1886155602309
 30
0.0
 70
   192
  0
VERTEX
  5
413C
  8
0
 10
347.1438137267596
 20
236.1611547672232
 30
0.0
 70
   192
  0
VERTEX
  5
413D
  8
0
 10
362.5878054803846
 20
158.248830333833
 30
0.0
 70
   192
  0
VERTEX
  5
413E
  8
0
 10
371.8921935074385
 20
79.36742857561096
 30
0.0
 70
   192
  0
VERTEX
  5
413F
  8
0
 10
375.0
 20
-0.0000000000000272
 30
0.0
 70
   192
  0
VERTEX
  5
4140
  8
0
 10
371.8921935074385
 20
-79.36742857561077
 30
0.0
 70
   192
  0
VERTEX
  5
4141
  8
0
 10
362.5878054803849
 20
-158.248830333832
 30
0.0
 70
   192
  0
VERTEX
  5
4142
  8
0
 10
347.1438137267598
 20
-236.1611547672224
 30
0.0
 70
   192
  0
VERTEX
  5
4143
  8
0
 10
324.9019640894251
 20
-286.1886155602307
 30
0.0
 70
   192
  0
VERTEX
  5
4144
  8
0
 10
286.1886155602305
 20
-324.9019640894253
 30
0.0
 70
   192
  0
VERTEX
  5
4145
  8
0
 10
236.1611547672215
 20
-347.14381372676
 30
0.0
 70
   192
  0
VERTEX
  5
4146
  8
0
 10
79.3674285756107
 20
-371.8921935074385
 30
0.0
 70
   192
  0
VERTEX
  5
4147
  8
0
 10
-79.36742857561117
 20
-371.8921935074385
 30
0.0
 70
   192
  0
VERTEX
  5
4148
  8
0
 10
-236.1611547672221
 20
-347.14381372676
 30
0.0
 70
   192
  0
VERTEX
  5
4149
  8
0
 10
-286.1886155602303
 20
-324.9019640894253
 30
0.0
 70
   192
  0
VERTEX
  5
414A
  8
0
 10
-324.901964089425
 20
-286.1886155602308
 30
0.0
 70
   192
  0
VERTEX
  5
414B
  8
0
 10
-347.1438137267598
 20
-236.1611547672223
 30
0.0
 70
   192
  0
VERTEX
  5
414C
  8
0
 10
-371.8921935074384
 20
-79.36742857561093
 30
0.0
 70
   192
  0
VERTEX
  5
414D
  8
0
 10
-371.8921935074385
 20
79.36742857561099
 30
0.0
 70
   192
  0
VERTEX
  5
414E
  8
0
 10
-347.14381372676
 20
236.1611547672224
 30
0.0
 70
   192
  0
VERTEX
  5
414F
  8
0
 10
-324.9019640894252
 20
286.1886155602308
 30
0.0
 70
   192
  0
VERTEX
  5
4150
  8
0
 10
-286.1886155602306
 20
324.9019640894254
 30
0.0
 70
   192
  0
VERTEX
  5
4151
  8
0
 10
0.0
 20
0.0
 30
0.0
 70
   128
 71
     8
 72
     7
 73
    -6
  0
VERTEX
  5
4152
  8
0
 10
0.0
 20
0.0
 30
0.0
 70
   128
 71
    -8
 72
     6
 73
    -5
  0
VERTEX
  5
4153
  8
0
 10
0.0
 20
0.0
 30
0.0
 70
   128
 71
    -8
 72
     5
 73
    -4
  0
VERTEX
  5
4154
  8
0
 10
0.0
 20
0.0
 30
0.0
 70
   128
 71
    -8
 72
     4
 73
    -3
  0
VERTEX
  5
4155
  8
0
 10
0.0
 20
0.0
 30
0.0
 70
   128
 71
    -8
 72
     3
 73
    -2
  0
VERTEX
  5
4156
  8
0
 10
0.0
 20
0.0
 30
0.0
 70
   128
 71
    -8
 72
     2
 73
    -1
  0
VERTEX
  5
4157
  8
0
 10
0.0
 20
0.0
 30
0.0
 70
   128
 71
    -8
 72
     1
 73
   -27
  0
VERTEX
  5
4158
  8
0
 10
0.0
 20
0.0
 30
0.0
 70
   128
 71
    -8
 72
    27
 73
   -26
  0
VERTEX
  5
4159
  8
0
 10
0.0
 20
0.0
 30
0.0
 70
   128
 71
    -8
 72
    26
 73
   -25
  0
VERTEX
  5
415A
  8
0
 10
0.0
 20
0.0
 30
0.0
 70
   128
 71
    -8
 72
    25
 73
   -24
  0
VERTEX
  5
415B
  8
0
 10
0.0
 20
0.0
 30
0.0
 70
   128
 71
   -24
 72
     9
 73
    -8
  0
VERTEX
  5
415C
  8
0
 10
0.0
 20
0.0
 30
0.0
 70
   128
 71
    24
 72
   -23
 73
   -10
  0
VERTEX
  5
415D
  8
0
 10
0.0
 20
0.0
 30
0.0
 70
   128
 71
   -24
 72
    10
 73
    -9
  0
VERTEX
  5
415E
  8
0
 10
0.0
 20
0.0
 30
0.0
 70
   128
 71
   -23
 72
    11
 73
   -10
  0
VERTEX
  5
415F
  8
0
 10
0.0
 20
0.0
 30
0.0
 70
   128
 71
   -23
 72
    12
 73
   -11
  0
VERTEX
  5
4160
  8
0
 10
0.0
 20
0.0
 30
0.0
 70
   128
 71
    23
 72
    22
 73
   -21
  0
VERTEX
  5
4161
  8
0
 10
0.0
 20
0.0
 30
0.0
 70
   128
 71
   -23
 72
    21
 73
   -20
  0
VERTEX
  5
4162
  8
0
 10
0.0
 20
0.0
 30
0.0
 70
   128
 71
   -23
 72
    20
 73
   -19
  0
VERTEX
  5
4163
  8
0
 10
0.0
 20
0.0
 30
0.0
 70
   128
 71
   -23
 72
    19
 73
   -18
  0
VERTEX
  5
4164
  8
0
 10
0.0
 20
0.0
 30
0.0
 70
   128
 71
   -23
 72
    18
 73
   -17
  0
VERTEX
  5
4165
  8
0
 10
0.0
 20
0.0
 30
0.0
 70
   128
 71
   -23
 72
    17
 73
   -16
  0
VERTEX
  5
4166
  8
0
 10
0.0
 20
0.0
 30
0.0
 70
   128
 71
   -23
 72
    16
 73
   -15
  0
VERTEX
  5
4167
  8
0
 10
0.0
 20
0.0
 30
0.0
 70
   128
 71
   -23
 72
    15
 73
   -14
  0
VERTEX
  5
4168
  8
0
 10
0.0
 20
0.0
 30
0.0
 70
   128
 71
   -23
 72
    14
 73
   -13
  0
VERTEX
  5
4169
  8
0
 10
0.0
 20
0.0
 30
0.0
 70
   128
 71
   -23
 72
    13
 73
   -12
  0
SEQEND
  5
43C2
  8
0
  0
ENDBLK
  5
4399
  8
0
  0
BLOCK
  8
0
  2
*X2
 70
     1
 10
0.0
 20
0.0
 30
0.0
  3
*X2
  1

  0
POLYLINE
  5
416B
  8
0
 66
     1
 10
0.0
 20
0.0
 30
0.0
 70
    64
 71
     6
 72
     4
  0
VERTEX
  5
416C
  8
0
 10
272.0000000000001
 20
245.0000000000004
 30
-18.0
 70
   192
  0
VERTEX
  5
416D
  8
0
 10
275.0000000000001
 20
245.0000000000004
 30
-18.0
 70
   192
  0
VERTEX
  5
416E
  8
0
 10
275.0000000000001
 20
245.0000000000004
 30
-25.0
 70
   192
  0
VERTEX
  5
416F
  8
0
 10
238.0000000000001
 20
245.0000000000004
 30
-25.0
 70
   192
  0
VERTEX
  5
4170
  8
0
 10
238.0000000000001
 20
245.0000000000004
 30
-22.0
 70
   192
  0
VERTEX
  5
4171
  8
0
 10
272.0000000000001
 20
245.0000000000004
 30
-22.0
 70
   192
  0
VERTEX
  5
4172
  8
0
 10
0.0
 20
0.0
 30
0.0
 70
   128
 71
     6
 72
     5
 73
    -4
  0
VERTEX
  5
4173
  8
0
 10
0.0
 20
0.0
 30
0.0
 70
   128
 71
    -6
 72
     4
 73
    -3
  0
VERTEX
  5
4174
  8
0
 10
0.0
 20
0.0
 30
0.0
 70
   128
 71
     3
 72
     2
 73
    -1
  0
VERTEX
  5
4175
  8
0
 10
0.0
 20
0.0
 30
0.0
 70
   128
 71
    -3
 72
     1
 73
    -6
  0
SEQEND
  5
43C5
  8
0
  0
POLYLINE
  5
4176
  8
0
 66
     1
 10
0.0
 20
0.0
 30
0.0
 70
    64
 71
     8
 72
     6
  0
VERTEX
  5
4177
  8
0
 10
272.0000000000001
 20
267.0000000000003
 30
-18.0
 70
   192
  0
VERTEX
  5
4178
  8
0
 10
272.0000000000001
 20
245.0000000000004
 30
-18.0
 70
   192
  0
VERTEX
  5
4179
  8
0
 10
275.0000000000001
 20
245.0000000000004
 30
-18.0
 70
   192
  0
VERTEX
  5
417A
  8
0
 10
275.0000000000001
 20
210.0000000000003
 30
-18.0
 70
   192
  0
VERTEX
  5
417B
  8
0
 10
195.0000000000001
 20
210.0000000000003
 30
-18.0
 70
   192
  0
VERTEX
  5
417C
  8
0
 10
195.0000000000001
 20
245.0000000000004
 30
-18.0
 70
   192
  0
VERTEX
  5
417D
  8
0
 10
198.0000000000001
 20
245.0000000000004
 30
-18.0
 70
   192
  0
VERTEX
  5
417E
  8
0
 10
198.0000000000001
 20
267.0000000000003
 30
-18.0
 70
   192
  0
VERTEX
  5
417F
  8
0
 10
0.0
 20
0.0
 30
0.0
 70
   128
 71
     5
 72
     6
 73
    -7
  0
VERTEX
  5
4180
  8
0
 10
0.0
 20
0.0
 30
0.0
 70
   128
 71
     8
 72
     1
 73
    -2
  0
VERTEX
  5
4181
  8
0
 10
0.0
 20
0.0
 30
0.0
 70
   128
 71
     7
 72
    -8
 73
    -2
  0
VERTEX
  5
4182
  8
0
 10
0.0
 20
0.0
 30
0.0
 70
   128
 71
     4
 72
    -5
 73
    -7
  0
VERTEX
  5
4183
  8
0
 10
0.0
 20
0.0
 30
0.0
 70
   128
 71
    -2
 72
    -4
 73
    -7
  0
VERTEX
  5
4184
  8
0
 10
0.0
 20
0.0
 30
0.0
 70
   128
 71
     2
 72
     3
 73
    -4
  0
SEQEND
  5
43C6
  8
0
  0
POLYLINE
  5
4185
  8
0
 66
     1
 10
0.0
 20
0.0
 30
0.0
 70
    64
 71
     6
 72
     4
  0
VERTEX
  5
4186
  8
0
 10
275.0000000000001
 20
270.0000000000003
 30
-15.0
 70
   192
  0
VERTEX
  5
4187
  8
0
 10
275.0000000000001
 20
270.0000000000003
 30
-25.0
 70
   192
  0
VERTEX
  5
4188
  8
0
 10
275.0000000000001
 20
245.0000000000004
 30
-25.0
 70
   192
  0
VERTEX
  5
4189
  8
0
 10
275.0000000000001
 20
245.0000000000004
 30
-18.0
 70
   192
  0
VERTEX
  5
418A
  8
0
 10
275.0000000000001
 20
210.0000000000003
 30
-18.0
 70
   192
  0
VERTEX
  5
418B
  8
0
 10
275.0000000000001
 20
210.0000000000003
 30
-15.0
 70
   192
  0
VERTEX
  5
418C
  8
0
 10
0.0
 20
0.0
 30
0.0
 70
   128
 71
     4
 72
     3
 73
    -2
  0
VERTEX
  5
418D
  8
0
 10
0.0
 20
0.0
 30
0.0
 70
   128
 71
    -4
 72
     2
 73
    -1
  0
VERTEX
  5
418E
  8
0
 10
0.0
 20
0.0
 30
0.0
 70
   128
 71
     1
 72
     6
 73
    -5
  0
VERTEX
  5
418F
  8
0
 10
0.0
 20
0.0
 30
0.0
 70
   128
 71
    -1
 72
     5
 73
    -4
  0
SEQEND
  5
43C7
  8
0
  0
POLYLINE
  5
4190
  8
0
 66
     1
 10
0.0
 20
0.0
 30
0.0
 70
    64
 71
     4
 72
     2
  0
VERTEX
  5
4191
  8
0
 10
275.0000000000001
 20
210.0000000000003
 30
-15.0
 70
   192
  0
VERTEX
  5
4192
  8
0
 10
275.0000000000001
 20
210.0000000000003
 30
-18.0
 70
   192
  0
VERTEX
  5
4193
  8
0
 10
195.0000000000001
 20
210.0000000000003
 30
-18.0
 70
   192
  0
VERTEX
  5
4194
  8
0
 10
195.0000000000001
 20
210.0000000000003
 30
-15.0
 70
   192
  0
VERTEX
  5
4195
  8
0
 10
0.0
 20
0.0
 30
0.0
 70
   128
 71
     1
 72
     4
 73
    -3
  0
VERTEX
  5
4196
  8
0
 10
0.0
 20
0.0
 30
0.0
 70
   128
 71
    -1
 72
     3
 73
     2
  0
SEQEND
  5
43C8
  8
0
  0
POLYLINE
  5
4197
  8
0
 66
     1
 10
0.0
 20
0.0
 30
0.0
 70
    64
 71
     6
 72
     4
  0
VERTEX
  5
4198
  8
0
 10
195.0000000000001
 20
245.0000000000004
 30
-25.0
 70
   192
  0
VERTEX
  5
4199
  8
0
 10
195.0000000000001
 20
245.0000000000004
 30
-18.0
 70
   192
  0
VERTEX
  5
419A
  8
0
 10
195.0000000000001
 20
210.0000000000003
 30
-18.0
 70
   192
  0
VERTEX
  5
419B
  8
0
 10
195.0000000000001
 20
210.0000000000003
 30
-15.0
 70
   192
  0
VERTEX
  5
419C
  8
0
 10
195.0000000000001
 20
270.0000000000003
 30
-15.0
 70
   192
  0
VERTEX
  5
419D
  8
0
 10
195.0000000000001
 20
270.0000000000003
 30
-25.0
 70
   192
  0
VERTEX
  5
419E
  8
0
 10
0.0
 20
0.0
 30
0.0
 70
   128
 71
     6
 72
     1
 73
    -2
  0
VERTEX
  5
419F
  8
0
 10
0.0
 20
0.0
 30
0.0
 70
   128
 71
     5
 72
    -6
 73
    -2
  0
VERTEX
  5
41A0
  8
0
 10
0.0
 20
0.0
 30
0.0
 70
   128
 71
     3
 72
     4
 73
    -5
  0
VERTEX
  5
41A1
  8
0
 10
0.0
 20
0.0
 30
0.0
 70
   128
 71
     2
 72
    -3
 73
    -5
  0
SEQEND
  5
43C9
  8
0
  0
POLYLINE
  5
41A2
  8
0
 66
     1
 10
0.0
 20
0.0
 30
0.0
 70
    64
 71
     4
 72
     2
  0
VERTEX
  5
41A3
  8
0
 10
195.0000000000001
 20
270.0000000000003
 30
-15.0
 70
   192
  0
VERTEX
  5
41A4
  8
0
 10
275.0000000000001
 20
270.0000000000003
 30
-15.0
 70
   192
  0
VERTEX
  5
41A5
  8
0
 10
275.0000000000001
 20
270.0000000000003
 30
-25.0
 70
   192
  0
VERTEX
  5
41A6
  8
0
 10
195.0000000000001
 20
270.0000000000003
 30
-25.0
 70
   192
  0
VERTEX
  5
41A7
  8
0
 10
0.0
 20
0.0
 30
0.0
 70
   128
 71
     3
 72
     4
 73
    -1
  0
VERTEX
  5
41A8
  8
0
 10
0.0
 20
0.0
 30
0.0
 70
   128
 71
     2
 72
    -3
 73
     1
  0
SEQEND
  5
43CA
  8
0
  0
POLYLINE
  5
41A9
  8
0
 66
     1
 10
0.0
 20
0.0
 30
0.0
 70
    64
 71
     4
 72
     2
  0
VERTEX
  5
41AA
  8
0
 10
195.0000000000001
 20
210.0000000000003
 30
-15.0
 70
   192
  0
VERTEX
  5
41AB
  8
0
 10
195.0000000000001
 20
270.0000000000003
 30
-15.0
 70
   192
  0
VERTEX
  5
41AC
  8
0
 10
275.0000000000001
 20
270.0000000000003
 30
-15.0
 70
   192
  0
VERTEX
  5
41AD
  8
0
 10
275.0000000000001
 20
210.0000000000003
 30
-15.0
 70
   192
  0
VERTEX
  5
41AE
  8
0
 10
0.0
 20
0.0
 30
0.0
 70
   128
 71
     1
 72
     4
 73
    -3
  0
VERTEX
  5
41AF
  8
0
 10
0.0
 20
0.0
 30
0.0
 70
   128
 71
    -1
 72
     3
 73
     2
  0
SEQEND
  5
43CB
  8
0
  0
POLYLINE
  5
41B0
  8
0
 66
     1
 10
0.0
 20
0.0
 30
0.0
 70
    64
 71
     4
 72
     2
  0
VERTEX
  5
41B1
  8
0
 10
232.0
 20
265.0000000000003
 30
-25.0
 70
   192
  0
VERTEX
  5
41B2
  8
0
 10
232.0
 20
245.0000000000004
 30
-25.0
 70
   192
  0
VERTEX
  5
41B3
  8
0
 10
232.0
 20
245.0000000000004
 30
-22.0
 70
   192
  0
VERTEX
  5
41B4
  8
0
 10
232.0
 20
265.0000000000003
 30
-22.0
 70
   192
  0
VERTEX
  5
41B5
  8
0
 10
0.0
 20
0.0
 30
0.0
 70
   128
 71
     1
 72
     4
 73
    -3
  0
VERTEX
  5
41B6
  8
0
 10
0.0
 20
0.0
 30
0.0
 70
   128
 71
    -1
 72
     3
 73
     2
  0
SEQEND
  5
43CC
  8
0
  0
POLYLINE
  5
41B7
  8
0
 66
     1
 10
0.0
 20
0.0
 30
0.0
 70
    64
 71
     6
 72
     4
  0
VERTEX
  5
41B8
  8
0
 10
232.0
 20
245.0000000000004
 30
-22.0
 70
   192
  0
VERTEX
  5
41B9
  8
0
 10
232.0
 20
245.0000000000004
 30
-25.0
 70
   192
  0
VERTEX
  5
41BA
  8
0
 10
195.0000000000001
 20
245.0000000000004
 30
-25.0
 70
   192
  0
VERTEX
  5
41BB
  8
0
 10
195.0000000000001
 20
245.0000000000004
 30
-18.0
 70
   192
  0
VERTEX
  5
41BC
  8
0
 10
198.0000000000001
 20
245.0000000000004
 30
-18.0
 70
   192
  0
VERTEX
  5
41BD
  8
0
 10
198.0000000000001
 20
245.0000000000004
 30
-22.0
 70
   192
  0
VERTEX
  5
41BE
  8
0
 10
0.0
 20
0.0
 30
0.0
 70
   128
 71
     6
 72
     5
 73
    -4
  0
VERTEX
  5
41BF
  8
0
 10
0.0
 20
0.0
 30
0.0
 70
   128
 71
    -6
 72
     4
 73
    -3
  0
VERTEX
  5
41C0
  8
0
 10
0.0
 20
0.0
 30
0.0
 70
   128
 71
     3
 72
     2
 73
    -1
  0
VERTEX
  5
41C1
  8
0
 10
0.0
 20
0.0
 30
0.0
 70
   128
 71
    -3
 72
     1
 73
    -6
  0
SEQEND
  5
43CD
  8
0
  0
POLYLINE
  5
41C2
  8
0
 66
     1
 10
0.0
 20
0.0
 30
0.0
 70
    64
 71
     4
 72
     2
  0
VERTEX
  5
41C3
  8
0
 10
238.0000000000001
 20
245.0000000000004
 30
-25.0
 70
   192
  0
VERTEX
  5
41C4
  8
0
 10
238.0000000000001
 20
265.0000000000003
 30
-25.0
 70
   192
  0
VERTEX
  5
41C5
  8
0
 10
238.0000000000001
 20
265.0000000000003
 30
-22.0
 70
   192
  0
VERTEX
  5
41C6
  8
0
 10
238.0000000000001
 20
245.0000000000004
 30
-22.0
 70
   192
  0
VERTEX
  5
41C7
  8
0
 10
0.0
 20
0.0
 30
0.0
 70
   128
 71
     1
 72
     4
 73
    -3
  0
VERTEX
  5
41C8
  8
0
 10
0.0
 20
0.0
 30
0.0
 70
   128
 71
    -1
 72
     3
 73
     2
  0
SEQEND
  5
43CE
  8
0
  0
POLYLINE
  5
41C9
  8
0
 66
     1
 10
0.0
 20
0.0
 30
0.0
 70
    64
 71
     4
 72
     2
  0
VERTEX
  5
41CA
  8
0
 10
238.0000000000001
 20
265.0000000000003
 30
-25.0
 70
   192
  0
VERTEX
  5
41CB
  8
0
 10
232.0
 20
265.0000000000003
 30
-25.0
 70
   192
  0
VERTEX
  5
41CC
  8
0
 10
232.0
 20
265.0000000000003
 30
-22.0
 70
   192
  0
VERTEX
  5
41CD
  8
0
 10
238.0000000000001
 20
265.0000000000003
 30
-22.0
 70
   192
  0
VERTEX
  5
41CE
  8
0
 10
0.0
 20
0.0
 30
0.0
 70
   128
 71
     1
 72
     4
 73
    -3
  0
VERTEX
  5
41CF
  8
0
 10
0.0
 20
0.0
 30
0.0
 70
   128
 71
    -1
 72
     3
 73
     2
  0
SEQEND
  5
43CF
  8
0
  0
POLYLINE
  5
41D0
  8
0
 66
     1
 10
0.0
 20
0.0
 30
0.0
 70
    64
 71
     8
 72
     6
  0
VERTEX
  5
41D1
  8
0
 10
232.0
 20
265.0000000000003
 30
-25.0
 70
   192
  0
VERTEX
  5
41D2
  8
0
 10
232.0
 20
245.0000000000004
 30
-25.0
 70
   192
  0
VERTEX
  5
41D3
  8
0
 10
195.0000000000001
 20
245.0000000000004
 30
-25.0
 70
   192
  0
VERTEX
  5
41D4
  8
0
 10
195.0000000000001
 20
270.0000000000003
 30
-25.0
 70
   192
  0
VERTEX
  5
41D5
  8
0
 10
275.0000000000001
 20
270.0000000000003
 30
-25.0
 70
   192
  0
VERTEX
  5
41D6
  8
0
 10
275.0000000000001
 20
245.0000000000004
 30
-25.0
 70
   192
  0
VERTEX
  5
41D7
  8
0
 10
238.0000000000001
 20
245.0000000000004
 30
-25.0
 70
   192
  0
VERTEX
  5
41D8
  8
0
 10
238.0000000000001
 20
265.0000000000003
 30
-25.0
 70
   192
  0
VERTEX
  5
41D9
  8
0
 10
0.0
 20
0.0
 30
0.0
 70
   128
 71
     6
 72
     7
 73
    -8
  0
VERTEX
  5
41DA
  8
0
 10
0.0
 20
0.0
 30
0.0
 70
   128
 71
     5
 72
    -6
 73
    -8
  0
VERTEX
  5
41DB
  8
0
 10
0.0
 20
0.0
 30
0.0
 70
   128
 71
    -1
 72
     4
 73
    -5
  0
VERTEX
  5
41DC
  8
0
 10
0.0
 20
0.0
 30
0.0
 70
   128
 71
     8
 72
    -1
 73
    -5
  0
VERTEX
  5
41DD
  8
0
 10
0.0
 20
0.0
 30
0.0
 70
   128
 71
     2
 72
     3
 73
    -4
  0
VERTEX
  5
41DE
  8
0
 10
0.0
 20
0.0
 30
0.0
 70
   128
 71
     1
 72
    -2
 73
    -4
  0
SEQEND
  5
43D0
  8
0
  0
POLYLINE
  5
41DF
  8
0
 66
     1
 10
0.0
 20
0.0
 30
0.0
 70
    64
 71
     4
 72
     2
  0
VERTEX
  5
41E0
  8
0
 10
272.0000000000001
 20
245.0000000000004
 30
-18.0
 70
   192
  0
VERTEX
  5
41E1
  8
0
 10
272.0000000000001
 20
267.0000000000003
 30
-18.0
 70
   192
  0
VERTEX
  5
41E2
  8
0
 10
272.0000000000001
 20
267.0000000000003
 30
-22.0
 70
   192
  0
VERTEX
  5
41E3
  8
0
 10
272.0000000000001
 20
245.0000000000004
 30
-22.0
 70
   192
  0
VERTEX
  5
41E4
  8
0
 10
0.0
 20
0.0
 30
0.0
 70
   128
 71
     3
 72
     4
 73
    -1
  0
VERTEX
  5
41E5
  8
0
 10
0.0
 20
0.0
 30
0.0
 70
   128
 71
     2
 72
    -3
 73
     1
  0
SEQEND
  5
43D1
  8
0
  0
POLYLINE
  5
41E6
  8
0
 66
     1
 10
0.0
 20
0.0
 30
0.0
 70
    64
 71
     4
 72
     2
  0
VERTEX
  5
41E7
  8
0
 10
198.0000000000001
 20
245.0000000000004
 30
-18.0
 70
   192
  0
VERTEX
  5
41E8
  8
0
 10
198.0000000000001
 20
267.0000000000003
 30
-18.0
 70
   192
  0
VERTEX
  5
41E9
  8
0
 10
198.0000000000001
 20
267.0000000000003
 30
-22.0
 70
   192
  0
VERTEX
  5
41EA
  8
0
 10
198.0000000000001
 20
245.0000000000004
 30
-22.0
 70
   192
  0
VERTEX
  5
41EB
  8
0
 10
0.0
 20
0.0
 30
0.0
 70
   128
 71
     1
 72
     4
 73
    -3
  0
VERTEX
  5
41EC
  8
0
 10
0.0
 20
0.0
 30
0.0
 70
   128
 71
    -1
 72
     3
 73
     2
  0
SEQEND
  5
43D2
  8
0
  0
POLYLINE
  5
41ED
  8
0
 66
     1
 10
0.0
 20
0.0
 30
0.0
 70
    64
 71
     4
 72
     2
  0
VERTEX
  5
41EE
  8
0
 10
272.0000000000001
 20
267.0000000000003
 30
-18.0
 70
   192
  0
VERTEX
  5
41EF
  8
0
 10
272.0000000000001
 20
267.0000000000003
 30
-22.0
 70
   192
  0
VERTEX
  5
41F0
  8
0
 10
198.0000000000001
 20
267.0000000000003
 30
-22.0
 70
   192
  0
VERTEX
  5
41F1
  8
0
 10
198.0000000000001
 20
267.0000000000003
 30
-18.0
 70
   192
  0
VERTEX
  5
41F2
  8
0
 10
0.0
 20
0.0
 30
0.0
 70
   128
 71
     1
 72
     4
 73
    -3
  0
VERTEX
  5
41F3
  8
0
 10
0.0
 20
0.0
 30
0.0
 70
   128
 71
    -1
 72
     3
 73
     2
  0
SEQEND
  5
43D3
  8
0
  0
POLYLINE
  5
41F4
  8
0
 66
     1
 10
0.0
 20
0.0
 30
0.0
 70
    64
 71
     8
 72
     6
  0
VERTEX
  5
41F5
  8
0
 10
232.0
 20
245.0000000000004
 30
-22.0
 70
   192
  0
VERTEX
  5
41F6
  8
0
 10
198.0000000000001
 20
245.0000000000004
 30
-22.0
 70
   192
  0
VERTEX
  5
41F7
  8
0
 10
198.0000000000001
 20
267.0000000000003
 30
-22.0
 70
   192
  0
VERTEX
  5
41F8
  8
0
 10
272.0000000000001
 20
267.0000000000003
 30
-22.0
 70
   192
  0
VERTEX
  5
41F9
  8
0
 10
272.0000000000001
 20
245.0000000000004
 30
-22.0
 70
   192
  0
VERTEX
  5
41FA
  8
0
 10
238.0000000000001
 20
245.0000000000004
 30
-22.0
 70
   192
  0
VERTEX
  5
41FB
  8
0
 10
238.0000000000001
 20
265.0000000000003
 30
-22.0
 70
   192
  0
VERTEX
  5
41FC
  8
0
 10
232.0
 20
265.0000000000003
 30
-22.0
 70
   192
  0
VERTEX
  5
41FD
  8
0
 10
0.0
 20
0.0
 30
0.0
 70
   128
 71
     7
 72
     6
 73
    -5
  0
VERTEX
  5
41FE
  8
0
 10
0.0
 20
0.0
 30
0.0
 70
   128
 71
    -7
 72
     5
 73
    -4
  0
VERTEX
  5
41FF
  8
0
 10
0.0
 20
0.0
 30
0.0
 70
   128
 71
    -4
 72
     8
 73
    -7
  0
VERTEX
  5
4200
  8
0
 10
0.0
 20
0.0
 30
0.0
 70
   128
 71
     4
 72
    -3
 73
    -8
  0
VERTEX
  5
4201
  8
0
 10
0.0
 20
0.0
 30
0.0
 70
   128
 71
     3
 72
     2
 73
    -1
  0
VERTEX
  5
4202
  8
0
 10
0.0
 20
0.0
 30
0.0
 70
   128
 71
    -3
 72
     1
 73
    -8
  0
SEQEND
  5
43D4
  8
0
  0
ENDBLK
  5
43C4
  8
0
  0
BLOCK
  8
0
  2
*X3
 70
     1
 10
0.0
 20
0.0
 30
0.0
  3
*X3
  1

  0
POLYLINE
  5
4204
  8
0
 66
     1
 10
0.0
 20
0.0
 30
0.0
 70
    64
 71
     6
 72
     4
  0
VERTEX
  5
4205
  8
0
 10
-238.0000000000001
 20
245.0000000000004
 30
-22.0
 70
   192
  0
VERTEX
  5
4206
  8
0
 10
-272.0
 20
245.0000000000004
 30
-22.0
 70
   192
  0
VERTEX
  5
4207
  8
0
 10
-272.0
 20
245.0000000000004
 30
-18.0
 70
   192
  0
VERTEX
  5
4208
  8
0
 10
-275.0
 20
245.0000000000004
 30
-18.0
 70
   192
  0
VERTEX
  5
4209
  8
0
 10
-275.0
 20
245.0000000000004
 30
-25.0
 70
   192
  0
VERTEX
  5
420A
  8
0
 10
-238.0000000000001
 20
245.0000000000004
 30
-25.0
 70
   192
  0
VERTEX
  5
420B
  8
0
 10
0.0
 20
0.0
 30
0.0
 70
   128
 71
     6
 72
     1
 73
    -2
  0
VERTEX
  5
420C
  8
0
 10
0.0
 20
0.0
 30
0.0
 70
   128
 71
     5
 72
    -6
 73
    -2
  0
VERTEX
  5
420D
  8
0
 10
0.0
 20
0.0
 30
0.0
 70
   128
 71
     3
 72
     4
 73
    -5
  0
VERTEX
  5
420E
  8
0
 10
0.0
 20
0.0
 30
0.0
 70
   128
 71
     2
 72
    -3
 73
    -5
  0
SEQEND
  5
43D7
  8
0
  0
POLYLINE
  5
420F
  8
0
 66
     1
 10
0.0
 20
0.0
 30
0.0
 70
    64
 71
     6
 72
     4
  0
VERTEX
  5
4210
  8
0
 10
-194.9999999999999
 20
210.0000000000003
 30
-18.0
 70
   192
  0
VERTEX
  5
4211
  8
0
 10
-194.9999999999999
 20
210.0000000000003
 30
-15.0
 70
   192
  0
VERTEX
  5
4212
  8
0
 10
-194.9999999999999
 20
270.0000000000003
 30
-15.0
 70
   192
  0
VERTEX
  5
4213
  8
0
 10
-194.9999999999999
 20
270.0000000000003
 30
-25.0
 70
   192
  0
VERTEX
  5
4214
  8
0
 10
-194.9999999999999
 20
245.0000000000004
 30
-25.0
 70
   192
  0
VERTEX
  5
4215
  8
0
 10
-194.9999999999999
 20
245.0000000000004
 30
-18.0
 70
   192
  0
VERTEX
  5
4216
  8
0
 10
0.0
 20
0.0
 30
0.0
 70
   128
 71
     6
 72
     5
 73
    -4
  0
VERTEX
  5
4217
  8
0
 10
0.0
 20
0.0
 30
0.0
 70
   128
 71
    -6
 72
     4
 73
    -3
  0
VERTEX
  5
4218
  8
0
 10
0.0
 20
0.0
 30
0.0
 70
   128
 71
     3
 72
     2
 73
    -1
  0
VERTEX
  5
4219
  8
0
 10
0.0
 20
0.0
 30
0.0
 70
   128
 71
    -3
 72
     1
 73
    -6
  0
SEQEND
  5
43D8
  8
0
  0
POLYLINE
  5
421A
  8
0
 66
     1
 10
0.0
 20
0.0
 30
0.0
 70
    64
 71
     4
 72
     2
  0
VERTEX
  5
421B
  8
0
 10
-194.9999999999999
 20
210.0000000000003
 30
-15.0
 70
   192
  0
VERTEX
  5
421C
  8
0
 10
-194.9999999999999
 20
210.0000000000003
 30
-18.0
 70
   192
  0
VERTEX
  5
421D
  8
0
 10
-275.0
 20
210.0000000000003
 30
-18.0
 70
   192
  0
VERTEX
  5
421E
  8
0
 10
-275.0
 20
210.0000000000003
 30
-15.0
 70
   192
  0
VERTEX
  5
421F
  8
0
 10
0.0
 20
0.0
 30
0.0
 70
   128
 71
     1
 72
     4
 73
    -3
  0
VERTEX
  5
4220
  8
0
 10
0.0
 20
0.0
 30
0.0
 70
   128
 71
    -1
 72
     3
 73
     2
  0
SEQEND
  5
43D9
  8
0
  0
POLYLINE
  5
4221
  8
0
 66
     1
 10
0.0
 20
0.0
 30
0.0
 70
    64
 71
     6
 72
     4
  0
VERTEX
  5
4222
  8
0
 10
-275.0
 20
210.0000000000003
 30
-18.0
 70
   192
  0
VERTEX
  5
4223
  8
0
 10
-275.0
 20
210.0000000000003
 30
-15.0
 70
   192
  0
VERTEX
  5
4224
  8
0
 10
-275.0
 20
270.0000000000003
 30
-15.0
 70
   192
  0
VERTEX
  5
4225
  8
0
 10
-275.0
 20
270.0000000000003
 30
-25.0
 70
   192
  0
VERTEX
  5
4226
  8
0
 10
-275.0
 20
245.0000000000004
 30
-25.0
 70
   192
  0
VERTEX
  5
4227
  8
0
 10
-275.0
 20
245.0000000000004
 30
-18.0
 70
   192
  0
VERTEX
  5
4228
  8
0
 10
0.0
 20
0.0
 30
0.0
 70
   128
 71
     4
 72
     5
 73
    -6
  0
VERTEX
  5
4229
  8
0
 10
0.0
 20
0.0
 30
0.0
 70
   128
 71
     3
 72
    -4
 73
    -6
  0
VERTEX
  5
422A
  8
0
 10
0.0
 20
0.0
 30
0.0
 70
   128
 71
     1
 72
     2
 73
    -3
  0
VERTEX
  5
422B
  8
0
 10
0.0
 20
0.0
 30
0.0
 70
   128
 71
     6
 72
    -1
 73
    -3
  0
SEQEND
  5
43DA
  8
0
  0
POLYLINE
  5
422C
  8
0
 66
     1
 10
0.0
 20
0.0
 30
0.0
 70
    64
 71
     4
 72
     2
  0
VERTEX
  5
422D
  8
0
 10
-275.0
 20
270.0000000000003
 30
-15.0
 70
   192
  0
VERTEX
  5
422E
  8
0
 10
-194.9999999999999
 20
270.0000000000003
 30
-15.0
 70
   192
  0
VERTEX
  5
422F
  8
0
 10
-194.9999999999999
 20
270.0000000000003
 30
-25.0
 70
   192
  0
VERTEX
  5
4230
  8
0
 10
-275.0
 20
270.0000000000003
 30
-25.0
 70
   192
  0
VERTEX
  5
4231
  8
0
 10
0.0
 20
0.0
 30
0.0
 70
   128
 71
     3
 72
     4
 73
    -1
  0
VERTEX
  5
4232
  8
0
 10
0.0
 20
0.0
 30
0.0
 70
   128
 71
     2
 72
    -3
 73
     1
  0
SEQEND
  5
43DB
  8
0
  0
POLYLINE
  5
4233
  8
0
 66
     1
 10
0.0
 20
0.0
 30
0.0
 70
    64
 71
     8
 72
     6
  0
VERTEX
  5
4234
  8
0
 10
-275.0
 20
245.0000000000004
 30
-18.0
 70
   192
  0
VERTEX
  5
4235
  8
0
 10
-272.0
 20
245.0000000000004
 30
-18.0
 70
   192
  0
VERTEX
  5
4236
  8
0
 10
-272.0
 20
267.0000000000003
 30
-18.0
 70
   192
  0
VERTEX
  5
4237
  8
0
 10
-197.9999999999999
 20
267.0000000000003
 30
-18.0
 70
   192
  0
VERTEX
  5
4238
  8
0
 10
-197.9999999999999
 20
245.0000000000004
 30
-18.0
 70
   192
  0
VERTEX
  5
4239
  8
0
 10
-194.9999999999999
 20
245.0000000000004
 30
-18.0
 70
   192
  0
VERTEX
  5
423A
  8
0
 10
-194.9999999999999
 20
210.0000000000003
 30
-18.0
 70
   192
  0
VERTEX
  5
423B
  8
0
 10
-275.0
 20
210.0000000000003
 30
-18.0
 70
   192
  0
VERTEX
  5
423C
  8
0
 10
0.0
 20
0.0
 30
0.0
 70
   128
 71
     8
 72
     1
 73
    -2
  0
VERTEX
  5
423D
  8
0
 10
0.0
 20
0.0
 30
0.0
 70
   128
 71
    -5
 72
    -8
 73
    -2
  0
VERTEX
  5
423E
  8
0
 10
0.0
 20
0.0
 30
0.0
 70
   128
 71
     3
 72
     4
 73
    -5
  0
VERTEX
  5
423F
  8
0
 10
0.0
 20
0.0
 30
0.0
 70
   128
 71
     2
 72
    -3
 73
    -5
  0
VERTEX
  5
4240
  8
0
 10
0.0
 20
0.0
 30
0.0
 70
   128
 71
    -5
 72
     7
 73
    -8
  0
VERTEX
  5
4241
  8
0
 10
0.0
 20
0.0
 30
0.0
 70
   128
 71
     5
 72
     6
 73
    -7
  0
SEQEND
  5
43DC
  8
0
  0
POLYLINE
  5
4242
  8
0
 66
     1
 10
0.0
 20
0.0
 30
0.0
 70
    64
 71
     4
 72
     2
  0
VERTEX
  5
4243
  8
0
 10
-275.0
 20
270.0000000000003
 30
-15.0
 70
   192
  0
VERTEX
  5
4244
  8
0
 10
-194.9999999999999
 20
270.0000000000003
 30
-15.0
 70
   192
  0
VERTEX
  5
4245
  8
0
 10
-194.9999999999999
 20
210.0000000000003
 30
-15.0
 70
   192
  0
VERTEX
  5
4246
  8
0
 10
-275.0
 20
210.0000000000003
 30
-15.0
 70
   192
  0
VERTEX
  5
4247
  8
0
 10
0.0
 20
0.0
 30
0.0
 70
   128
 71
     1
 72
     4
 73
    -3
  0
VERTEX
  5
4248
  8
0
 10
0.0
 20
0.0
 30
0.0
 70
   128
 71
    -1
 72
     3
 73
     2
  0
SEQEND
  5
43DD
  8
0
  0
POLYLINE
  5
4249
  8
0
 66
     1
 10
0.0
 20
0.0
 30
0.0
 70
    64
 71
     6
 72
     4
  0
VERTEX
  5
424A
  8
0
 10
-197.9999999999999
 20
245.0000000000004
 30
-22.0
 70
   192
  0
VERTEX
  5
424B
  8
0
 10
-232.0
 20
245.0000000000004
 30
-22.0
 70
   192
  0
VERTEX
  5
424C
  8
0
 10
-232.0
 20
245.0000000000004
 30
-25.0
 70
   192
  0
VERTEX
  5
424D
  8
0
 10
-194.9999999999999
 20
245.0000000000004
 30
-25.0
 70
   192
  0
VERTEX
  5
424E
  8
0
 10
-194.9999999999999
 20
245.0000000000004
 30
-18.0
 70
   192
  0
VERTEX
  5
424F
  8
0
 10
-197.9999999999999
 20
245.0000000000004
 30
-18.0
 70
   192
  0
VERTEX
  5
4250
  8
0
 10
0.0
 20
0.0
 30
0.0
 70
   128
 71
     5
 72
     6
 73
    -1
  0
VERTEX
  5
4251
  8
0
 10
0.0
 20
0.0
 30
0.0
 70
   128
 71
     4
 72
    -5
 73
    -1
  0
VERTEX
  5
4252
  8
0
 10
0.0
 20
0.0
 30
0.0
 70
   128
 71
     2
 72
     3
 73
    -4
  0
VERTEX
  5
4253
  8
0
 10
0.0
 20
0.0
 30
0.0
 70
   128
 71
     1
 72
    -2
 73
    -4
  0
SEQEND
  5
43DE
  8
0
  0
POLYLINE
  5
4254
  8
0
 66
     1
 10
0.0
 20
0.0
 30
0.0
 70
    64
 71
     4
 72
     2
  0
VERTEX
  5
4255
  8
0
 10
-232.0
 20
245.0000000000004
 30
-22.0
 70
   192
  0
VERTEX
  5
4256
  8
0
 10
-232.0
 20
265.0000000000004
 30
-22.0
 70
   192
  0
VERTEX
  5
4257
  8
0
 10
-232.0
 20
265.0000000000004
 30
-25.0
 70
   192
  0
VERTEX
  5
4258
  8
0
 10
-232.0
 20
245.0000000000004
 30
-25.0
 70
   192
  0
VERTEX
  5
4259
  8
0
 10
0.0
 20
0.0
 30
0.0
 70
   128
 71
     3
 72
     4
 73
    -1
  0
VERTEX
  5
425A
  8
0
 10
0.0
 20
0.0
 30
0.0
 70
   128
 71
     2
 72
    -3
 73
     1
  0
SEQEND
  5
43DF
  8
0
  0
POLYLINE
  5
425B
  8
0
 66
     1
 10
0.0
 20
0.0
 30
0.0
 70
    64
 71
     4
 72
     2
  0
VERTEX
  5
425C
  8
0
 10
-232.0
 20
265.0000000000004
 30
-22.0
 70
   192
  0
VERTEX
  5
425D
  8
0
 10
-238.0000000000001
 20
265.0000000000004
 30
-22.0
 70
   192
  0
VERTEX
  5
425E
  8
0
 10
-238.0000000000001
 20
265.0000000000004
 30
-25.0
 70
   192
  0
VERTEX
  5
425F
  8
0
 10
-232.0
 20
265.0000000000004
 30
-25.0
 70
   192
  0
VERTEX
  5
4260
  8
0
 10
0.0
 20
0.0
 30
0.0
 70
   128
 71
     3
 72
     4
 73
    -1
  0
VERTEX
  5
4261
  8
0
 10
0.0
 20
0.0
 30
0.0
 70
   128
 71
     2
 72
    -3
 73
     1
  0
SEQEND
  5
43E0
  8
0
  0
POLYLINE
  5
4262
  8
0
 66
     1
 10
0.0
 20
0.0
 30
0.0
 70
    64
 71
     4
 72
     2
  0
VERTEX
  5
4263
  8
0
 10
-238.0000000000001
 20
265.0000000000004
 30
-22.0
 70
   192
  0
VERTEX
  5
4264
  8
0
 10
-238.0000000000001
 20
245.0000000000004
 30
-22.0
 70
   192
  0
VERTEX
  5
4265
  8
0
 10
-238.0000000000001
 20
245.0000000000004
 30
-25.0
 70
   192
  0
VERTEX
  5
4266
  8
0
 10
-238.0000000000001
 20
265.0000000000004
 30
-25.0
 70
   192
  0
VERTEX
  5
4267
  8
0
 10
0.0
 20
0.0
 30
0.0
 70
   128
 71
     3
 72
     4
 73
    -1
  0
VERTEX
  5
4268
  8
0
 10
0.0
 20
0.0
 30
0.0
 70
   128
 71
     2
 72
    -3
 73
     1
  0
SEQEND
  5
43E1
  8
0
  0
POLYLINE
  5
4269
  8
0
 66
     1
 10
0.0
 20
0.0
 30
0.0
 70
    64
 71
     8
 72
     6
  0
VERTEX
  5
426A
  8
0
 10
-238.0000000000001
 20
245.0000000000004
 30
-25.0
 70
   192
  0
VERTEX
  5
426B
  8
0
 10
-275.0
 20
245.0000000000004
 30
-25.0
 70
   192
  0
VERTEX
  5
426C
  8
0
 10
-275.0
 20
270.0000000000003
 30
-25.0
 70
   192
  0
VERTEX
  5
426D
  8
0
 10
-194.9999999999999
 20
270.0000000000003
 30
-25.0
 70
   192
  0
VERTEX
  5
426E
  8
0
 10
-194.9999999999999
 20
245.0000000000004
 30
-25.0
 70
   192
  0
VERTEX
  5
426F
  8
0
 10
-232.0
 20
245.0000000000004
 30
-25.0
 70
   192
  0
VERTEX
  5
4270
  8
0
 10
-232.0
 20
265.0000000000004
 30
-25.0
 70
   192
  0
VERTEX
  5
4271
  8
0
 10
-238.0000000000001
 20
265.0000000000004
 30
-25.0
 70
   192
  0
VERTEX
  5
4272
  8
0
 10
0.0
 20
0.0
 30
0.0
 70
   128
 71
     5
 72
     6
 73
    -7
  0
VERTEX
  5
4273
  8
0
 10
0.0
 20
0.0
 30
0.0
 70
   128
 71
     4
 72
    -5
 73
    -7
  0
VERTEX
  5
4274
  8
0
 10
0.0
 20
0.0
 30
0.0
 70
   128
 71
    -8
 72
     3
 73
    -4
  0
VERTEX
  5
4275
  8
0
 10
0.0
 20
0.0
 30
0.0
 70
   128
 71
     7
 72
    -8
 73
    -4
  0
VERTEX
  5
4276
  8
0
 10
0.0
 20
0.0
 30
0.0
 70
   128
 71
     1
 72
     2
 73
    -3
  0
VERTEX
  5
4277
  8
0
 10
0.0
 20
0.0
 30
0.0
 70
   128
 71
     8
 72
    -1
 73
    -3
  0
SEQEND
  5
43E2
  8
0
  0
POLYLINE
  5
4278
  8
0
 66
     1
 10
0.0
 20
0.0
 30
0.0
 70
    64
 71
     4
 72
     2
  0
VERTEX
  5
4279
  8
0
 10
-197.9999999999999
 20
245.0000000000004
 30
-18.0
 70
   192
  0
VERTEX
  5
427A
  8
0
 10
-197.9999999999999
 20
267.0000000000003
 30
-18.0
 70
   192
  0
VERTEX
  5
427B
  8
0
 10
-197.9999999999999
 20
267.0000000000003
 30
-22.0
 70
   192
  0
VERTEX
  5
427C
  8
0
 10
-197.9999999999999
 20
245.0000000000004
 30
-22.0
 70
   192
  0
VERTEX
  5
427D
  8
0
 10
0.0
 20
0.0
 30
0.0
 70
   128
 71
     3
 72
     4
 73
    -1
  0
VERTEX
  5
427E
  8
0
 10
0.0
 20
0.0
 30
0.0
 70
   128
 71
     2
 72
    -3
 73
     1
  0
SEQEND
  5
43E3
  8
0
  0
POLYLINE
  5
427F
  8
0
 66
     1
 10
0.0
 20
0.0
 30
0.0
 70
    64
 71
     4
 72
     2
  0
VERTEX
  5
4280
  8
0
 10
-272.0
 20
245.0000000000004
 30
-18.0
 70
   192
  0
VERTEX
  5
4281
  8
0
 10
-272.0
 20
267.0000000000003
 30
-18.0
 70
   192
  0
VERTEX
  5
4282
  8
0
 10
-272.0
 20
267.0000000000003
 30
-22.0
 70
   192
  0
VERTEX
  5
4283
  8
0
 10
-272.0
 20
245.0000000000004
 30
-22.0
 70
   192
  0
VERTEX
  5
4284
  8
0
 10
0.0
 20
0.0
 30
0.0
 70
   128
 71
     1
 72
     4
 73
    -3
  0
VERTEX
  5
4285
  8
0
 10
0.0
 20
0.0
 30
0.0
 70
   128
 71
    -1
 72
     3
 73
     2
  0
SEQEND
  5
43E4
  8
0
  0
POLYLINE
  5
4286
  8
0
 66
     1
 10
0.0
 20
0.0
 30
0.0
 70
    64
 71
     4
 72
     2
  0
VERTEX
  5
4287
  8
0
 10
-197.9999999999999
 20
267.0000000000003
 30
-18.0
 70
   192
  0
VERTEX
  5
4288
  8
0
 10
-197.9999999999999
 20
267.0000000000003
 30
-22.0
 70
   192
  0
VERTEX
  5
4289
  8
0
 10
-272.0
 20
267.0000000000003
 30
-22.0
 70
   192
  0
VERTEX
  5
428A
  8
0
 10
-272.0
 20
267.0000000000003
 30
-18.0
 70
   192
  0
VERTEX
  5
428B
  8
0
 10
0.0
 20
0.0
 30
0.0
 70
   128
 71
     1
 72
     4
 73
    -3
  0
VERTEX
  5
428C
  8
0
 10
0.0
 20
0.0
 30
0.0
 70
   128
 71
    -1
 72
     3
 73
     2
  0
SEQEND
  5
43E5
  8
0
  0
POLYLINE
  5
428D
  8
0
 66
     1
 10
0.0
 20
0.0
 30
0.0
 70
    64
 71
     8
 72
     6
  0
VERTEX
  5
428E
  8
0
 10
-272.0
 20
245.0000000000004
 30
-22.0
 70
   192
  0
VERTEX
  5
428F
  8
0
 10
-272.0
 20
267.0000000000003
 30
-22.0
 70
   192
  0
VERTEX
  5
4290
  8
0
 10
-197.9999999999999
 20
267.0000000000003
 30
-22.0
 70
   192
  0
VERTEX
  5
4291
  8
0
 10
-197.9999999999999
 20
245.0000000000004
 30
-22.0
 70
   192
  0
VERTEX
  5
4292
  8
0
 10
-232.0
 20
245.0000000000004
 30
-22.0
 70
   192
  0
VERTEX
  5
4293
  8
0
 10
-232.0
 20
265.0000000000004
 30
-22.0
 70
   192
  0
VERTEX
  5
4294
  8
0
 10
-238.0000000000001
 20
265.0000000000004
 30
-22.0
 70
   192
  0
VERTEX
  5
4295
  8
0
 10
-238.0000000000001
 20
245.0000000000004
 30
-22.0
 70
   192
  0
VERTEX
  5
4296
  8
0
 10
0.0
 20
0.0
 30
0.0
 70
   128
 71
     6
 72
     5
 73
    -4
  0
VERTEX
  5
4297
  8
0
 10
0.0
 20
0.0
 30
0.0
 70
   128
 71
    -6
 72
     4
 73
    -3
  0
VERTEX
  5
4298
  8
0
 10
0.0
 20
0.0
 30
0.0
 70
   128
 71
    -3
 72
     7
 73
    -6
  0
VERTEX
  5
4299
  8
0
 10
0.0
 20
0.0
 30
0.0
 70
   128
 71
     3
 72
    -2
 73
    -7
  0
VERTEX
  5
429A
  8
0
 10
0.0
 20
0.0
 30
0.0
 70
   128
 71
     2
 72
     1
 73
    -8
  0
VERTEX
  5
429B
  8
0
 10
0.0
 20
0.0
 30
0.0
 70
   128
 71
    -2
 72
     8
 73
    -7
  0
SEQEND
  5
43E6
  8
0
  0
ENDBLK
  5
43D6
  8
0
  0
BLOCK
  8
0
  2
*X4
 70
     1
 10
0.0
 20
0.0
 30
0.0
  3
*X4
  1

  0
POLYLINE
  5
429D
  8
0
 66
     1
 10
0.0
 20
0.0
 30
0.0
 70
    64
 71
     8
 72
     6
  0
VERTEX
  5
429E
  8
0
 10
195.0
 20
-318.660254037845
 30
-15.0
 70
   192
  0
VERTEX
  5
429F
  8
0
 10
195.0
 20
-318.660254037845
 30
-25.0
 70
   192
  0
VERTEX
  5
42A0
  8
0
 10
198.6602540378444
 20
-315.0000000000007
 30
-25.0
 70
   192
  0
VERTEX
  5
42A1
  8
0
 10
198.6602540378444
 20
-315.0000000000007
 30
-15.0
 70
   192
  0
VERTEX
  5
42A2
  8
0
 10
190.0
 20
-320.0000000000007
 30
-15.0
 70
   192
  0
VERTEX
  5
42A3
  8
0
 10
190.0
 20
-320.0000000000007
 30
-25.0
 70
   192
  0
VERTEX
  5
42A4
  8
0
 10
200.0
 20
-310.0000000000007
 30
-25.0
 70
   192
  0
VERTEX
  5
42A5
  8
0
 10
200.0
 20
-310.0000000000007
 30
-15.0
 70
   192
  0
VERTEX
  5
42A6
  8
0
 10
0.0
 20
0.0
 30
0.0
 70
   128
 71
     1
 72
     2
 73
    -3
  0
VERTEX
  5
42A7
  8
0
 10
0.0
 20
0.0
 30
0.0
 70
   128
 71
    -1
 72
     3
 73
     4
  0
VERTEX
  5
42A8
  8
0
 10
0.0
 20
0.0
 30
0.0
 70
   128
 71
     5
 72
     6
 73
    -2
  0
VERTEX
  5
42A9
  8
0
 10
0.0
 20
0.0
 30
0.0
 70
   128
 71
    -5
 72
     2
 73
     1
  0
VERTEX
  5
42AA
  8
0
 10
0.0
 20
0.0
 30
0.0
 70
   128
 71
     4
 72
     3
 73
    -7
  0
VERTEX
  5
42AB
  8
0
 10
0.0
 20
0.0
 30
0.0
 70
   128
 71
    -4
 72
     7
 73
     8
  0
SEQEND
  5
43E9
  8
0
  0
POLYLINE
  5
42AC
  8
0
 66
     1
 10
0.0
 20
0.0
 30
0.0
 70
    64
 71
     4
 72
     2
  0
VERTEX
  5
42AD
  8
0
 10
190.0
 20
-320.0000000000007
 30
-15.0
 70
   192
  0
VERTEX
  5
42AE
  8
0
 10
190.0
 20
-320.0000000000007
 30
-25.0
 70
   192
  0
VERTEX
  5
42AF
  8
0
 10
9.999999999999982
 20
-320.0000000000007
 30
-25.0
 70
   192
  0
VERTEX
  5
42B0
  8
0
 10
9.999999999999972
 20
-320.0000000000007
 30
-15.0
 70
   192
  0
VERTEX
  5
42B1
  8
0
 10
0.0
 20
0.0
 30
0.0
 70
   128
 71
     1
 72
     4
 73
    -3
  0
VERTEX
  5
42B2
  8
0
 10
0.0
 20
0.0
 30
0.0
 70
   128
 71
    -1
 72
     3
 73
     2
  0
SEQEND
  5
43EA
  8
0
  0
POLYLINE
  5
42B3
  8
0
 66
     1
 10
0.0
 20
0.0
 30
0.0
 70
    64
 71
     8
 72
     6
  0
VERTEX
  5
42B4
  8
0
 10
1.339745962155591
 20
-315.0000000000007
 30
-15.0
 70
   192
  0
VERTEX
  5
42B5
  8
0
 10
1.339745962155591
 20
-315.0000000000007
 30
-25.0
 70
   192
  0
VERTEX
  5
42B6
  8
0
 10
4.999999999999977
 20
-318.660254037845
 30
-25.0
 70
   192
  0
VERTEX
  5
42B7
  8
0
 10
4.999999999999977
 20
-318.660254037845
 30
-15.0
 70
   192
  0
VERTEX
  5
42B8
  8
0
 10
-0.0000000000000249
 20
-310.0000000000007
 30
-15.0
 70
   192
  0
VERTEX
  5
42B9
  8
0
 10
-0.0000000000000226
 20
-310.0000000000007
 30
-25.0
 70
   192
  0
VERTEX
  5
42BA
  8
0
 10
9.999999999999982
 20
-320.0000000000007
 30
-25.0
 70
   192
  0
VERTEX
  5
42BB
  8
0
 10
9.999999999999982
 20
-320.0000000000007
 30
-15.0
 70
   192
  0
VERTEX
  5
42BC
  8
0
 10
0.0
 20
0.0
 30
0.0
 70
   128
 71
     1
 72
     2
 73
    -3
  0
VERTEX
  5
42BD
  8
0
 10
0.0
 20
0.0
 30
0.0
 70
   128
 71
    -1
 72
     3
 73
     4
  0
VERTEX
  5
42BE
  8
0
 10
0.0
 20
0.0
 30
0.0
 70
   128
 71
     5
 72
     6
 73
    -2
  0
VERTEX
  5
42BF
  8
0
 10
0.0
 20
0.0
 30
0.0
 70
   128
 71
    -5
 72
     2
 73
     1
  0
VERTEX
  5
42C0
  8
0
 10
0.0
 20
0.0
 30
0.0
 70
   128
 71
     4
 72
     3
 73
    -7
  0
VERTEX
  5
42C1
  8
0
 10
0.0
 20
0.0
 30
0.0
 70
   128
 71
    -4
 72
     7
 73
     8
  0
SEQEND
  5
43EB
  8
0
  0
POLYLINE
  5
42C2
  8
0
 66
     1
 10
0.0
 20
0.0
 30
0.0
 70
    64
 71
     4
 72
     2
  0
VERTEX
  5
42C3
  8
0
 10
-0.0000000000000226
 20
-310.0000000000007
 30
-15.0
 70
   192
  0
VERTEX
  5
42C4
  8
0
 10
-0.0000000000000226
 20
-310.0000000000007
 30
-25.0
 70
   192
  0
VERTEX
  5
42C5
  8
0
 10
0.0
 20
-150.0000000000005
 30
-25.0
 70
   192
  0
VERTEX
  5
42C6
  8
0
 10
-0.0000000000000017
 20
-150.0000000000005
 30
-15.0
 70
   192
  0
VERTEX
  5
42C7
  8
0
 10
0.0
 20
0.0
 30
0.0
 70
   128
 71
     1
 72
     4
 73
    -3
  0
VERTEX
  5
42C8
  8
0
 10
0.0
 20
0.0
 30
0.0
 70
   128
 71
    -1
 72
     3
 73
     2
  0
SEQEND
  5
43EC
  8
0
  0
POLYLINE
  5
42C9
  8
0
 66
     1
 10
0.0
 20
0.0
 30
0.0
 70
    64
 71
     8
 72
     6
  0
VERTEX
  5
42CA
  8
0
 10
5.0
 20
-141.3397459621561
 30
-15.0
 70
   192
  0
VERTEX
  5
42CB
  8
0
 10
5.0
 20
-141.3397459621561
 30
-25.0
 70
   192
  0
VERTEX
  5
42CC
  8
0
 10
1.339745962155613
 20
-145.0000000000005
 30
-25.0
 70
   192
  0
VERTEX
  5
42CD
  8
0
 10
1.339745962155613
 20
-145.0000000000005
 30
-15.0
 70
   192
  0
VERTEX
  5
42CE
  8
0
 10
10.00000000000001
 20
-140.0000000000005
 30
-15.0
 70
   192
  0
VERTEX
  5
42CF
  8
0
 10
10.00000000000001
 20
-140.0000000000005
 30
-25.0
 70
   192
  0
VERTEX
  5
42D0
  8
0
 10
0.0
 20
-150.0000000000005
 30
-25.0
 70
   192
  0
VERTEX
  5
42D1
  8
0
 10
0.0
 20
-150.0000000000005
 30
-15.0
 70
   192
  0
VERTEX
  5
42D2
  8
0
 10
0.0
 20
0.0
 30
0.0
 70
   128
 71
     1
 72
     2
 73
    -3
  0
VERTEX
  5
42D3
  8
0
 10
0.0
 20
0.0
 30
0.0
 70
   128
 71
    -1
 72
     3
 73
     4
  0
VERTEX
  5
42D4
  8
0
 10
0.0
 20
0.0
 30
0.0
 70
   128
 71
     5
 72
     6
 73
    -2
  0
VERTEX
  5
42D5
  8
0
 10
0.0
 20
0.0
 30
0.0
 70
   128
 71
    -5
 72
     2
 73
     1
  0
VERTEX
  5
42D6
  8
0
 10
0.0
 20
0.0
 30
0.0
 70
   128
 71
     4
 72
     3
 73
    -7
  0
VERTEX
  5
42D7
  8
0
 10
0.0
 20
0.0
 30
0.0
 70
   128
 71
    -4
 72
     7
 73
     8
  0
SEQEND
  5
43ED
  8
0
  0
POLYLINE
  5
42D8
  8
0
 66
     1
 10
0.0
 20
0.0
 30
0.0
 70
    64
 71
     4
 72
     2
  0
VERTEX
  5
42D9
  8
0
 10
10.00000000000001
 20
-140.0000000000005
 30
-15.0
 70
   192
  0
VERTEX
  5
42DA
  8
0
 10
10.0
 20
-140.0000000000005
 30
-25.0
 70
   192
  0
VERTEX
  5
42DB
  8
0
 10
190.0
 20
-140.0000000000005
 30
-25.0
 70
   192
  0
VERTEX
  5
42DC
  8
0
 10
190.0
 20
-140.0000000000005
 30
-15.0
 70
   192
  0
VERTEX
  5
42DD
  8
0
 10
0.0
 20
0.0
 30
0.0
 70
   128
 71
     1
 72
     4
 73
    -3
  0
VERTEX
  5
42DE
  8
0
 10
0.0
 20
0.0
 30
0.0
 70
   128
 71
    -1
 72
     3
 73
     2
  0
SEQEND
  5
43EE
  8
0
  0
POLYLINE
  5
42DF
  8
0
 66
     1
 10
0.0
 20
0.0
 30
0.0
 70
    64
 71
     8
 72
     6
  0
VERTEX
  5
42E0
  8
0
 10
198.6602540378444
 20
-145.0000000000005
 30
-15.0
 70
   192
  0
VERTEX
  5
42E1
  8
0
 10
198.6602540378444
 20
-145.0000000000005
 30
-25.0
 70
   192
  0
VERTEX
  5
42E2
  8
0
 10
195.0
 20
-141.3397459621561
 30
-25.0
 70
   192
  0
VERTEX
  5
42E3
  8
0
 10
195.0
 20
-141.3397459621561
 30
-15.0
 70
   192
  0
VERTEX
  5
42E4
  8
0
 10
200.0
 20
-150.0000000000005
 30
-15.0
 70
   192
  0
VERTEX
  5
42E5
  8
0
 10
200.0
 20
-150.0000000000005
 30
-25.0
 70
   192
  0
VERTEX
  5
42E6
  8
0
 10
190.0
 20
-140.0000000000005
 30
-25.0
 70
   192
  0
VERTEX
  5
42E7
  8
0
 10
190.0
 20
-140.0000000000005
 30
-15.0
 70
   192
  0
VERTEX
  5
42E8
  8
0
 10
0.0
 20
0.0
 30
0.0
 70
   128
 71
     1
 72
     2
 73
    -3
  0
VERTEX
  5
42E9
  8
0
 10
0.0
 20
0.0
 30
0.0
 70
   128
 71
    -1
 72
     3
 73
     4
  0
VERTEX
  5
42EA
  8
0
 10
0.0
 20
0.0
 30
0.0
 70
   128
 71
     5
 72
     6
 73
    -2
  0
VERTEX
  5
42EB
  8
0
 10
0.0
 20
0.0
 30
0.0
 70
   128
 71
    -5
 72
     2
 73
     1
  0
VERTEX
  5
42EC
  8
0
 10
0.0
 20
0.0
 30
0.0
 70
   128
 71
     4
 72
     3
 73
    -7
  0
VERTEX
  5
42ED
  8
0
 10
0.0
 20
0.0
 30
0.0
 70
   128
 71
    -4
 72
     7
 73
     8
  0
SEQEND
  5
43EF
  8
0
  0
POLYLINE
  5
42EE
  8
0
 66
     1
 10
0.0
 20
0.0
 30
0.0
 70
    64
 71
     4
 72
     2
  0
VERTEX
  5
42EF
  8
0
 10
200.0
 20
-150.0000000000005
 30
-15.0
 70
   192
  0
VERTEX
  5
42F0
  8
0
 10
200.0
 20
-150.0000000000005
 30
-25.0
 70
   192
  0
VERTEX
  5
42F1
  8
0
 10
200.0
 20
-310.0000000000007
 30
-25.0
 70
   192
  0
VERTEX
  5
42F2
  8
0
 10
200.0
 20
-310.0000000000007
 30
-15.0
 70
   192
  0
VERTEX
  5
42F3
  8
0
 10
0.0
 20
0.0
 30
0.0
 70
   128
 71
     1
 72
     4
 73
    -3
  0
VERTEX
  5
42F4
  8
0
 10
0.0
 20
0.0
 30
0.0
 70
   128
 71
    -1
 72
     3
 73
     2
  0
SEQEND
  5
43F0
  8
0
  0
POLYLINE
  5
42F5
  8
0
 66
     1
 10
0.0
 20
0.0
 30
0.0
 70
    64
 71
    16
 72
    14
  0
VERTEX
  5
42F6
  8
0
 10
200.0
 20
-310.0000000000007
 30
-25.0
 70
   192
  0
VERTEX
  5
42F7
  8
0
 10
198.6602540378444
 20
-315.0000000000007
 30
-25.0
 70
   192
  0
VERTEX
  5
42F8
  8
0
 10
195.0
 20
-318.660254037845
 30
-25.0
 70
   192
  0
VERTEX
  5
42F9
  8
0
 10
190.0
 20
-320.0000000000007
 30
-25.0
 70
   192
  0
VERTEX
  5
42FA
  8
0
 10
9.999999999999972
 20
-320.0000000000007
 30
-25.0
 70
   192
  0
VERTEX
  5
42FB
  8
0
 10
4.999999999999977
 20
-318.660254037845
 30
-25.0
 70
   192
  0
VERTEX
  5
42FC
  8
0
 10
1.339745962155591
 20
-315.0000000000007
 30
-25.0
 70
   192
  0
VERTEX
  5
42FD
  8
0
 10
-0.0000000000000249
 20
-310.0000000000007
 30
-25.0
 70
   192
  0
VERTEX
  5
42FE
  8
0
 10
-0.0000000000000017
 20
-150.0000000000005
 30
-25.0
 70
   192
  0
VERTEX
  5
42FF
  8
0
 10
1.339745962155613
 20
-145.0000000000005
 30
-25.0
 70
   192
  0
VERTEX
  5
4300
  8
0
 10
5.0
 20
-141.3397459621561
 30
-25.0
 70
   192
  0
VERTEX
  5
4301
  8
0
 10
10.00000000000001
 20
-140.0000000000005
 30
-25.0
 70
   192
  0
VERTEX
  5
4302
  8
0
 10
190.0
 20
-140.0000000000005
 30
-25.0
 70
   192
  0
VERTEX
  5
4303
  8
0
 10
195.0
 20
-141.3397459621561
 30
-25.0
 70
   192
  0
VERTEX
  5
4304
  8
0
 10
198.6602540378444
 20
-145.0000000000005
 30
-25.0
 70
   192
  0
VERTEX
  5
4305
  8
0
 10
200.0
 20
-150.0000000000005
 30
-25.0
 70
   192
  0
VERTEX
  5
4306
  8
0
 10
0.0
 20
0.0
 30
0.0
 70
   128
 71
    15
 72
    16
 73
    -1
  0
VERTEX
  5
4307
  8
0
 10
0.0
 20
0.0
 30
0.0
 70
   128
 71
    14
 72
   -15
 73
    -1
  0
VERTEX
  5
4308
  8
0
 10
0.0
 20
0.0
 30
0.0
 70
   128
 71
    13
 72
   -14
 73
    -1
  0
VERTEX
  5
4309
  8
0
 10
0.0
 20
0.0
 30
0.0
 70
   128
 71
    12
 72
   -13
 73
    -1
  0
VERTEX
  5
430A
  8
0
 10
0.0
 20
0.0
 30
0.0
 70
   128
 71
    11
 72
   -12
 73
    -1
  0
VERTEX
  5
430B
  8
0
 10
0.0
 20
0.0
 30
0.0
 70
   128
 71
    10
 72
   -11
 73
    -1
  0
VERTEX
  5
430C
  8
0
 10
0.0
 20
0.0
 30
0.0
 70
   128
 71
     9
 72
   -10
 73
    -1
  0
VERTEX
  5
430D
  8
0
 10
0.0
 20
0.0
 30
0.0
 70
   128
 71
     8
 72
    -9
 73
    -1
  0
VERTEX
  5
430E
  8
0
 10
0.0
 20
0.0
 30
0.0
 70
   128
 71
     7
 72
    -8
 73
    -1
  0
VERTEX
  5
430F
  8
0
 10
0.0
 20
0.0
 30
0.0
 70
   128
 71
     6
 72
    -7
 73
    -1
  0
VERTEX
  5
4310
  8
0
 10
0.0
 20
0.0
 30
0.0
 70
   128
 71
     5
 72
    -6
 73
    -1
  0
VERTEX
  5
4311
  8
0
 10
0.0
 20
0.0
 30
0.0
 70
   128
 71
     4
 72
    -5
 73
    -1
  0
VERTEX
  5
4312
  8
0
 10
0.0
 20
0.0
 30
0.0
 70
   128
 71
     3
 72
    -4
 73
    -1
  0
VERTEX
  5
4313
  8
0
 10
0.0
 20
0.0
 30
0.0
 70
   128
 71
     2
 72
    -3
 73
     1
  0
SEQEND
  5
43F1
  8
0
  0
POLYLINE
  5
4314
  8
0
 66
     1
 10
0.0
 20
0.0
 30
0.0
 70
    64
 71
    16
 72
    14
  0
VERTEX
  5
4315
  8
0
 10
190.0
 20
-320.0000000000007
 30
-15.0
 70
   192
  0
VERTEX
  5
4316
  8
0
 10
9.999999999999982
 20
-320.0000000000007
 30
-15.0
 70
   192
  0
VERTEX
  5
4317
  8
0
 10
4.999999999999977
 20
-318.660254037845
 30
-15.0
 70
   192
  0
VERTEX
  5
4318
  8
0
 10
1.339745962155591
 20
-315.0000000000007
 30
-15.0
 70
   192
  0
VERTEX
  5
4319
  8
0
 10
-0.0000000000000226
 20
-310.0000000000007
 30
-15.0
 70
   192
  0
VERTEX
  5
431A
  8
0
 10
0.0
 20
-150.0000000000005
 30
-15.0
 70
   192
  0
VERTEX
  5
431B
  8
0
 10
1.339745962155613
 20
-145.0000000000005
 30
-15.0
 70
   192
  0
VERTEX
  5
431C
  8
0
 10
5.0
 20
-141.3397459621561
 30
-15.0
 70
   192
  0
VERTEX
  5
431D
  8
0
 10
10.0
 20
-140.0000000000005
 30
-15.0
 70
   192
  0
VERTEX
  5
431E
  8
0
 10
190.0
 20
-140.0000000000005
 30
-15.0
 70
   192
  0
VERTEX
  5
431F
  8
0
 10
195.0
 20
-141.3397459621561
 30
-15.0
 70
   192
  0
VERTEX
  5
4320
  8
0
 10
198.6602540378444
 20
-145.0000000000005
 30
-15.0
 70
   192
  0
VERTEX
  5
4321
  8
0
 10
200.0
 20
-150.0000000000005
 30
-15.0
 70
   192
  0
VERTEX
  5
4322
  8
0
 10
200.0
 20
-310.0000000000007
 30
-15.0
 70
   192
  0
VERTEX
  5
4323
  8
0
 10
198.6602540378444
 20
-315.0000000000007
 30
-15.0
 70
   192
  0
VERTEX
  5
4324
  8
0
 10
195.0
 20
-318.660254037845
 30
-15.0
 70
   192
  0
VERTEX
  5
4325
  8
0
 10
0.0
 20
0.0
 30
0.0
 70
   128
 71
     1
 72
    16
 73
   -15
  0
VERTEX
  5
4326
  8
0
 10
0.0
 20
0.0
 30
0.0
 70
   128
 71
    -1
 72
    15
 73
   -14
  0
VERTEX
  5
4327
  8
0
 10
0.0
 20
0.0
 30
0.0
 70
   128
 71
    -1
 72
    14
 73
   -13
  0
VERTEX
  5
4328
  8
0
 10
0.0
 20
0.0
 30
0.0
 70
   128
 71
    -1
 72
    13
 73
   -12
  0
VERTEX
  5
4329
  8
0
 10
0.0
 20
0.0
 30
0.0
 70
   128
 71
    -1
 72
    12
 73
   -11
  0
VERTEX
  5
432A
  8
0
 10
0.0
 20
0.0
 30
0.0
 70
   128
 71
    -1
 72
    11
 73
   -10
  0
VERTEX
  5
432B
  8
0
 10
0.0
 20
0.0
 30
0.0
 70
   128
 71
    -1
 72
    10
 73
    -9
  0
VERTEX
  5
432C
  8
0
 10
0.0
 20
0.0
 30
0.0
 70
   128
 71
    -1
 72
     9
 73
    -8
  0
VERTEX
  5
432D
  8
0
 10
0.0
 20
0.0
 30
0.0
 70
   128
 71
    -1
 72
     8
 73
    -7
  0
VERTEX
  5
432E
  8
0
 10
0.0
 20
0.0
 30
0.0
 70
   128
 71
    -1
 72
     7
 73
    -6
  0
VERTEX
  5
432F
  8
0
 10
0.0
 20
0.0
 30
0.0
 70
   128
 71
    -1
 72
     6
 73
    -5
  0
VERTEX
  5
4330
  8
0
 10
0.0
 20
0.0
 30
0.0
 70
   128
 71
    -1
 72
     5
 73
    -4
  0
VERTEX
  5
4331
  8
0
 10
0.0
 20
0.0
 30
0.0
 70
   128
 71
    -1
 72
     4
 73
    -3
  0
VERTEX
  5
4332
  8
0
 10
0.0
 20
0.0
 30
0.0
 70
   128
 71
    -1
 72
     3
 73
     2
  0
SEQEND
  5
43F2
  8
0
  0
ENDBLK
  5
43E8
  8
0
  0
BLOCK
  8
0
  2
*X5
 70
     1
 10
0.0
 20
0.0
 30
0.0
  3
*X5
  1

  0
POLYLINE
  5
4334
  8
0
 66
     1
 10
0.0
 20
0.0
 30
0.0
 70
    64
 71
    14
 72
    12
  0
VERTEX
  5
4335
  8
0
 10
151.75
 20
-320.0000000000007
 30
-16.96891108675447
 70
   192
  0
VERTEX
  5
4336
  8
0
 10
150.0
 20
-320.0000000000007
 30
-16.50000000000001
 70
   192
  0
VERTEX
  5
4337
  8
0
 10
150.0
 20
-325.0000000000007
 30
-16.50000000000001
 70
   192
  0
VERTEX
  5
4338
  8
0
 10
151.75
 20
-325.0000000000007
 30
-16.96891108675447
 70
   192
  0
VERTEX
  5
4339
  8
0
 10
153.0310889132455
 20
-325.0000000000007
 30
-18.25
 70
   192
  0
VERTEX
  5
433A
  8
0
 10
153.5
 20
-325.0000000000007
 30
-20.0
 70
   192
  0
VERTEX
  5
433B
  8
0
 10
153.5
 20
-320.0000000000007
 30
-20.0
 70
   192
  0
VERTEX
  5
433C
  8
0
 10
153.0310889132455
 20
-320.0000000000007
 30
-18.25
 70
   192
  0
VERTEX
  5
433D
  8
0
 10
153.0310889132455
 20
-320.0000000000007
 30
-21.75
 70
   192
  0
VERTEX
  5
433E
  8
0
 10
153.0310889132455
 20
-325.0000000000007
 30
-21.75
 70
   192
  0
VERTEX
  5
433F
  8
0
 10
151.75
 20
-325.0000000000007
 30
-23.03108891324553
 70
   192
  0
VERTEX
  5
4340
  8
0
 10
150.0
 20
-325.0000000000007
 30
-23.49999999999999
 70
   192
  0
VERTEX
  5
4341
  8
0
 10
150.0
 20
-320.0000000000007
 30
-23.49999999999999
 70
   192
  0
VERTEX
  5
4342
  8
0
 10
151.75
 20
-320.0000000000007
 30
-23.03108891324553
 70
   192
  0
VERTEX
  5
4343
  8
0
 10
0.0
 20
0.0
 30
0.0
 70
   128
 71
     1
 72
     2
 73
    -3
  0
VERTEX
  5
4344
  8
0
 10
0.0
 20
0.0
 30
0.0
 70
   128
 71
    -1
 72
     3
 73
     4
  0
VERTEX
  5
4345
  8
0
 10
0.0
 20
0.0
 30
0.0
 70
   128
 71
     5
 72
     6
 73
    -7
  0
VERTEX
  5
4346
  8
0
 10
0.0
 20
0.0
 30
0.0
 70
   128
 71
    -5
 72
     7
 73
     8
  0
VERTEX
  5
4347
  8
0
 10
0.0
 20
0.0
 30
0.0
 70
   128
 71
     9
 72
     7
 73
    -6
  0
VERTEX
  5
4348
  8
0
 10
0.0
 20
0.0
 30
0.0
 70
   128
 71
    -9
 72
     6
 73
    10
  0
VERTEX
  5
4349
  8
0
 10
0.0
 20
0.0
 30
0.0
 70
   128
 71
    11
 72
    12
 73
   -13
  0
VERTEX
  5
434A
  8
0
 10
0.0
 20
0.0
 30
0.0
 70
   128
 71
   -11
 72
    13
 73
    14
  0
VERTEX
  5
434B
  8
0
 10
0.0
 20
0.0
 30
0.0
 70
   128
 71
     1
 72
     4
 73
    -5
  0
VERTEX
  5
434C
  8
0
 10
0.0
 20
0.0
 30
0.0
 70
   128
 71
    -1
 72
     5
 73
     8
  0
VERTEX
  5
434D
  8
0
 10
0.0
 20
0.0
 30
0.0
 70
   128
 71
     9
 72
    10
 73
   -11
  0
VERTEX
  5
434E
  8
0
 10
0.0
 20
0.0
 30
0.0
 70
   128
 71
    -9
 72
    11
 73
    14
  0
SEQEND
  5
43F5
  8
0
  0
POLYLINE
  5
434F
  8
0
 66
     1
 10
0.0
 20
0.0
 30
0.0
 70
    64
 71
    14
 72
    12
  0
VERTEX
  5
4350
  8
0
 10
148.25
 20
-320.0000000000007
 30
-23.03108891324553
 70
   192
  0
VERTEX
  5
4351
  8
0
 10
150.0
 20
-320.0000000000007
 30
-23.49999999999999
 70
   192
  0
VERTEX
  5
4352
  8
0
 10
150.0
 20
-325.0000000000007
 30
-23.49999999999999
 70
   192
  0
VERTEX
  5
4353
  8
0
 10
148.25
 20
-325.0000000000007
 30
-23.03108891324553
 70
   192
  0
VERTEX
  5
4354
  8
0
 10
146.9689110867544
 20
-325.0000000000007
 30
-21.75
 70
   192
  0
VERTEX
  5
4355
  8
0
 10
146.5
 20
-325.0000000000007
 30
-20.0
 70
   192
  0
VERTEX
  5
4356
  8
0
 10
146.5
 20
-320.0000000000007
 30
-20.0
 70
   192
  0
VERTEX
  5
4357
  8
0
 10
146.9689110867544
 20
-320.0000000000007
 30
-21.75
 70
   192
  0
VERTEX
  5
4358
  8
0
 10
146.9689110867544
 20
-320.0000000000007
 30
-18.25
 70
   192
  0
VERTEX
  5
4359
  8
0
 10
146.9689110867544
 20
-325.0000000000007
 30
-18.25
 70
   192
  0
VERTEX
  5
435A
  8
0
 10
148.25
 20
-325.0000000000007
 30
-16.96891108675447
 70
   192
  0
VERTEX
  5
435B
  8
0
 10
150.0
 20
-325.0000000000007
 30
-16.50000000000001
 70
   192
  0
VERTEX
  5
435C
  8
0
 10
150.0
 20
-320.0000000000007
 30
-16.50000000000001
 70
   192
  0
VERTEX
  5
435D
  8
0
 10
148.25
 20
-320.0000000000007
 30
-16.96891108675447
 70
   192
  0
VERTEX
  5
435E
  8
0
 10
0.0
 20
0.0
 30
0.0
 70
   128
 71
     1
 72
     2
 73
    -3
  0
VERTEX
  5
435F
  8
0
 10
0.0
 20
0.0
 30
0.0
 70
   128
 71
    -1
 72
     3
 73
     4
  0
VERTEX
  5
4360
  8
0
 10
0.0
 20
0.0
 30
0.0
 70
   128
 71
     5
 72
     6
 73
    -7
  0
VERTEX
  5
4361
  8
0
 10
0.0
 20
0.0
 30
0.0
 70
   128
 71
    -5
 72
     7
 73
     8
  0
VERTEX
  5
4362
  8
0
 10
0.0
 20
0.0
 30
0.0
 70
   128
 71
     9
 72
     7
 73
    -6
  0
VERTEX
  5
4363
  8
0
 10
0.0
 20
0.0
 30
0.0
 70
   128
 71
    -9
 72
     6
 73
    10
  0
VERTEX
  5
4364
  8
0
 10
0.0
 20
0.0
 30
0.0
 70
   128
 71
    11
 72
    12
 73
   -13
  0
VERTEX
  5
4365
  8
0
 10
0.0
 20
0.0
 30
0.0
 70
   128
 71
   -11
 72
    13
 73
    14
  0
VERTEX
  5
4366
  8
0
 10
0.0
 20
0.0
 30
0.0
 70
   128
 71
     1
 72
     4
 73
    -5
  0
VERTEX
  5
4367
  8
0
 10
0.0
 20
0.0
 30
0.0
 70
   128
 71
    -1
 72
     5
 73
     8
  0
VERTEX
  5
4368
  8
0
 10
0.0
 20
0.0
 30
0.0
 70
   128
 71
     9
 72
    10
 73
   -11
  0
VERTEX
  5
4369
  8
0
 10
0.0
 20
0.0
 30
0.0
 70
   128
 71
    -9
 72
    11
 73
    14
  0
SEQEND
  5
43F6
  8
0
  0
POLYLINE
  5
436A
  8
0
 66
     1
 10
0.0
 20
0.0
 30
0.0
 70
    64
 71
    12
 72
    10
  0
VERTEX
  5
436B
  8
0
 10
150.0
 20
-325.0000000000007
 30
-16.50000000000001
 70
   192
  0
VERTEX
  5
436C
  8
0
 10
148.25
 20
-325.0000000000007
 30
-16.96891108675447
 70
   192
  0
VERTEX
  5
436D
  8
0
 10
146.9689110867544
 20
-325.0000000000007
 30
-18.25
 70
   192
  0
VERTEX
  5
436E
  8
0
 10
146.5
 20
-325.0000000000007
 30
-20.0
 70
   192
  0
VERTEX
  5
436F
  8
0
 10
146.9689110867544
 20
-325.0000000000007
 30
-21.75
 70
   192
  0
VERTEX
  5
4370
  8
0
 10
148.25
 20
-325.0000000000007
 30
-23.03108891324553
 70
   192
  0
VERTEX
  5
4371
  8
0
 10
150.0
 20
-325.0000000000007
 30
-23.49999999999999
 70
   192
  0
VERTEX
  5
4372
  8
0
 10
151.75
 20
-325.0000000000007
 30
-23.03108891324553
 70
   192
  0
VERTEX
  5
4373
  8
0
 10
153.0310889132455
 20
-325.0000000000007
 30
-21.75
 70
   192
  0
VERTEX
  5
4374
  8
0
 10
153.5
 20
-325.0000000000007
 30
-20.0
 70
   192
  0
VERTEX
  5
4375
  8
0
 10
153.0310889132455
 20
-325.0000000000007
 30
-18.25
 70
   192
  0
VERTEX
  5
4376
  8
0
 10
151.75
 20
-325.0000000000007
 30
-16.96891108675447
 70
   192
  0
VERTEX
  5
4377
  8
0
 10
0.0
 20
0.0
 30
0.0
 70
   128
 71
    11
 72
    12
 73
    -1
  0
VERTEX
  5
4378
  8
0
 10
0.0
 20
0.0
 30
0.0
 70
   128
 71
    10
 72
   -11
 73
    -1
  0
VERTEX
  5
4379
  8
0
 10
0.0
 20
0.0
 30
0.0
 70
   128
 71
     9
 72
   -10
 73
    -1
  0
VERTEX
  5
437A
  8
0
 10
0.0
 20
0.0
 30
0.0
 70
   128
 71
     8
 72
    -9
 73
    -1
  0
VERTEX
  5
437B
  8
0
 10
0.0
 20
0.0
 30
0.0
 70
   128
 71
     7
 72
    -8
 73
    -1
  0
VERTEX
  5
437C
  8
0
 10
0.0
 20
0.0
 30
0.0
 70
   128
 71
     6
 72
    -7
 73
    -1
  0
VERTEX
  5
437D
  8
0
 10
0.0
 20
0.0
 30
0.0
 70
   128
 71
     5
 72
    -6
 73
    -1
  0
VERTEX
  5
437E
  8
0
 10
0.0
 20
0.0
 30
0.0
 70
   128
 71
     4
 72
    -5
 73
    -1
  0
VERTEX
  5
437F
  8
0
 10
0.0
 20
0.0
 30
0.0
 70
   128
 71
     3
 72
    -4
 73
    -1
  0
VERTEX
  5
4380
  8
0
 10
0.0
 20
0.0
 30
0.0
 70
   128
 71
     2
 72
    -3
 73
     1
  0
SEQEND
  5
43F7
  8
0
  0
POLYLINE
  5
4381
  8
0
 66
     1
 10
0.0
 20
0.0
 30
0.0
 70
    64
 71
    12
 72
    10
  0
VERTEX
  5
4382
  8
0
 10
150.0
 20
-320.0000000000007
 30
-23.49999999999999
 70
   192
  0
VERTEX
  5
4383
  8
0
 10
151.75
 20
-320.0000000000007
 30
-23.03108891324553
 70
   192
  0
VERTEX
  5
4384
  8
0
 10
153.0310889132455
 20
-320.0000000000007
 30
-21.75
 70
   192
  0
VERTEX
  5
4385
  8
0
 10
153.5
 20
-320.0000000000007
 30
-20.0
 70
   192
  0
VERTEX
  5
4386
  8
0
 10
153.0310889132455
 20
-320.0000000000007
 30
-18.25
 70
   192
  0
VERTEX
  5
4387
  8
0
 10
151.75
 20
-320.0000000000007
 30
-16.96891108675447
 70
   192
  0
VERTEX
  5
4388
  8
0
 10
150.0
 20
-320.0000000000007
 30
-16.50000000000001
 70
   192
  0
VERTEX
  5
4389
  8
0
 10
148.25
 20
-320.0000000000007
 30
-16.96891108675447
 70
   192
  0
VERTEX
  5
438A
  8
0
 10
146.9689110867544
 20
-320.0000000000007
 30
-18.25
 70
   192
  0
VERTEX
  5
438B
  8
0
 10
146.5
 20
-320.0000000000007
 30
-20.0
 70
   192
  0
VERTEX
  5
438C
  8
0
 10
146.9689110867544
 20
-320.0000000000007
 30
-21.75
 70
   192
  0
VERTEX
  5
438D
  8
0
 10
148.25
 20
-320.0000000000007
 30
-23.03108891324553
 70
   192
  0
VERTEX
  5
438E
  8
0
 10
0.0
 20
0.0
 30
0.0
 70
   128
 71
     1
 72
    12
 73
   -11
  0
VERTEX
  5
438F
  8
0
 10
0.0
 20
0.0
 30
0.0
 70
   128
 71
    -1
 72
    11
 73
   -10
  0
VERTEX
  5
4390
  8
0
 10
0.0
 20
0.0
 30
0.0
 70
   128
 71
    -1
 72
    10
 73
    -9
  0
VERTEX
  5
4391
  8
0
 10
0.0
 20
0.0
 30
0.0
 70
   128
 71
    -1
 72
     9
 73
    -8
  0
VERTEX
  5
4392
  8
0
 10
0.0
 20
0.0
 30
0.0
 70
   128
 71
    -1
 72
     8
 73
    -7
  0
VERTEX
  5
4393
  8
0
 10
0.0
 20
0.0
 30
0.0
 70
   128
 71
    -1
 72
     7
 73
    -6
  0
VERTEX
  5
4394
  8
0
 10
0.0
 20
0.0
 30
0.0
 70
   128
 71
    -1
 72
     6
 73
    -5
  0
VERTEX
  5
4395
  8
0
 10
0.0
 20
0.0
 30
0.0
 70
   128
 71
    -1
 72
     5
 73
    -4
  0
VERTEX
  5
4396
  8
0
 10
0.0
 20
0.0
 30
0.0
 70
   128
 71
    -1
 72
     4
 73
    -3
  0
VERTEX
  5
4397
  8
0
 10
0.0
 20
0.0
 30
0.0
 70
   128
 71
    -1
 72
     3
 73
     2
  0
SEQEND
  5
43F8
  8
0
  0
ENDBLK
  5
43F4
  8
0
  0
ENDSEC
  0
SECTION
  2
ENTITIES
  0
INSERT
  5
3733
  8
0
  2
*X1
 10
0.0
 20
0.0
 30
0.0
  0
INSERT
  5
3734
  8
0
  2
*X2
 10
0.0
 20
0.0
 30
0.0
  0
INSERT
  5
3735
  8
0
  2
*X3
 10
0.0
 20
0.0
 30
0.0
  0
INSERT
  5
3736
  8
0
  2
*X4
 10
0.0
 20
0.0
 30
0.0
  0
INSERT
  5
3737
  8
0
  2
*X5
 10
0.0
 20
0.0
 30
0.0
  0
ENDSEC
  0
EOF
